  0
SECTION
  2
HEADER
  9
$EXTMIN
 10
2.6081261696115
 20
9.1844057006056
  9
$EXTMAX
 10
4.1829293192178
 20
10.760098205939
  9
$LIMMIN
 10
0
 20
0
  9
$LIMMAX
 10
8.2666666666667
 20
11.69
  0
ENDSEC
  0
SECTION
  2
TABLES
  0
TABLE
  2
LTYPE
 70
9
  0
LTYPE
  2
CONTINUOUS
  3
___________________________
 70
64
 72
65
 73
0
 40
0
  0
LTYPE
  2
HIDDEN
  3
_ _ _ _ _ _ _ _ _ _ _ _ _ _ 
 70
64
 72
65
 73
2
 49
0.25
 49
-0.125
 40
0.375
  0
LTYPE
  2
DASHED
  3
__ __ __ __ __ __ __ __ __ 
 70
64
 72
65
 73
2
 49
0.5
 49
-0.25
 40
0.75
  0
LTYPE
  2
CENTER
  3
____ _ ____ _ ____ _ ____ _ 
 70
64
 72
65
 73
4
 49
1.25
 49
-0.25
 49
0.25
 49
-0.25
 40
2
  0
LTYPE
  2
PHANTOM
  3
_____ _ _ _____ _ _ _____ _ _ 
 70
64
 72
65
 73
6
 49
1.25
 49
-0.25
 49
0.25
 49
-0.25
 49
0.25
 49
-0.25
 40
2.5
  0
LTYPE
  2
DOT
  3
...........................
 70
64
 72
65
 73
2
 49
0
 49
-0.25
 40
0.25
  0
LTYPE
  2
DASHDOT
  3
__ . __ . __ . __ . __ . __ . 
 70
64
 72
65
 73
4
 49
0.5
 49
-0.25
 49
0
 49
-0.25
 40
1
  0
LTYPE
  2
DIVIDE
  3
__ . . __ . . __ . . __ . . 
 70
64
 72
65
 73
6
 49
0.5
 49
-0.25
 49
0
 49
-0.25
 49
0
 49
-0.25
 40
1.25
  0
LTYPE
  2
BORDER
  3
__ __ . __ __ . __ __ . __ __ . 
 70
64
 72
65
 73
6
 49
0.5
 49
-0.25
 49
0.5
 49
-0.25
 49
0
 49
-0.25
 40
1.75
  0
ENDTAB
  0
TABLE
  2
LAYER
 70
1
  0
LAYER
  2
ERPC.1a
 62
7
  6
CONTINUOUS
 70
0
  0
ENDTAB
  0
TABLE
  2
STYLE
 70
5
  0
STYLE
  2
ptmarker
 70
1
 40
0
 50
0
 71
0
 41
0
 42
0
  3
ptmarks
  0
STYLE
  2
TXT
 70
0
 40
0
 50
0
 71
0
 41
0
 42
0
  3
TXT
  0
STYLE
  2
ITALIC
 70
0
 40
0
 50
0
 71
0
 41
0
 42
0
  3
ITALIC
  0
STYLE
  2
SIMPLEX
 70
0
 40
0
 50
0
 71
0
 41
0
 42
0
  3
SIMPLEX
  0
STYLE
  2
COMPLEX
 70
0
 40
0
 50
0
 71
0
 41
0
 42
0
  3
COMPLEX
  0
ENDTAB
  0
ENDSEC
  0
SECTION
  2
BLOCKS
  0
ENDSEC
  0
SECTION
  2
ENTITIES
  0
LINE
  8
ERPC.1a
  6
CONTINUOUS
 62
8
 10
3.7958872982737
 20
9.8433811196641
 11
3.7958872982737
 21
9.8342889894406
  0
LINE
  8
ERPC.1a
  6
CONTINUOUS
 62
8
 10
3.5798881119736
 20
9.718673931309
 11
3.7958872982737
 21
9.8433811196641
  0
LINE
  8
ERPC.1a
  6
CONTINUOUS
 62
8
 10
3.7025852124045
 20
9.5258413587913
 11
4.0242337549666
 21
9.7115452314239
  0
LINE
  8
ERPC.1a
  6
CONTINUOUS
 62
8
 10
3.7065222202785
 20
9.2564069725007
 11
3.7065222202785
 21
9.4585538207748
  0
LINE
  8
ERPC.1a
  6
CONTINUOUS
 62
8
 10
3.7104592281526
 20
9.2586800050565
 11
3.7104592281526
 21
9.4562807882189
  0
LINE
  8
ERPC.1a
  6
CONTINUOUS
 62
8
 10
2.8104723927921
 20
10.032581343267
 11
2.8104723927921
 21
10.167442369009
  0
LINE
  8
ERPC.1a
  6
CONTINUOUS
 62
8
 10
2.8144094006661
 20
10.030308310711
 11
2.8144094006661
 21
10.169715401565
  0
LINE
  8
ERPC.1a
  6
CONTINUOUS
 62
8
 10
2.6081261696115
 20
10.288813080543
 11
2.8144094006661
 21
10.169715401565
  0
LINE
  8
ERPC.1a
  6
CONTINUOUS
 62
8
 10
2.8144094006661
 20
9.7760146141632
 11
2.8144094006661
 21
9.9736153973255
  0
LINE
  8
ERPC.1a
  6
CONTINUOUS
 62
8
 10
2.8104723927921
 20
9.7737415816073
 11
2.8104723927921
 21
9.9758884298814
  0
LINE
  8
ERPC.1a
  6
CONTINUOUS
 62
8
 10
2.6081261696115
 20
10.284267015432
 11
2.8104723927921
 21
10.167442369009
  0
LINE
  8
ERPC.1a
  6
CONTINUOUS
 62
8
 10
3.8324842794207
 20
9.3013398497771
 11
3.8324842794207
 21
9.3210248891472
  0
LINE
  8
ERPC.1a
  6
CONTINUOUS
 62
8
 10
2.6081261696115
 20
9.8541977071363
 11
2.7789763297999
 21
9.7555573211604
  0
LINE
  8
ERPC.1a
  6
CONTINUOUS
 62
8
 10
2.6081261696115
 20
10.247898494538
 11
2.7789763297999
 21
10.149258108562
  0
LINE
  8
ERPC.1a
  6
CONTINUOUS
 62
8
 10
2.7789763297999
 20
9.7555573211604
 11
2.806535384918
 21
9.7714685490514
  0
LINE
  8
ERPC.1a
  6
CONTINUOUS
 62
8
 10
2.7789763297999
 20
10.149258108562
 11
2.806535384918
 21
10.165169336453
  0
LINE
  8
ERPC.1a
  6
CONTINUOUS
 62
8
 10
2.6081261696115
 20
10.27972095032
 11
2.806535384918
 21
10.165169336453
  0
LINE
  8
ERPC.1a
  6
CONTINUOUS
 62
8
 10
2.7789763297999
 20
9.7555573211604
 11
2.7789763297999
 21
10.149258108562
  0
LINE
  8
ERPC.1a
  6
CONTINUOUS
 62
8
 10
2.806535384918
 20
9.7714685490514
 11
2.806535384918
 21
10.165169336453
  0
LINE
  8
ERPC.1a
  6
CONTINUOUS
 62
8
 10
3.7025852124045
 20
9.5349334890147
 11
4.1829293192178
 21
9.812260288387
  0
LINE
  8
ERPC.1a
  6
CONTINUOUS
 62
8
 10
3.5877621277216
 20
9.7141278661972
 11
4.032091480633
 21
9.9706615377095
  0
LINE
  8
ERPC.1a
  6
CONTINUOUS
 62
8
 10
3.3340712739067
 20
9.4350731057545
 11
3.6750261572864
 21
9.2382227120537
  0
LINE
  8
ERPC.1a
  6
CONTINUOUS
 62
8
 10
3.3340712739067
 20
9.8287738931561
 11
3.6750261572864
 21
9.6319234994553
  0
LINE
  8
ERPC.1a
  6
CONTINUOUS
 62
8
 10
3.6750261572864
 20
9.2382227120537
 11
3.7025852124045
 21
9.2541339399448
  0
LINE
  8
ERPC.1a
  6
CONTINUOUS
 62
8
 10
3.3340712739067
 20
9.8287738931561
 11
3.3616303290248
 21
9.8446851210472
  0
LINE
  8
ERPC.1a
  6
CONTINUOUS
 62
8
 10
3.6750261572864
 20
9.6319234994553
 11
3.7025852124045
 21
9.6478347273464
  0
LINE
  8
ERPC.1a
  6
CONTINUOUS
 62
8
 10
3.3616303290248
 20
9.8446851210472
 11
3.7025852124045
 21
9.6478347273464
  0
LINE
  8
ERPC.1a
  6
CONTINUOUS
 62
8
 10
3.3340712739067
 20
9.4350731057545
 11
3.3340712739067
 21
9.8287738931561
  0
LINE
  8
ERPC.1a
  6
CONTINUOUS
 62
8
 10
3.6750261572864
 20
9.2382227120537
 11
3.6750261572864
 21
9.6319234994553
  0
LINE
  8
ERPC.1a
  6
CONTINUOUS
 62
8
 10
3.7025852124045
 20
9.2541339399448
 11
3.7025852124045
 21
9.6478347273464
  0
LINE
  8
ERPC.1a
  6
CONTINUOUS
 62
8
 10
3.2595637491317
 20
9.4380590202323
 11
3.2595637491317
 21
9.4577440596024
  0
LINE
  8
ERPC.1a
  6
CONTINUOUS
 62
8
 10
3.4541615971289
 20
10.031584414986
 11
3.4935316758691
 21
10.008854089427
  0
LINE
  8
ERPC.1a
  6
CONTINUOUS
 62
8
 10
3.4462875813809
 20
10.027038349874
 11
3.4462875813809
 21
10.08373126326
  0
LINE
  8
ERPC.1a
  6
CONTINUOUS
 62
8
 10
3.4226655341368
 20
10.013400154539
 11
3.4620356128769
 21
9.99066982898
  0
LINE
  8
ERPC.1a
  6
CONTINUOUS
 62
8
 10
3.4069175026407
 20
10.004308024315
 11
3.4462875813809
 21
9.9815776987566
  0
LINE
  8
ERPC.1a
  6
CONTINUOUS
 62
8
 10
3.3911694711447
 20
9.9952158940918
 11
3.4305395498848
 21
9.9724855685331
  0
LINE
  8
ERPC.1a
  6
CONTINUOUS
 62
8
 10
3.4384135656328
 20
10.022492284762
 11
3.477783644373
 21
9.9997619592035
  0
LINE
  8
ERPC.1a
  6
CONTINUOUS
 62
8
 10
3.4305395498848
 20
10.01794621965
 11
3.4305395498848
 21
10.074639133036
  0
LINE
  8
ERPC.1a
  6
CONTINUOUS
 62
8
 10
3.4147915183888
 20
10.008854089427
 11
3.4147915183888
 21
10.065547002813
  0
LINE
  8
ERPC.1a
  6
CONTINUOUS
 62
8
 10
3.3990434868927
 20
9.9997619592035
 11
3.3990434868927
 21
10.056454872589
  0
LINE
  8
ERPC.1a
  6
CONTINUOUS
 62
8
 10
3.3596734081525
 20
9.9770316336449
 11
3.3990434868927
 21
9.9543013080862
  0
LINE
  8
ERPC.1a
  6
CONTINUOUS
 62
8
 10
3.3439253766565
 20
9.9679395034214
 11
3.3832954553966
 21
9.9452091778627
  0
LINE
  8
ERPC.1a
  6
CONTINUOUS
 62
8
 10
3.3754214396486
 20
9.9861237638683
 11
3.4147915183888
 21
9.9633934383097
  0
LINE
  8
ERPC.1a
  6
CONTINUOUS
 62
8
 10
3.3832954553966
 20
9.99066982898
 11
3.3832954553966
 21
10.047362742366
  0
LINE
  8
ERPC.1a
  6
CONTINUOUS
 62
8
 10
3.3675474239006
 20
9.9815776987566
 11
3.3675474239006
 21
10.038270612142
  0
LINE
  8
ERPC.1a
  6
CONTINUOUS
 62
8
 10
3.3517993924045
 20
9.9724855685331
 11
3.3517993924045
 21
10.029178481919
  0
LINE
  8
ERPC.1a
  6
CONTINUOUS
 62
8
 10
3.3360513609084
 20
9.9633934383097
 11
3.3360513609084
 21
10.020086351695
  0
LINE
  8
ERPC.1a
  6
CONTINUOUS
 62
8
 10
3.3124293136643
 20
9.9497552429745
 11
3.3517993924045
 21
9.9270249174158
  0
LINE
  8
ERPC.1a
  6
CONTINUOUS
 62
8
 10
3.2966812821683
 20
9.940663112751
 11
3.3360513609084
 21
9.9179327871924
  0
LINE
  8
ERPC.1a
  6
CONTINUOUS
 62
8
 10
3.2809332506722
 20
9.9315709825276
 11
3.3203033294124
 21
9.9088406569689
  0
LINE
  8
ERPC.1a
  6
CONTINUOUS
 62
8
 10
3.3281773451604
 20
9.9588473731979
 11
3.3675474239006
 21
9.9361170476393
  0
LINE
  8
ERPC.1a
  6
CONTINUOUS
 62
8
 10
3.3203033294124
 20
9.9543013080862
 11
3.3203033294124
 21
10.010994221472
  0
LINE
  8
ERPC.1a
  6
CONTINUOUS
 62
8
 10
3.3045552979163
 20
9.9452091778627
 11
3.3045552979163
 21
10.001902091249
  0
LINE
  8
ERPC.1a
  6
CONTINUOUS
 62
8
 10
3.2888072664203
 20
9.9361170476393
 11
3.2888072664203
 21
9.9928099610251
  0
LINE
  8
ERPC.1a
  6
CONTINUOUS
 62
8
 10
3.0919568727195
 20
9.8224654198461
 11
3.1313269514596
 21
9.7997350942874
  0
LINE
  8
ERPC.1a
  6
CONTINUOUS
 62
8
 10
3.0998308884675
 20
9.8270114849578
 11
3.0998308884675
 21
9.8837043983436
  0
LINE
  8
ERPC.1a
  6
CONTINUOUS
 62
8
 10
3.1234529357116
 20
9.840649680293
 11
3.1628230144518
 21
9.8179193547343
  0
LINE
  8
ERPC.1a
  6
CONTINUOUS
 62
8
 10
3.1077049042155
 20
9.8315575500695
 11
3.1470749829557
 21
9.8088272245109
  0
LINE
  8
ERPC.1a
  6
CONTINUOUS
 62
8
 10
3.1155789199636
 20
9.8361036151813
 11
3.1155789199636
 21
9.8927965285671
  0
LINE
  8
ERPC.1a
  6
CONTINUOUS
 62
8
 10
3.1392009672077
 20
9.8497418105164
 11
3.1785710459478
 21
9.8270114849578
  0
LINE
  8
ERPC.1a
  6
CONTINUOUS
 62
8
 10
3.1313269514596
 20
9.8451957454047
 11
3.1313269514596
 21
9.9018886587905
  0
LINE
  8
ERPC.1a
  6
CONTINUOUS
 62
8
 10
3.1470749829557
 20
9.8542878756282
 11
3.1470749829557
 21
9.910980789014
  0
LINE
  8
ERPC.1a
  6
CONTINUOUS
 62
8
 10
3.1706970301998
 20
9.8679260709634
 11
3.2100671089399
 21
9.8451957454047
  0
LINE
  8
ERPC.1a
  6
CONTINUOUS
 62
8
 10
3.1549489987037
 20
9.8588339407399
 11
3.1943190774439
 21
9.8361036151813
  0
LINE
  8
ERPC.1a
  6
CONTINUOUS
 62
8
 10
3.1628230144518
 20
9.8633800058516
 11
3.1628230144518
 21
9.9200729192375
  0
LINE
  8
ERPC.1a
  6
CONTINUOUS
 62
8
 10
3.1864450616958
 20
9.8770182011868
 11
3.225815140436
 21
9.8542878756282
  0
LINE
  8
ERPC.1a
  6
CONTINUOUS
 62
8
 10
3.1785710459478
 20
9.8724721360751
 11
3.1785710459478
 21
9.9291650494609
  0
LINE
  8
ERPC.1a
  6
CONTINUOUS
 62
8
 10
3.1943190774439
 20
9.8815642662985
 11
3.1943190774439
 21
9.9382571796844
  0
LINE
  8
ERPC.1a
  6
CONTINUOUS
 62
8
 10
3.217941124688
 20
9.8952024616337
 11
3.2573112034281
 21
9.8724721360751
  0
LINE
  8
ERPC.1a
  6
CONTINUOUS
 62
8
 10
3.2021930931919
 20
9.8861103314103
 11
3.2415631719321
 21
9.8633800058516
  0
LINE
  8
ERPC.1a
  6
CONTINUOUS
 62
8
 10
3.2100671089399
 20
9.890656396522
 11
3.2100671089399
 21
9.9473493099078
  0
LINE
  8
ERPC.1a
  6
CONTINUOUS
 62
8
 10
3.233689156184
 20
9.9042945918572
 11
3.2730592349242
 21
9.8815642662985
  0
LINE
  8
ERPC.1a
  6
CONTINUOUS
 62
8
 10
3.225815140436
 20
9.8997485267455
 11
3.225815140436
 21
9.9564414401313
  0
LINE
  8
ERPC.1a
  6
CONTINUOUS
 62
8
 10
3.2415631719321
 20
9.9088406569689
 11
3.2415631719321
 21
9.9655335703547
  0
LINE
  8
ERPC.1a
  6
CONTINUOUS
 62
8
 10
3.2494371876801
 20
9.9133867220806
 11
3.2888072664203
 21
9.890656396522
  0
LINE
  8
ERPC.1a
  6
CONTINUOUS
 62
8
 10
3.2573112034281
 20
9.9179327871924
 11
3.2573112034281
 21
9.9746257005782
  0
LINE
  8
ERPC.1a
  6
CONTINUOUS
 62
8
 10
3.2651852191762
 20
9.9224788523041
 11
3.3045552979163
 21
9.8997485267455
  0
LINE
  8
ERPC.1a
  6
CONTINUOUS
 62
8
 10
3.2730592349242
 20
9.9270249174158
 11
3.2730592349242
 21
9.9837178308017
  0
LINE
  8
ERPC.1a
  6
CONTINUOUS
 62
8
 10
4.1829293192178
 20
9.8835752709986
 11
3.6903657794882
 21
10.167956963254
  0
LINE
  8
ERPC.1a
  6
CONTINUOUS
 62
8
 10
3.1234529357116
 20
9.7951890291757
 11
3.5014056916171
 21
10.013400154539
  0
LINE
  8
ERPC.1a
  6
CONTINUOUS
 62
8
 10
3.1234529357116
 20
9.7951890291757
 11
3.1234529357116
 21
9.1844057006056
  0
POLYLINE
  8
ERPC.1a
  6
CONTINUOUS
 62
7
 70
0
 66
1
  0
VERTEX
  8
ERPC.1a
  6
CONTINUOUS
 62
7
 10
3.6294965368729
 20
10.3187349657
  0
VERTEX
  8
ERPC.1a
  6
CONTINUOUS
 62
7
 10
3.597794474561
 20
10.288432103071
  0
VERTEX
  8
ERPC.1a
  6
CONTINUOUS
 62
7
 10
3.5995600980395
 20
10.344159692643
  0
VERTEX
  8
ERPC.1a
  6
CONTINUOUS
 62
7
 10
3.6288387452993
 20
10.321189877274
  0
SEQEND
  0
POLYLINE
  8
ERPC.1a
  6
CONTINUOUS
 62
7
 70
0
 66
1
  0
VERTEX
  8
ERPC.1a
  6
CONTINUOUS
 62
7
 10
3.6274398387373
 20
10.666395676272
  0
VERTEX
  8
ERPC.1a
  6
CONTINUOUS
 62
7
 10
3.6248132787373
 20
10.661846340903
  0
VERTEX
  8
ERPC.1a
  6
CONTINUOUS
 62
7
 10
3.6106791294826
 20
10.676072476272
  0
VERTEX
  8
ERPC.1a
  6
CONTINUOUS
 62
7
 10
3.6221184894826
 20
10.695886028998
  0
VERTEX
  8
ERPC.1a
  6
CONTINUOUS
 62
7
 10
3.6305846683232
 20
10.692993400896
  0
VERTEX
  8
ERPC.1a
  6
CONTINUOUS
 62
7
 10
3.6283383987373
 20
10.667952027846
  0
SEQEND
  0
POLYLINE
  8
ERPC.1a
  6
CONTINUOUS
 62
7
 70
0
 66
1
  0
VERTEX
  8
ERPC.1a
  6
CONTINUOUS
 62
7
 10
3.6297638502909
 20
10.524020760269
  0
VERTEX
  8
ERPC.1a
  6
CONTINUOUS
 62
7
 10
3.603280347979
 20
10.502756708702
  0
VERTEX
  8
ERPC.1a
  6
CONTINUOUS
 62
7
 10
3.5970060760883
 20
10.555065031007
  0
VERTEX
  8
ERPC.1a
  6
CONTINUOUS
 62
7
 10
3.6075468760883
 20
10.57332223216
  0
VERTEX
  8
ERPC.1a
  6
CONTINUOUS
 62
7
 10
3.639511943024
 20
10.55486719216
  0
VERTEX
  8
ERPC.1a
  6
CONTINUOUS
 62
7
 10
3.6299953583932
 20
10.527877744065
  0
SEQEND
  0
POLYLINE
  8
ERPC.1a
  6
CONTINUOUS
 62
7
 70
0
 66
1
  0
VERTEX
  8
ERPC.1a
  6
CONTINUOUS
 62
7
 10
4.1440456858946
 20
9.6793438708738
  0
VERTEX
  8
ERPC.1a
  6
CONTINUOUS
 62
7
 10
4.1392648424232
 20
9.6781134470783
  0
VERTEX
  8
ERPC.1a
  6
CONTINUOUS
 62
7
 10
4.1286098201113
 20
9.6842651270783
  0
VERTEX
  8
ERPC.1a
  6
CONTINUOUS
 62
7
 10
4.1191308589589
 20
9.7100102847594
  0
VERTEX
  8
ERPC.1a
  6
CONTINUOUS
 62
7
 10
4.1329560105326
 20
9.7303619097073
  0
VERTEX
  8
ERPC.1a
  6
CONTINUOUS
 62
7
 10
4.1549445401113
 20
9.7298782001214
  0
VERTEX
  8
ERPC.1a
  6
CONTINUOUS
 62
7
 10
4.1409928424232
 20
9.6811064308738
  0
SEQEND
  0
POLYLINE
  8
ERPC.1a
  6
CONTINUOUS
 62
7
 70
0
 66
1
  0
VERTEX
  8
ERPC.1a
  6
CONTINUOUS
 62
7
 10
3.6411217389323
 20
10.010060431008
  0
VERTEX
  8
ERPC.1a
  6
CONTINUOUS
 62
7
 10
3.6335195600918
 20
10.014449551008
  0
VERTEX
  8
ERPC.1a
  6
CONTINUOUS
 62
7
 10
3.6411217389323
 20
10.010060431008
  0
SEQEND
  0
POLYLINE
  8
ERPC.1a
  6
CONTINUOUS
 62
7
 70
0
 66
1
  0
VERTEX
  8
ERPC.1a
  6
CONTINUOUS
 62
7
 10
3.8226162016675
 20
9.8873502013521
  0
VERTEX
  8
ERPC.1a
  6
CONTINUOUS
 62
7
 10
3.8186993581961
 20
9.8876162694544
  0
VERTEX
  8
ERPC.1a
  6
CONTINUOUS
 62
7
 10
3.8119611793556
 20
9.8935018813521
  0
VERTEX
  8
ERPC.1a
  6
CONTINUOUS
 62
7
 10
3.818539142827
 20
9.8978450082949
  0
VERTEX
  8
ERPC.1a
  6
CONTINUOUS
 62
7
 10
3.8226162016675
 20
9.8873502013521
  0
SEQEND
  0
POLYLINE
  8
ERPC.1a
  6
CONTINUOUS
 62
7
 70
0
 66
1
  0
VERTEX
  8
ERPC.1a
  6
CONTINUOUS
 62
7
 10
4.1048161877425
 20
9.7352553036644
  0
VERTEX
  8
ERPC.1a
  6
CONTINUOUS
 62
7
 10
4.0967877254306
 20
9.7459563190335
  0
VERTEX
  8
ERPC.1a
  6
CONTINUOUS
 62
7
 10
4.1048161877425
 20
9.7352553036644
  0
SEQEND
  0
POLYLINE
  8
ERPC.1a
  6
CONTINUOUS
 62
7
 70
0
 66
1
  0
VERTEX
  8
ERPC.1a
  6
CONTINUOUS
 62
7
 10
3.6597762264993
 20
10.07644007203
  0
VERTEX
  8
ERPC.1a
  6
CONTINUOUS
 62
7
 10
3.6537303992324
 20
10.07993063203
  0
VERTEX
  8
ERPC.1a
  6
CONTINUOUS
 62
7
 10
3.6597762264993
 20
10.07644007203
  0
SEQEND
  0
POLYLINE
  8
ERPC.1a
  6
CONTINUOUS
 62
7
 70
0
 66
1
  0
VERTEX
  8
ERPC.1a
  6
CONTINUOUS
 62
7
 10
3.6204263416059
 20
10.047479551767
  0
VERTEX
  8
ERPC.1a
  6
CONTINUOUS
 62
7
 10
3.6173734981345
 20
10.049242111767
  0
VERTEX
  8
ERPC.1a
  6
CONTINUOUS
 62
7
 10
3.6239169016059
 20
10.053525379034
  0
VERTEX
  8
ERPC.1a
  6
CONTINUOUS
 62
7
 10
3.6204263416059
 20
10.047479551767
  0
SEQEND
  0
POLYLINE
  8
ERPC.1a
  6
CONTINUOUS
 62
7
 70
0
 66
1
  0
VERTEX
  8
ERPC.1a
  6
CONTINUOUS
 62
7
 10
3.5980583033965
 20
10.448234812287
  0
VERTEX
  8
ERPC.1a
  6
CONTINUOUS
 62
7
 10
3.5974603714988
 20
10.45065516386
  0
VERTEX
  8
ERPC.1a
  6
CONTINUOUS
 62
7
 10
3.5946735961296
 20
10.456334567332
  0
VERTEX
  8
ERPC.1a
  6
CONTINUOUS
 62
7
 10
3.5978980880274
 20
10.458463551127
  0
VERTEX
  8
ERPC.1a
  6
CONTINUOUS
 62
7
 10
3.5980583033965
 20
10.448234812287
  0
SEQEND
  0
POLYLINE
  8
ERPC.1a
  6
CONTINUOUS
 62
7
 70
0
 66
1
  0
VERTEX
  8
ERPC.1a
  6
CONTINUOUS
 62
7
 10
3.7329101080953
 20
9.9451747662795
  0
VERTEX
  8
ERPC.1a
  6
CONTINUOUS
 62
7
 10
3.7330817565217
 20
9.9490663100749
  0
VERTEX
  8
ERPC.1a
  6
CONTINUOUS
 62
7
 10
3.7285324211525
 20
9.9516928700749
  0
VERTEX
  8
ERPC.1a
  6
CONTINUOUS
 62
7
 10
3.7294309811525
 20
9.9532492216486
  0
VERTEX
  8
ERPC.1a
  6
CONTINUOUS
 62
7
 10
3.7329101080953
 20
9.9451747662795
  0
SEQEND
  0
POLYLINE
  8
ERPC.1a
  6
CONTINUOUS
 62
7
 70
0
 66
1
  0
VERTEX
  8
ERPC.1a
  6
CONTINUOUS
 62
7
 10
3.6915340689184
 20
9.9834309640334
  0
VERTEX
  8
ERPC.1a
  6
CONTINUOUS
 62
7
 10
3.6822038900779
 20
9.9848271002379
  0
VERTEX
  8
ERPC.1a
  6
CONTINUOUS
 62
7
 10
3.6808790466065
 20
9.9895826440334
  0
VERTEX
  8
ERPC.1a
  6
CONTINUOUS
 62
7
 10
3.6915340689184
 20
9.9834309640334
  0
SEQEND
  0
POLYLINE
  8
ERPC.1a
  6
CONTINUOUS
 62
7
 70
0
 66
1
  0
VERTEX
  8
ERPC.1a
  6
CONTINUOUS
 62
7
 10
3.6728371491488
 20
10.284170925582
  0
VERTEX
  8
ERPC.1a
  6
CONTINUOUS
 62
7
 10
3.666731462206
 20
10.287696045582
  0
VERTEX
  8
ERPC.1a
  6
CONTINUOUS
 62
7
 10
3.6661335303083
 20
10.290116397156
  0
VERTEX
  8
ERPC.1a
  6
CONTINUOUS
 62
7
 10
3.6728371491488
 20
10.284170925582
  0
SEQEND
  0
POLYLINE
  8
ERPC.1a
  6
CONTINUOUS
 62
7
 70
0
 66
1
  0
VERTEX
  8
ERPC.1a
  6
CONTINUOUS
 62
7
 10
4.1032365209475
 20
9.7410874059936
  0
VERTEX
  8
ERPC.1a
  6
CONTINUOUS
 62
7
 10
4.0971906936806
 20
9.7445779659936
  0
VERTEX
  8
ERPC.1a
  6
CONTINUOUS
 62
7
 10
4.1032365209475
 20
9.7410874059936
  0
SEQEND
  0
POLYLINE
  8
ERPC.1a
  6
CONTINUOUS
 62
7
 70
0
 66
1
  0
VERTEX
  8
ERPC.1a
  6
CONTINUOUS
 62
7
 10
3.6527276806161
 20
10.226768126678
  0
VERTEX
  8
ERPC.1a
  6
CONTINUOUS
 62
7
 10
3.648178345247
 20
10.229394686678
  0
VERTEX
  8
ERPC.1a
  6
CONTINUOUS
 62
7
 10
3.6562528006161
 20
10.232873813621
  0
VERTEX
  8
ERPC.1a
  6
CONTINUOUS
 62
7
 10
3.6527276806161
 20
10.226768126678
  0
SEQEND
  0
POLYLINE
  8
ERPC.1a
  6
CONTINUOUS
 62
7
 70
0
 66
1
  0
VERTEX
  8
ERPC.1a
  6
CONTINUOUS
 62
7
 10
3.6157494324483
 20
10.070589644793
  0
VERTEX
  8
ERPC.1a
  6
CONTINUOUS
 62
7
 10
3.6111402374032
 20
10.073250764793
  0
VERTEX
  8
ERPC.1a
  6
CONTINUOUS
 62
7
 10
3.6192745524483
 20
10.076695331736
  0
VERTEX
  8
ERPC.1a
  6
CONTINUOUS
 62
7
 10
3.6157494324483
 20
10.070589644793
  0
SEQEND
  0
POLYLINE
  8
ERPC.1a
  6
CONTINUOUS
 62
7
 70
0
 66
1
  0
VERTEX
  8
ERPC.1a
  6
CONTINUOUS
 62
7
 10
3.5403350393389
 20
10.614508274116
  0
VERTEX
  8
ERPC.1a
  6
CONTINUOUS
 62
7
 10
3.5327328604984
 20
10.618897394116
  0
VERTEX
  8
ERPC.1a
  6
CONTINUOUS
 62
7
 10
3.5329390689248
 20
10.622848797587
  0
VERTEX
  8
ERPC.1a
  6
CONTINUOUS
 62
7
 10
3.5403350393389
 20
10.614508274116
  0
SEQEND
  0
POLYLINE
  8
ERPC.1a
  6
CONTINUOUS
 62
7
 70
0
 66
1
  0
VERTEX
  8
ERPC.1a
  6
CONTINUOUS
 62
7
 10
3.7629422673372
 20
9.9165393651349
  0
VERTEX
  8
ERPC.1a
  6
CONTINUOUS
 62
7
 10
3.7627221922921
 20
9.9268026639754
  0
VERTEX
  8
ERPC.1a
  6
CONTINUOUS
 62
7
 10
3.7629422673372
 20
9.9165393651349
  0
SEQEND
  0
POLYLINE
  8
ERPC.1a
  6
CONTINUOUS
 62
7
 70
0
 66
1
  0
VERTEX
  8
ERPC.1a
  6
CONTINUOUS
 62
7
 10
3.7802212461777
 20
9.9289109543895
  0
VERTEX
  8
ERPC.1a
  6
CONTINUOUS
 62
7
 10
3.7771684027063
 20
9.9306735143895
  0
VERTEX
  8
ERPC.1a
  6
CONTINUOUS
 62
7
 10
3.7828478061777
 20
9.9334602897587
  0
VERTEX
  8
ERPC.1a
  6
CONTINUOUS
 62
7
 10
3.7802212461777
 20
9.9289109543895
  0
SEQEND
  0
POLYLINE
  8
ERPC.1a
  6
CONTINUOUS
 62
7
 70
0
 66
1
  0
VERTEX
  8
ERPC.1a
  6
CONTINUOUS
 62
7
 10
3.7989970253382
 20
9.958686740323
  0
VERTEX
  8
ERPC.1a
  6
CONTINUOUS
 62
7
 10
3.7892405630263
 20
9.9663947718967
  0
VERTEX
  8
ERPC.1a
  6
CONTINUOUS
 62
7
 10
3.7989970253382
 20
9.958686740323
  0
SEQEND
  0
POLYLINE
  8
ERPC.1a
  6
CONTINUOUS
 62
7
 70
0
 66
1
  0
VERTEX
  8
ERPC.1a
  6
CONTINUOUS
 62
7
 10
3.5443337836842
 20
10.299826874931
  0
VERTEX
  8
ERPC.1a
  6
CONTINUOUS
 62
7
 10
3.536963112946
 20
10.308072978726
  0
VERTEX
  8
ERPC.1a
  6
CONTINUOUS
 62
7
 10
3.5443337836842
 20
10.299826874931
  0
SEQEND
  0
POLYLINE
  8
ERPC.1a
  6
CONTINUOUS
 62
7
 70
0
 66
1
  0
VERTEX
  8
ERPC.1a
  6
CONTINUOUS
 62
7
 10
3.5110151076866
 20
10.196831704357
  0
VERTEX
  8
ERPC.1a
  6
CONTINUOUS
 62
7
 10
3.4974130946365
 20
10.218891526669
  0
VERTEX
  8
ERPC.1a
  6
CONTINUOUS
 62
7
 10
3.4918624100126
 20
10.258490898884
  0
VERTEX
  8
ERPC.1a
  6
CONTINUOUS
 62
7
 10
3.5063086204268
 20
10.262361749298
  0
VERTEX
  8
ERPC.1a
  6
CONTINUOUS
 62
7
 10
3.5279505288461
 20
10.243721194253
  0
VERTEX
  8
ERPC.1a
  6
CONTINUOUS
 62
7
 10
3.5088262642152
 20
10.200090756255
  0
SEQEND
  0
POLYLINE
  8
ERPC.1a
  6
CONTINUOUS
 62
7
 70
0
 66
1
  0
VERTEX
  8
ERPC.1a
  6
CONTINUOUS
 62
7
 10
3.5901466777625
 20
9.9952842650622
  0
VERTEX
  8
ERPC.1a
  6
CONTINUOUS
 62
7
 10
3.5656235742981
 20
10.019578923903
  0
VERTEX
  8
ERPC.1a
  6
CONTINUOUS
 62
7
 10
3.570751038929
 20
10.038966193157
  0
VERTEX
  8
ERPC.1a
  6
CONTINUOUS
 62
7
 10
3.5939838589219
 20
10.019486937788
  0
VERTEX
  8
ERPC.1a
  6
CONTINUOUS
 62
7
 10
3.5919092377625
 20
9.9983371085335
  0
SEQEND
  0
POLYLINE
  8
ERPC.1a
  6
CONTINUOUS
 62
7
 70
0
 66
1
  0
VERTEX
  8
ERPC.1a
  6
CONTINUOUS
 62
7
 10
3.4962015403914
 20
10.311047474424
  0
VERTEX
  8
ERPC.1a
  6
CONTINUOUS
 62
7
 10
3.4887710099773
 20
10.319328138219
  0
VERTEX
  8
ERPC.1a
  6
CONTINUOUS
 62
7
 10
3.4962015403914
 20
10.311047474424
  0
SEQEND
  0
POLYLINE
  8
ERPC.1a
  6
CONTINUOUS
 62
7
 70
0
 66
1
  0
VERTEX
  8
ERPC.1a
  6
CONTINUOUS
 62
7
 10
3.5497740938403
 20
10.270505306332
  0
VERTEX
  8
ERPC.1a
  6
CONTINUOUS
 62
7
 10
3.5419058468975
 20
10.27097758286
  0
VERTEX
  8
ERPC.1a
  6
CONTINUOUS
 62
7
 10
3.5497740938403
 20
10.270505306332
  0
SEQEND
  0
POLYLINE
  8
ERPC.1a
  6
CONTINUOUS
 62
7
 70
0
 66
1
  0
VERTEX
  8
ERPC.1a
  6
CONTINUOUS
 62
7
 10
3.5132705956003
 20
10.327991626891
  0
VERTEX
  8
ERPC.1a
  6
CONTINUOUS
 62
7
 10
3.5062663486576
 20
10.329960395317
  0
VERTEX
  8
ERPC.1a
  6
CONTINUOUS
 62
7
 10
3.5132705956003
 20
10.327991626891
  0
SEQEND
  0
POLYLINE
  8
ERPC.1a
  6
CONTINUOUS
 62
7
 70
0
 66
1
  0
VERTEX
  8
ERPC.1a
  6
CONTINUOUS
 62
7
 10
3.5808978728357
 20
10.20749910502
  0
VERTEX
  8
ERPC.1a
  6
CONTINUOUS
 62
7
 10
3.5793415212621
 20
10.20839766502
  0
VERTEX
  8
ERPC.1a
  6
CONTINUOUS
 62
7
 10
3.5835244328357
 20
10.212048440389
  0
VERTEX
  8
ERPC.1a
  6
CONTINUOUS
 62
7
 10
3.5808978728357
 20
10.20749910502
  0
SEQEND
  0
POLYLINE
  8
ERPC.1a
  6
CONTINUOUS
 62
7
 70
0
 66
1
  0
VERTEX
  8
ERPC.1a
  6
CONTINUOUS
 62
7
 10
3.5671493200956
 20
10.110003993143
  0
VERTEX
  8
ERPC.1a
  6
CONTINUOUS
 62
7
 10
3.5647542681978
 20
10.10931164157
  0
VERTEX
  8
ERPC.1a
  6
CONTINUOUS
 62
7
 10
3.5697758800956
 20
10.114553328512
  0
VERTEX
  8
ERPC.1a
  6
CONTINUOUS
 62
7
 10
3.5671493200956
 20
10.110003993143
  0
SEQEND
  0
POLYLINE
  8
ERPC.1a
  6
CONTINUOUS
 62
7
 70
0
 66
1
  0
VERTEX
  8
ERPC.1a
  6
CONTINUOUS
 62
7
 10
3.5749113393676
 20
10.188965806912
  0
VERTEX
  8
ERPC.1a
  6
CONTINUOUS
 62
7
 10
3.5703620039984
 20
10.191592366912
  0
VERTEX
  8
ERPC.1a
  6
CONTINUOUS
 62
7
 10
3.5738525639984
 20
10.197638194179
  0
VERTEX
  8
ERPC.1a
  6
CONTINUOUS
 62
7
 10
3.5749113393676
 20
10.188965806912
  0
SEQEND
  0
POLYLINE
  8
ERPC.1a
  6
CONTINUOUS
 62
7
 70
0
 66
1
  0
VERTEX
  8
ERPC.1a
  6
CONTINUOUS
 62
7
 10
3.6701649490061
 20
10.181845072516
  0
VERTEX
  8
ERPC.1a
  6
CONTINUOUS
 62
7
 10
3.6608002101655
 20
10.183181349045
  0
VERTEX
  8
ERPC.1a
  6
CONTINUOUS
 62
7
 10
3.6701649490061
 20
10.181845072516
  0
SEQEND
  0
POLYLINE
  8
ERPC.1a
  6
CONTINUOUS
 62
7
 70
0
 66
1
  0
VERTEX
  8
ERPC.1a
  6
CONTINUOUS
 62
7
 10
3.504856442462
 20
10.646457022138
  0
VERTEX
  8
ERPC.1a
  6
CONTINUOUS
 62
7
 10
3.4991770389906
 20
10.643670246769
  0
VERTEX
  8
ERPC.1a
  6
CONTINUOUS
 62
7
 10
3.4983130389906
 20
10.642173754871
  0
VERTEX
  8
ERPC.1a
  6
CONTINUOUS
 62
7
 10
3.4937038439456
 20
10.644834874871
  0
VERTEX
  8
ERPC.1a
  6
CONTINUOUS
 62
7
 10
3.502908367417
 20
10.653727337183
  0
VERTEX
  8
ERPC.1a
  6
CONTINUOUS
 62
7
 10
3.504856442462
 20
10.646457022138
  0
SEQEND
  0
POLYLINE
  8
ERPC.1a
  6
CONTINUOUS
 62
7
 70
0
 66
1
  0
VERTEX
  8
ERPC.1a
  6
CONTINUOUS
 62
7
 10
3.6700882311156
 20
10.106986116255
  0
VERTEX
  8
ERPC.1a
  6
CONTINUOUS
 62
7
 10
3.6639825441729
 20
10.110511236255
  0
VERTEX
  8
ERPC.1a
  6
CONTINUOUS
 62
7
 10
3.6700882311156
 20
10.106986116255
  0
SEQEND
  0
POLYLINE
  8
ERPC.1a
  6
CONTINUOUS
 62
7
 70
0
 66
1
  0
VERTEX
  8
ERPC.1a
  6
CONTINUOUS
 62
7
 10
3.6695757060755
 20
10.107371507642
  0
VERTEX
  8
ERPC.1a
  6
CONTINUOUS
 62
7
 10
3.6665228626042
 20
10.109134067642
  0
VERTEX
  8
ERPC.1a
  6
CONTINUOUS
 62
7
 10
3.6586546156614
 20
10.109606344171
  0
VERTEX
  8
ERPC.1a
  6
CONTINUOUS
 62
7
 10
3.6621797356614
 20
10.115712031114
  0
VERTEX
  8
ERPC.1a
  6
CONTINUOUS
 62
7
 10
3.6695757060755
 20
10.107371507642
  0
SEQEND
  0
POLYLINE
  8
ERPC.1a
  6
CONTINUOUS
 62
7
 70
0
 66
1
  0
VERTEX
  8
ERPC.1a
  6
CONTINUOUS
 62
7
 10
3.5035814829899
 20
10.555723417501
  0
VERTEX
  8
ERPC.1a
  6
CONTINUOUS
 62
7
 10
3.4996899391944
 20
10.555895065927
  0
VERTEX
  8
ERPC.1a
  6
CONTINUOUS
 62
7
 10
3.5055755510921
 20
10.562633244768
  0
VERTEX
  8
ERPC.1a
  6
CONTINUOUS
 62
7
 10
3.5035814829899
 20
10.555723417501
  0
SEQEND
  0
POLYLINE
  8
ERPC.1a
  6
CONTINUOUS
 62
7
 70
0
 66
1
  0
VERTEX
  8
ERPC.1a
  6
CONTINUOUS
 62
7
 10
3.7804269809135
 20
9.9903652719319
  0
VERTEX
  8
ERPC.1a
  6
CONTINUOUS
 62
7
 10
3.7713283101753
 20
9.9956183919319
  0
VERTEX
  8
ERPC.1a
  6
CONTINUOUS
 62
7
 10
3.7804269809135
 20
9.9903652719319
  0
SEQEND
  0
LINE
  8
ERPC.1a
  6
CONTINUOUS
 62
8
 10
3.0840828569714
 20
10.759208850212
 11
3.0840828569714
 21
9.1844057006056
  0
LINE
  8
ERPC.1a
  6
CONTINUOUS
 62
8
 10
3.1154418136735
 20
9.8927173702136
 11
3.4620356128769
 21
10.239311169417
  0
LINE
  8
ERPC.1a
  6
CONTINUOUS
 62
8
 10
3.178674542145
 20
9.9292248030182
 11
3.4620356128769
 21
10.21258587375
  0
LINE
  8
ERPC.1a
  6
CONTINUOUS
 62
8
 10
3.0840828569714
 20
10.04843548318
 11
3.4620356128769
 21
10.426388239085
  0
LINE
  8
ERPC.1a
  6
CONTINUOUS
 62
8
 10
3.0840828569714
 20
10.021710187513
 11
3.4620356128769
 21
10.399662943418
  0
LINE
  8
ERPC.1a
  6
CONTINUOUS
 62
8
 10
3.0840828569714
 20
10.235512552848
 11
3.4620356128769
 21
10.613465308754
  0
LINE
  8
ERPC.1a
  6
CONTINUOUS
 62
8
 10
3.0840828569714
 20
10.208787257181
 11
3.4620356128769
 21
10.586740013087
  0
LINE
  8
ERPC.1a
  6
CONTINUOUS
 62
8
 10
3.0840828569714
 20
10.422589622516
 11
3.420702084667
 21
10.759208850212
  0
LINE
  8
ERPC.1a
  6
CONTINUOUS
 62
8
 10
3.0840828569714
 20
10.609666692185
 11
3.2336250149988
 21
10.759208850212
  0
LINE
  8
ERPC.1a
  6
CONTINUOUS
 62
8
 10
3.0840828569714
 20
10.582941396518
 11
3.2603503106657
 21
10.759208850212
  0
LINE
  8
ERPC.1a
  6
CONTINUOUS
 62
8
 10
3.0840828569714
 20
9.8746122681202
 11
3.4620356128769
 21
10.092823393483
  0
LINE
  8
ERPC.1a
  6
CONTINUOUS
 62
8
 10
3.4620356128769
 20
10.036130480097
 11
3.4620356128769
 21
10.759208850212
  0
POLYLINE
  8
ERPC.1a
  6
CONTINUOUS
 62
7
 70
0
 66
1
  0
VERTEX
  8
ERPC.1a
  6
CONTINUOUS
 62
7
 10
3.7234907282826
 20
10.01167629097
  0
VERTEX
  8
ERPC.1a
  6
CONTINUOUS
 62
7
 10
3.68972810915
 20
10.015366999986
  0
VERTEX
  8
ERPC.1a
  6
CONTINUOUS
 62
7
 10
3.7222790983634
 20
10.056791149602
  0
VERTEX
  8
ERPC.1a
  6
CONTINUOUS
 62
7
 10
3.7426423602629
 20
10.062247469183
  0
VERTEX
  8
ERPC.1a
  6
CONTINUOUS
 62
7
 10
3.7521953919231
 20
10.02659506966
  0
VERTEX
  8
ERPC.1a
  6
CONTINUOUS
 62
7
 10
3.7263817286283
 20
10.014239889418
  0
SEQEND
  0
POLYLINE
  8
ERPC.1a
  6
CONTINUOUS
 62
7
 70
0
 66
1
  0
VERTEX
  8
ERPC.1a
  6
CONTINUOUS
 62
7
 10
4.1513553122993
 20
9.7531857443794
  0
VERTEX
  8
ERPC.1a
  6
CONTINUOUS
 62
7
 10
4.1421967818851
 20
9.7584734243794
  0
VERTEX
  8
ERPC.1a
  6
CONTINUOUS
 62
7
 10
4.1513553122993
 20
9.7531857443794
  0
SEQEND
  0
LINE
  8
ERPC.1a
  6
CONTINUOUS
 62
8
 10
2.6081261696115
 20
9.1844057006056
 11
2.6081261696115
 21
10.759208850212
  0
LINE
  8
ERPC.1a
  6
CONTINUOUS
 62
8
 10
4.1829293192178
 20
9.1844057006056
 11
2.6081261696115
 21
9.1844057006056
  0
LINE
  8
ERPC.1a
  6
CONTINUOUS
 62
8
 10
2.6081261696115
 20
10.759208850212
 11
4.1829293192178
 21
10.759208850212
  0
LINE
  8
ERPC.1a
  6
CONTINUOUS
 62
8
 10
4.1829293192178
 20
10.759208850212
 11
4.1829293192178
 21
9.1844057006056
  0
LINE
  8
ERPC.1a
  6
CONTINUOUS
 62
8
 10
3.0840828569714
 20
9.8179193547343
 11
3.6903657794882
 21
10.167956963254
  0
LINE
  8
ERPC.1a
  6
CONTINUOUS
 62
8
 10
4.181360693211
 20
9.1844057006056
 11
3.7025852124045
 21
9.4608268533306
  0
LINE
  8
ERPC.1a
  6
CONTINUOUS
 62
8
 10
3.0840828569714
 20
9.8746122681202
 11
2.806535384918
 21
10.034854375823
  0
LINE
  8
ERPC.1a
  6
CONTINUOUS
 62
8
 10
3.4957506280637
 20
9.7672507302933
 11
3.6014056916171
 21
9.8282507096771
  0
LINE
  8
ERPC.1a
  6
CONTINUOUS
 62
8
 10
3.2990434868927
 20
9.8355244138558
 11
3.3340712739067
 21
9.8153011115942
  0
LINE
  8
ERPC.1a
  6
CONTINUOUS
 62
8
 10
4.1829293192178
 20
9.6199223046844
 11
4.0242337549666
 21
9.7115452314239
  0
LINE
  8
ERPC.1a
  6
CONTINUOUS
 62
8
 10
3.2990434868927
 20
9.8512724453519
 11
3.2990434868927
 21
9.8355244138558
  0
LINE
  8
ERPC.1a
  6
CONTINUOUS
 62
8
 10
3.6014056916171
 20
9.8439987411731
 11
3.6014056916171
 21
9.8282507096771
  0
LINE
  8
ERPC.1a
  6
CONTINUOUS
 62
8
 10
3.2990434868927
 20
9.8391612659452
 11
3.3340712739067
 21
9.8189379636836
  0
LINE
  8
ERPC.1a
  6
CONTINUOUS
 62
8
 10
3.2990434868927
 20
9.8427981180346
 11
3.3340712739067
 21
9.8225748157729
  0
LINE
  8
ERPC.1a
  6
CONTINUOUS
 62
8
 10
3.2990434868927
 20
9.846434970124
 11
3.3340712739067
 21
9.8262116678623
  0
LINE
  8
ERPC.1a
  6
CONTINUOUS
 62
8
 10
3.4926010217645
 20
9.769069156338
 11
3.6014056916171
 21
9.8318875617665
  0
LINE
  8
ERPC.1a
  6
CONTINUOUS
 62
8
 10
3.4894514154653
 20
9.7708875823826
 11
3.6014056916171
 21
9.8355244138558
  0
LINE
  8
ERPC.1a
  6
CONTINUOUS
 62
8
 10
3.4863018091661
 20
9.7727060084273
 11
3.6014056916171
 21
9.8391612659452
  0
POLYLINE
  8
ERPC.1a
  6
CONTINUOUS
 62
7
 70
0
 66
1
  0
VERTEX
  8
ERPC.1a
  6
CONTINUOUS
 62
7
 10
2.6958155909187
 20
9.7136464903496
  0
VERTEX
  8
ERPC.1a
  6
CONTINUOUS
 62
7
 10
2.7040616947142
 20
9.7210171610878
  0
VERTEX
  8
ERPC.1a
  6
CONTINUOUS
 62
7
 10
2.6958155909187
 20
9.7136464903496
  0
SEQEND
  0
POLYLINE
  8
ERPC.1a
  6
CONTINUOUS
 62
7
 70
0
 66
1
  0
VERTEX
  8
ERPC.1a
  6
CONTINUOUS
 62
7
 10
3.0362799256377
 20
9.5794095932514
  0
VERTEX
  8
ERPC.1a
  6
CONTINUOUS
 62
7
 10
3.0342972905927
 20
9.5866200486205
  0
VERTEX
  8
ERPC.1a
  6
CONTINUOUS
 62
7
 10
3.0362799256377
 20
9.5794095932514
  0
SEQEND
  0
POLYLINE
  8
ERPC.1a
  6
CONTINUOUS
 62
7
 70
0
 66
1
  0
VERTEX
  8
ERPC.1a
  6
CONTINUOUS
 62
7
 10
3.1772513426796
 20
9.5045960867168
  0
VERTEX
  8
ERPC.1a
  6
CONTINUOUS
 62
7
 10
3.1741984992082
 20
9.5063586467168
  0
VERTEX
  8
ERPC.1a
  6
CONTINUOUS
 62
7
 10
3.1663302522655
 20
9.5068309232454
  0
VERTEX
  8
ERPC.1a
  6
CONTINUOUS
 62
7
 10
3.1698553722655
 20
9.5129366101881
  0
VERTEX
  8
ERPC.1a
  6
CONTINUOUS
 62
7
 10
3.1772513426796
 20
9.5045960867168
  0
SEQEND
  0
POLYLINE
  8
ERPC.1a
  6
CONTINUOUS
 62
7
 70
0
 66
1
  0
VERTEX
  8
ERPC.1a
  6
CONTINUOUS
 62
7
 10
3.4033868578493
 20
9.2935614057527
  0
VERTEX
  8
ERPC.1a
  6
CONTINUOUS
 62
7
 10
3.3994953140538
 20
9.293733054179
  0
VERTEX
  8
ERPC.1a
  6
CONTINUOUS
 62
7
 10
3.4053809259515
 20
9.3004712330196
  0
VERTEX
  8
ERPC.1a
  6
CONTINUOUS
 62
7
 10
3.4033868578493
 20
9.2935614057527
  0
SEQEND
  0
POLYLINE
  8
ERPC.1a
  6
CONTINUOUS
 62
7
 70
0
 66
1
  0
VERTEX
  8
ERPC.1a
  6
CONTINUOUS
 62
7
 10
2.9453594974402
 20
9.8514793404618
  0
VERTEX
  8
ERPC.1a
  6
CONTINUOUS
 62
7
 10
2.9506126174402
 20
9.8605780112001
  0
VERTEX
  8
ERPC.1a
  6
CONTINUOUS
 62
7
 10
2.9453594974402
 20
9.8514793404618
  0
SEQEND
  0
POLYLINE
  8
ERPC.1a
  6
CONTINUOUS
 62
7
 70
0
 66
1
  0
VERTEX
  8
ERPC.1a
  6
CONTINUOUS
 62
7
 10
2.8107182468041
 20
9.4836260213595
  0
VERTEX
  8
ERPC.1a
  6
CONTINUOUS
 62
7
 10
2.8189643505996
 20
9.4909966920978
  0
VERTEX
  8
ERPC.1a
  6
CONTINUOUS
 62
7
 10
2.8107182468041
 20
9.4836260213595
  0
SEQEND
  0
POLYLINE
  8
ERPC.1a
  6
CONTINUOUS
 62
7
 70
0
 66
1
  0
VERTEX
  8
ERPC.1a
  6
CONTINUOUS
 62
7
 10
3.226846070647
 20
9.3167237058968
  0
VERTEX
  8
ERPC.1a
  6
CONTINUOUS
 62
7
 10
3.224863435602
 20
9.3239341612659
  0
VERTEX
  8
ERPC.1a
  6
CONTINUOUS
 62
7
 10
3.226846070647
 20
9.3167237058968
  0
SEQEND
  0
POLYLINE
  8
ERPC.1a
  6
CONTINUOUS
 62
7
 70
0
 66
1
  0
VERTEX
  8
ERPC.1a
  6
CONTINUOUS
 62
7
 10
3.2896557110549
 20
9.3200719759962
  0
VERTEX
  8
ERPC.1a
  6
CONTINUOUS
 62
7
 10
3.2866028675835
 20
9.3218345359962
  0
VERTEX
  8
ERPC.1a
  6
CONTINUOUS
 62
7
 10
3.2787346206407
 20
9.3223068125248
  0
VERTEX
  8
ERPC.1a
  6
CONTINUOUS
 62
7
 10
3.2822597406407
 20
9.3284124994676
  0
VERTEX
  8
ERPC.1a
  6
CONTINUOUS
 62
7
 10
3.2896557110549
 20
9.3200719759962
  0
SEQEND
  0
POLYLINE
  8
ERPC.1a
  6
CONTINUOUS
 62
7
 70
0
 66
1
  0
VERTEX
  8
ERPC.1a
  6
CONTINUOUS
 62
7
 10
3.4978457144318
 20
9.2279196276453
  0
VERTEX
  8
ERPC.1a
  6
CONTINUOUS
 62
7
 10
3.4939541706363
 20
9.2280912760717
  0
VERTEX
  8
ERPC.1a
  6
CONTINUOUS
 62
7
 10
3.499839782534
 20
9.2348294549122
  0
VERTEX
  8
ERPC.1a
  6
CONTINUOUS
 62
7
 10
3.4978457144318
 20
9.2279196276453
  0
SEQEND
  0
POLYLINE
  8
ERPC.1a
  6
CONTINUOUS
 62
7
 70
0
 66
1
  0
VERTEX
  8
ERPC.1a
  6
CONTINUOUS
 62
7
 10
3.0113776651925
 20
9.2803495445844
  0
VERTEX
  8
ERPC.1a
  6
CONTINUOUS
 62
7
 10
3.0166307851925
 20
9.2894482153226
  0
VERTEX
  8
ERPC.1a
  6
CONTINUOUS
 62
7
 10
3.0113776651925
 20
9.2803495445844
  0
SEQEND
  0
POLYLINE
  8
ERPC.1a
  6
CONTINUOUS
 62
7
 70
0
 66
1
  0
VERTEX
  8
ERPC.1a
  6
CONTINUOUS
 62
7
 10
3.250808806991
 20
9.5607899095702
  0
VERTEX
  8
ERPC.1a
  6
CONTINUOUS
 62
7
 10
3.2434381362528
 20
9.5690360133657
  0
VERTEX
  8
ERPC.1a
  6
CONTINUOUS
 62
7
 10
3.250808806991
 20
9.5607899095702
  0
SEQEND
  0
POLYLINE
  8
ERPC.1a
  6
CONTINUOUS
 62
7
 70
0
 66
1
  0
VERTEX
  8
ERPC.1a
  6
CONTINUOUS
 62
7
 10
2.9790788737936
 20
9.7053347045217
  0
VERTEX
  8
ERPC.1a
  6
CONTINUOUS
 62
7
 10
2.9770962387486
 20
9.7125451598909
  0
VERTEX
  8
ERPC.1a
  6
CONTINUOUS
 62
7
 10
2.9790788737936
 20
9.7053347045217
  0
SEQEND
  0
POLYLINE
  8
ERPC.1a
  6
CONTINUOUS
 62
7
 70
0
 66
1
  0
VERTEX
  8
ERPC.1a
  6
CONTINUOUS
 62
7
 10
3.0418885142015
 20
9.7086829746211
  0
VERTEX
  8
ERPC.1a
  6
CONTINUOUS
 62
7
 10
3.0388356707301
 20
9.7104455346211
  0
VERTEX
  8
ERPC.1a
  6
CONTINUOUS
 62
7
 10
3.0309674237873
 20
9.7109178111497
  0
VERTEX
  8
ERPC.1a
  6
CONTINUOUS
 62
7
 10
3.0344925437873
 20
9.7170234980925
  0
VERTEX
  8
ERPC.1a
  6
CONTINUOUS
 62
7
 10
3.0418885142015
 20
9.7086829746211
  0
SEQEND
  0
POLYLINE
  8
ERPC.1a
  6
CONTINUOUS
 62
7
 70
0
 66
1
  0
VERTEX
  8
ERPC.1a
  6
CONTINUOUS
 62
7
 10
3.1893673350865
 20
9.7134030094211
  0
VERTEX
  8
ERPC.1a
  6
CONTINUOUS
 62
7
 10
3.185475791291
 20
9.7135746578475
  0
VERTEX
  8
ERPC.1a
  6
CONTINUOUS
 62
7
 10
3.1913614031887
 20
9.720312836688
  0
VERTEX
  8
ERPC.1a
  6
CONTINUOUS
 62
7
 10
3.1893673350865
 20
9.7134030094211
  0
SEQEND
  0
POLYLINE
  8
ERPC.1a
  6
CONTINUOUS
 62
7
 70
0
 66
1
  0
VERTEX
  8
ERPC.1a
  6
CONTINUOUS
 62
7
 10
3.2309015656735
 20
9.5135149622766
  0
VERTEX
  8
ERPC.1a
  6
CONTINUOUS
 62
7
 10
3.2218028949352
 20
9.5187680822766
  0
VERTEX
  8
ERPC.1a
  6
CONTINUOUS
 62
7
 10
3.2309015656735
 20
9.5135149622766
  0
SEQEND
  0
POLYLINE
  8
ERPC.1a
  6
CONTINUOUS
 62
7
 70
0
 66
1
  0
VERTEX
  8
ERPC.1a
  6
CONTINUOUS
 62
7
 10
2.6316917712935
 20
9.7227920288663
  0
VERTEX
  8
ERPC.1a
  6
CONTINUOUS
 62
7
 10
2.639937875089
 20
9.7301626996046
  0
VERTEX
  8
ERPC.1a
  6
CONTINUOUS
 62
7
 10
2.6316917712935
 20
9.7227920288663
  0
SEQEND
  0
POLYLINE
  8
ERPC.1a
  6
CONTINUOUS
 62
7
 70
0
 66
1
  0
VERTEX
  8
ERPC.1a
  6
CONTINUOUS
 62
7
 10
2.9735524653582
 20
9.401382240573
  0
VERTEX
  8
ERPC.1a
  6
CONTINUOUS
 62
7
 10
2.9715698303132
 20
9.4085926959422
  0
VERTEX
  8
ERPC.1a
  6
CONTINUOUS
 62
7
 10
2.9735524653582
 20
9.401382240573
  0
SEQEND
  0
POLYLINE
  8
ERPC.1a
  6
CONTINUOUS
 62
7
 70
0
 66
1
  0
VERTEX
  8
ERPC.1a
  6
CONTINUOUS
 62
7
 10
3.0161934395141
 20
9.5274937789965
  0
VERTEX
  8
ERPC.1a
  6
CONTINUOUS
 62
7
 10
3.0131405960427
 20
9.5292563389965
  0
VERTEX
  8
ERPC.1a
  6
CONTINUOUS
 62
7
 10
3.0052723491
 20
9.5297286155251
  0
VERTEX
  8
ERPC.1a
  6
CONTINUOUS
 62
7
 10
3.0087974691
 20
9.5358343024678
  0
VERTEX
  8
ERPC.1a
  6
CONTINUOUS
 62
7
 10
3.0161934395141
 20
9.5274937789965
  0
SEQEND
  0
POLYLINE
  8
ERPC.1a
  6
CONTINUOUS
 62
7
 70
0
 66
1
  0
VERTEX
  8
ERPC.1a
  6
CONTINUOUS
 62
7
 10
3.1636722603991
 20
9.5322138137965
  0
VERTEX
  8
ERPC.1a
  6
CONTINUOUS
 62
7
 10
3.1597807166036
 20
9.5323854622228
  0
VERTEX
  8
ERPC.1a
  6
CONTINUOUS
 62
7
 10
3.1656663285014
 20
9.5391236410634
  0
VERTEX
  8
ERPC.1a
  6
CONTINUOUS
 62
7
 10
3.1636722603991
 20
9.5322138137965
  0
SEQEND
  0
POLYLINE
  8
ERPC.1a
  6
CONTINUOUS
 62
7
 70
0
 66
1
  0
VERTEX
  8
ERPC.1a
  6
CONTINUOUS
 62
7
 10
2.7978731734101
 20
9.7154508338899
  0
VERTEX
  8
ERPC.1a
  6
CONTINUOUS
 62
7
 10
2.8031262934101
 20
9.7245495046281
  0
VERTEX
  8
ERPC.1a
  6
CONTINUOUS
 62
7
 10
2.7978731734101
 20
9.7154508338899
  0
SEQEND
  0
POLYLINE
  8
ERPC.1a
  6
CONTINUOUS
 62
7
 70
0
 66
1
  0
VERTEX
  8
ERPC.1a
  6
CONTINUOUS
 62
7
 10
3.5155390863658
 20
9.248285523543
  0
VERTEX
  8
ERPC.1a
  6
CONTINUOUS
 62
7
 10
3.5081684156275
 20
9.2565316273385
  0
VERTEX
  8
ERPC.1a
  6
CONTINUOUS
 62
7
 10
3.5155390863658
 20
9.248285523543
  0
SEQEND
  0
POLYLINE
  8
ERPC.1a
  6
CONTINUOUS
 62
7
 70
0
 66
1
  0
VERTEX
  8
ERPC.1a
  6
CONTINUOUS
 62
7
 10
3.2802205265828
 20
9.5594699468645
  0
VERTEX
  8
ERPC.1a
  6
CONTINUOUS
 62
7
 10
3.2771676831114
 20
9.5612325068645
  0
VERTEX
  8
ERPC.1a
  6
CONTINUOUS
 62
7
 10
3.2692994361687
 20
9.5617047833931
  0
VERTEX
  8
ERPC.1a
  6
CONTINUOUS
 62
7
 10
3.2728245561687
 20
9.5678104703359
  0
VERTEX
  8
ERPC.1a
  6
CONTINUOUS
 62
7
 10
3.2802205265828
 20
9.5594699468645
  0
SEQEND
  0
POLYLINE
  8
ERPC.1a
  6
CONTINUOUS
 62
7
 70
0
 66
1
  0
VERTEX
  8
ERPC.1a
  6
CONTINUOUS
 62
7
 10
3.239113560067
 20
9.3949749862065
  0
VERTEX
  8
ERPC.1a
  6
CONTINUOUS
 62
7
 10
3.2352220162715
 20
9.3951466346329
  0
VERTEX
  8
ERPC.1a
  6
CONTINUOUS
 62
7
 10
3.2411076281692
 20
9.4018848134734
  0
VERTEX
  8
ERPC.1a
  6
CONTINUOUS
 62
7
 10
3.239113560067
 20
9.3949749862065
  0
SEQEND
  0
POLYLINE
  8
ERPC.1a
  6
CONTINUOUS
 62
7
 70
0
 66
1
  0
VERTEX
  8
ERPC.1a
  6
CONTINUOUS
 62
7
 10
3.2796224499712
 20
9.3246467258652
  0
VERTEX
  8
ERPC.1a
  6
CONTINUOUS
 62
7
 10
3.2705237792329
 20
9.3298998458652
  0
VERTEX
  8
ERPC.1a
  6
CONTINUOUS
 62
7
 10
3.2796224499712
 20
9.3246467258652
  0
SEQEND
  0
POLYLINE
  8
ERPC.1a
  6
CONTINUOUS
 62
7
 70
0
 66
1
  0
VERTEX
  8
ERPC.1a
  6
CONTINUOUS
 62
7
 10
3.0255976353464
 20
10.002908629634
  0
VERTEX
  8
ERPC.1a
  6
CONTINUOUS
 62
7
 10
3.0236150003014
 20
10.010119085003
  0
VERTEX
  8
ERPC.1a
  6
CONTINUOUS
 62
7
 10
3.0255976353464
 20
10.002908629634
  0
SEQEND
  0
POLYLINE
  8
ERPC.1a
  6
CONTINUOUS
 62
7
 70
0
 66
1
  0
VERTEX
  8
ERPC.1a
  6
CONTINUOUS
 62
7
 10
3.0110375576583
 20
10.254945279327
  0
VERTEX
  8
ERPC.1a
  6
CONTINUOUS
 62
7
 10
3.0079847141869
 20
10.256707839327
  0
VERTEX
  8
ERPC.1a
  6
CONTINUOUS
 62
7
 10
3.0001164672441
 20
10.257180115856
  0
VERTEX
  8
ERPC.1a
  6
CONTINUOUS
 62
7
 10
3.0036415872441
 20
10.263285802799
  0
VERTEX
  8
ERPC.1a
  6
CONTINUOUS
 62
7
 10
3.0110375576583
 20
10.254945279327
  0
SEQEND
  0
POLYLINE
  8
ERPC.1a
  6
CONTINUOUS
 62
7
 70
0
 66
1
  0
VERTEX
  8
ERPC.1a
  6
CONTINUOUS
 62
7
 10
3.0055111492228
 20
9.9509928153787
  0
VERTEX
  8
ERPC.1a
  6
CONTINUOUS
 62
7
 10
3.0024583057514
 20
9.9527553753786
  0
VERTEX
  8
ERPC.1a
  6
CONTINUOUS
 62
7
 10
2.9945900588087
 20
9.9532276519073
  0
VERTEX
  8
ERPC.1a
  6
CONTINUOUS
 62
7
 10
2.9981151788087
 20
9.95933333885
  0
VERTEX
  8
ERPC.1a
  6
CONTINUOUS
 62
7
 10
3.0055111492228
 20
9.9509928153787
  0
SEQEND
  0
POLYLINE
  8
ERPC.1a
  6
CONTINUOUS
 62
7
 70
0
 66
1
  0
VERTEX
  8
ERPC.1a
  6
CONTINUOUS
 62
7
 10
3.0406287462376
 20
10.414761068051
  0
VERTEX
  8
ERPC.1a
  6
CONTINUOUS
 62
7
 10
3.0386461111925
 20
10.42197152342
  0
VERTEX
  8
ERPC.1a
  6
CONTINUOUS
 62
7
 10
3.0406287462376
 20
10.414761068051
  0
SEQEND
  0
POLYLINE
  8
ERPC.1a
  6
CONTINUOUS
 62
7
 70
0
 66
1
  0
VERTEX
  8
ERPC.1a
  6
CONTINUOUS
 62
7
 10
3.0260686685494
 20
10.666797717745
  0
VERTEX
  8
ERPC.1a
  6
CONTINUOUS
 62
7
 10
3.023015825078
 20
10.668560277745
  0
VERTEX
  8
ERPC.1a
  6
CONTINUOUS
 62
7
 10
3.0151475781352
 20
10.669032554274
  0
VERTEX
  8
ERPC.1a
  6
CONTINUOUS
 62
7
 10
3.0186726981352
 20
10.675138241216
  0
VERTEX
  8
ERPC.1a
  6
CONTINUOUS
 62
7
 10
3.0260686685494
 20
10.666797717745
  0
SEQEND
  0
POLYLINE
  8
ERPC.1a
  6
CONTINUOUS
 62
7
 70
0
 66
1
  0
VERTEX
  8
ERPC.1a
  6
CONTINUOUS
 62
7
 10
3.020542260114
 20
10.362845253796
  0
VERTEX
  8
ERPC.1a
  6
CONTINUOUS
 62
7
 10
3.0174894166426
 20
10.364607813796
  0
VERTEX
  8
ERPC.1a
  6
CONTINUOUS
 62
7
 10
3.0096211696998
 20
10.365080090325
  0
VERTEX
  8
ERPC.1a
  6
CONTINUOUS
 62
7
 10
3.0131462896998
 20
10.371185777268
  0
VERTEX
  8
ERPC.1a
  6
CONTINUOUS
 62
7
 10
3.020542260114
 20
10.362845253796
  0
SEQEND
  0
POLYLINE
  8
ERPC.1a
  6
CONTINUOUS
 62
7
 70
0
 66
1
  0
VERTEX
  8
ERPC.1a
  6
CONTINUOUS
 62
7
 10
3.01958519099
 20
10.153219738545
  0
VERTEX
  8
ERPC.1a
  6
CONTINUOUS
 62
7
 10
3.0176025559449
 20
10.160430193914
  0
VERTEX
  8
ERPC.1a
  6
CONTINUOUS
 62
7
 10
3.01958519099
 20
10.153219738545
  0
SEQEND
  0
POLYLINE
  8
ERPC.1a
  6
CONTINUOUS
 62
7
 70
0
 66
1
  0
VERTEX
  8
ERPC.1a
  6
CONTINUOUS
 62
7
 10
2.9720324105179
 20
10.350517094992
  0
VERTEX
  8
ERPC.1a
  6
CONTINUOUS
 62
7
 10
2.9689795670465
 20
10.352279654992
  0
VERTEX
  8
ERPC.1a
  6
CONTINUOUS
 62
7
 10
2.9611113201037
 20
10.35275193152
  0
VERTEX
  8
ERPC.1a
  6
CONTINUOUS
 62
7
 10
2.9646364401037
 20
10.358857618463
  0
VERTEX
  8
ERPC.1a
  6
CONTINUOUS
 62
7
 10
2.9720324105179
 20
10.350517094992
  0
SEQEND
  0
POLYLINE
  8
ERPC.1a
  6
CONTINUOUS
 62
7
 70
0
 66
1
  0
VERTEX
  8
ERPC.1a
  6
CONTINUOUS
 62
7
 10
2.8887550374881
 20
10.107132538363
  0
VERTEX
  8
ERPC.1a
  6
CONTINUOUS
 62
7
 10
2.8857021940167
 20
10.108895098363
  0
VERTEX
  8
ERPC.1a
  6
CONTINUOUS
 62
7
 10
2.8778339470739
 20
10.109367374891
  0
VERTEX
  8
ERPC.1a
  6
CONTINUOUS
 62
7
 10
2.8813590670739
 20
10.115473061834
  0
VERTEX
  8
ERPC.1a
  6
CONTINUOUS
 62
7
 10
2.8887550374881
 20
10.107132538363
  0
SEQEND
  0
POLYLINE
  8
ERPC.1a
  6
CONTINUOUS
 62
7
 70
0
 66
1
  0
VERTEX
  8
ERPC.1a
  6
CONTINUOUS
 62
7
 10
2.9950318480237
 20
10.577477977423
  0
VERTEX
  8
ERPC.1a
  6
CONTINUOUS
 62
7
 10
2.9859331772855
 20
10.582731097423
  0
VERTEX
  8
ERPC.1a
  6
CONTINUOUS
 62
7
 10
2.9950318480237
 20
10.577477977423
  0
SEQEND
  0
POLYLINE
  8
ERPC.1a
  6
CONTINUOUS
 62
7
 70
0
 66
1
  0
VERTEX
  8
ERPC.1a
  6
CONTINUOUS
 62
7
 10
2.8096420498011
 20
10.50312170557
  0
VERTEX
  8
ERPC.1a
  6
CONTINUOUS
 62
7
 10
2.8022713790628
 20
10.511367809365
  0
VERTEX
  8
ERPC.1a
  6
CONTINUOUS
 62
7
 10
2.8096420498011
 20
10.50312170557
  0
SEQEND
  0
POLYLINE
  8
ERPC.1a
  6
CONTINUOUS
 62
7
 70
0
 66
1
  0
VERTEX
  8
ERPC.1a
  6
CONTINUOUS
 62
7
 10
2.9920256258455
 20
10.754845085939
  0
VERTEX
  8
ERPC.1a
  6
CONTINUOUS
 62
7
 10
2.9829269551072
 20
10.760098205939
  0
VERTEX
  8
ERPC.1a
  6
CONTINUOUS
 62
7
 10
2.9920256258455
 20
10.754845085939
  0
SEQEND
  0
POLYLINE
  8
ERPC.1a
  6
CONTINUOUS
 62
7
 70
0
 66
1
  0
VERTEX
  8
ERPC.1a
  6
CONTINUOUS
 62
7
 10
3.0071985172655
 20
10.668694172244
  0
VERTEX
  8
ERPC.1a
  6
CONTINUOUS
 62
7
 10
2.9998278465273
 20
10.67694027604
  0
VERTEX
  8
ERPC.1a
  6
CONTINUOUS
 62
7
 10
3.0071985172655
 20
10.668694172244
  0
SEQEND
  0
POLYLINE
  8
ERPC.1a
  6
CONTINUOUS
 62
7
 70
0
 66
1
  0
VERTEX
  8
ERPC.1a
  6
CONTINUOUS
 62
7
 10
2.8651719803362
 20
9.8590012288125
  0
VERTEX
  8
ERPC.1a
  6
CONTINUOUS
 62
7
 10
2.8723824357054
 20
9.8609838638575
  0
VERTEX
  8
ERPC.1a
  6
CONTINUOUS
 62
7
 10
2.8651719803362
 20
9.8590012288125
  0
SEQEND
  0
POLYLINE
  8
ERPC.1a
  6
CONTINUOUS
 62
7
 70
0
 66
1
  0
VERTEX
  8
ERPC.1a
  6
CONTINUOUS
 62
7
 10
2.8685202504356
 20
9.7961915884046
  0
VERTEX
  8
ERPC.1a
  6
CONTINUOUS
 62
7
 10
2.8702828104356
 20
9.799244431876
  0
VERTEX
  8
ERPC.1a
  6
CONTINUOUS
 62
7
 10
2.8707550869642
 20
9.8071126788188
  0
VERTEX
  8
ERPC.1a
  6
CONTINUOUS
 62
7
 10
2.876860773907
 20
9.8035875588188
  0
VERTEX
  8
ERPC.1a
  6
CONTINUOUS
 62
7
 10
2.8685202504356
 20
9.7961915884046
  0
SEQEND
  0
POLYLINE
  8
ERPC.1a
  6
CONTINUOUS
 62
7
 70
0
 66
1
  0
VERTEX
  8
ERPC.1a
  6
CONTINUOUS
 62
7
 10
2.9339183892093
 20
9.2604479204686
  0
VERTEX
  8
ERPC.1a
  6
CONTINUOUS
 62
7
 10
2.9340900376357
 20
9.264339464264
  0
VERTEX
  8
ERPC.1a
  6
CONTINUOUS
 62
7
 10
2.9408282164762
 20
9.2584538523663
  0
VERTEX
  8
ERPC.1a
  6
CONTINUOUS
 62
7
 10
2.9339183892093
 20
9.2604479204686
  0
SEQEND
  0
POLYLINE
  8
ERPC.1a
  6
CONTINUOUS
 62
7
 70
0
 66
1
  0
VERTEX
  8
ERPC.1a
  6
CONTINUOUS
 62
7
 10
2.8089186995519
 20
9.6115126061132
  0
VERTEX
  8
ERPC.1a
  6
CONTINUOUS
 62
7
 10
2.8171648033474
 20
9.6188832768514
  0
VERTEX
  8
ERPC.1a
  6
CONTINUOUS
 62
7
 10
2.8089186995519
 20
9.6115126061132
  0
SEQEND
  0
POLYLINE
  8
ERPC.1a
  6
CONTINUOUS
 62
7
 70
0
 66
1
  0
VERTEX
  8
ERPC.1a
  6
CONTINUOUS
 62
7
 10
2.8730950003046
 20
9.8062248494883
  0
VERTEX
  8
ERPC.1a
  6
CONTINUOUS
 62
7
 10
2.8783481203046
 20
9.8153235202266
  0
VERTEX
  8
ERPC.1a
  6
CONTINUOUS
 62
7
 10
2.8730950003046
 20
9.8062248494883
  0
SEQEND
  0
POLYLINE
  8
ERPC.1a
  6
CONTINUOUS
 62
7
 70
0
 66
1
  0
VERTEX
  8
ERPC.1a
  6
CONTINUOUS
 62
7
 10
3.3721697459627
 20
9.2794052276892
  0
VERTEX
  8
ERPC.1a
  6
CONTINUOUS
 62
7
 10
3.3682782021672
 20
9.2795768761155
  0
VERTEX
  8
ERPC.1a
  6
CONTINUOUS
 62
7
 10
3.3741638140649
 20
9.2863150549561
  0
VERTEX
  8
ERPC.1a
  6
CONTINUOUS
 62
7
 10
3.3721697459627
 20
9.2794052276892
  0
SEQEND
  0
POLYLINE
  8
ERPC.1a
  6
CONTINUOUS
 62
7
 70
0
 66
1
  0
VERTEX
  8
ERPC.1a
  6
CONTINUOUS
 62
7
 10
2.9584167471677
 20
9.4751063476278
  0
VERTEX
  8
ERPC.1a
  6
CONTINUOUS
 62
7
 10
2.9636698671677
 20
9.484205018366
  0
VERTEX
  8
ERPC.1a
  6
CONTINUOUS
 62
7
 10
2.9584167471677
 20
9.4751063476278
  0
SEQEND
  0
LINE
  8
ERPC.1a
  6
CONTINUOUS
 62
8
 10
4.1829293192178
 20
9.9744965732332
 11
3.6903657794882
 21
10.258878265489
  0
LINE
  8
ERPC.1a
  6
CONTINUOUS
 62
8
 10
4.1829293192178
 20
10.065417875468
 11
3.6903657794882
 21
10.349799567724
  0
LINE
  8
ERPC.1a
  6
CONTINUOUS
 62
8
 10
4.1829293192178
 20
10.156339177702
 11
3.6903657794882
 21
10.440720869958
  0
LINE
  8
ERPC.1a
  6
CONTINUOUS
 62
8
 10
4.1829293192178
 20
10.247260479937
 11
3.6903657794882
 21
10.531642172193
  0
LINE
  8
ERPC.1a
  6
CONTINUOUS
 62
8
 10
4.1829293192178
 20
10.338181782172
 11
3.6903657794882
 21
10.622563474427
  0
LINE
  8
ERPC.1a
  6
CONTINUOUS
 62
8
 10
4.1829293192178
 20
10.429103084406
 11
3.6903657794882
 21
10.713484776662
  0
LINE
  8
ERPC.1a
  6
CONTINUOUS
 62
8
 10
4.1829293192178
 20
10.520024386641
 11
3.7686496759313
 21
10.759208850212
  0
LINE
  8
ERPC.1a
  6
CONTINUOUS
 62
8
 10
4.1829293192178
 20
10.610945688875
 11
3.926129990892
 21
10.759208850212
  0
LINE
  8
ERPC.1a
  6
CONTINUOUS
 62
8
 10
4.1829293192178
 20
10.70186699111
 11
4.0836103058526
 21
10.759208850212
  0
POLYLINE
  8
ERPC.1a
  6
CONTINUOUS
 62
7
 70
0
 66
1
  0
VERTEX
  8
ERPC.1a
  6
CONTINUOUS
 62
7
 10
2.968567696714
 20
10.048019949028
  0
VERTEX
  8
ERPC.1a
  6
CONTINUOUS
 62
7
 10
2.966585061669
 20
10.055230404397
  0
VERTEX
  8
ERPC.1a
  6
CONTINUOUS
 62
7
 10
2.968567696714
 20
10.048019949028
  0
SEQEND
  0
POLYLINE
  8
ERPC.1a
  6
CONTINUOUS
 62
7
 70
0
 66
1
  0
VERTEX
  8
ERPC.1a
  6
CONTINUOUS
 62
7
 10
2.8802146177341
 20
10.332746516562
  0
VERTEX
  8
ERPC.1a
  6
CONTINUOUS
 62
7
 10
2.8771617742627
 20
10.334509076562
  0
VERTEX
  8
ERPC.1a
  6
CONTINUOUS
 62
7
 10
2.8692935273199
 20
10.334981353091
  0
VERTEX
  8
ERPC.1a
  6
CONTINUOUS
 62
7
 10
2.8728186473199
 20
10.341087040034
  0
VERTEX
  8
ERPC.1a
  6
CONTINUOUS
 62
7
 10
2.8802146177341
 20
10.332746516562
  0
SEQEND
  0
POLYLINE
  8
ERPC.1a
  6
CONTINUOUS
 62
7
 70
0
 66
1
  0
VERTEX
  8
ERPC.1a
  6
CONTINUOUS
 62
7
 10
2.9484812105904
 20
9.9961041347729
  0
VERTEX
  8
ERPC.1a
  6
CONTINUOUS
 62
7
 10
2.945428367119
 20
9.9978666947729
  0
VERTEX
  8
ERPC.1a
  6
CONTINUOUS
 62
7
 10
2.9375601201762
 20
9.9983389713015
  0
VERTEX
  8
ERPC.1a
  6
CONTINUOUS
 62
7
 10
2.9410852401762
 20
10.004444658244
  0
VERTEX
  8
ERPC.1a
  6
CONTINUOUS
 62
7
 10
2.9484812105904
 20
9.9961041347729
  0
SEQEND
  0
POLYLINE
  8
ERPC.1a
  6
CONTINUOUS
 62
7
 70
0
 66
1
  0
VERTEX
  8
ERPC.1a
  6
CONTINUOUS
 62
7
 10
2.7830361179625
 20
10.471667029287
  0
VERTEX
  8
ERPC.1a
  6
CONTINUOUS
 62
7
 10
2.7810534829174
 20
10.478877484656
  0
VERTEX
  8
ERPC.1a
  6
CONTINUOUS
 62
7
 10
2.7830361179625
 20
10.471667029287
  0
SEQEND
  0
POLYLINE
  8
ERPC.1a
  6
CONTINUOUS
 62
7
 70
0
 66
1
  0
VERTEX
  8
ERPC.1a
  6
CONTINUOUS
 62
7
 10
2.7071679691189
 20
10.448462915352
  0
VERTEX
  8
ERPC.1a
  6
CONTINUOUS
 62
7
 10
2.7041151256475
 20
10.450225475352
  0
VERTEX
  8
ERPC.1a
  6
CONTINUOUS
 62
7
 10
2.6962468787047
 20
10.45069775188
  0
VERTEX
  8
ERPC.1a
  6
CONTINUOUS
 62
7
 10
2.6997719987047
 20
10.456803438823
  0
VERTEX
  8
ERPC.1a
  6
CONTINUOUS
 62
7
 10
2.7071679691189
 20
10.448462915352
  0
SEQEND
  0
POLYLINE
  8
ERPC.1a
  6
CONTINUOUS
 62
7
 70
0
 66
1
  0
VERTEX
  8
ERPC.1a
  6
CONTINUOUS
 62
7
 10
2.9227120229738
 20
10.495385784279
  0
VERTEX
  8
ERPC.1a
  6
CONTINUOUS
 62
7
 10
2.9196591795024
 20
10.497148344279
  0
VERTEX
  8
ERPC.1a
  6
CONTINUOUS
 62
7
 10
2.9117909325596
 20
10.497620620807
  0
VERTEX
  8
ERPC.1a
  6
CONTINUOUS
 62
7
 10
2.9153160525596
 20
10.50372630775
  0
VERTEX
  8
ERPC.1a
  6
CONTINUOUS
 62
7
 10
2.9227120229738
 20
10.495385784279
  0
SEQEND
  0
POLYLINE
  8
ERPC.1a
  6
CONTINUOUS
 62
7
 70
0
 66
1
  0
VERTEX
  8
ERPC.1a
  6
CONTINUOUS
 62
7
 10
2.9625552523576
 20
10.198331057939
  0
VERTEX
  8
ERPC.1a
  6
CONTINUOUS
 62
7
 10
2.9605726173125
 20
10.205541513309
  0
VERTEX
  8
ERPC.1a
  6
CONTINUOUS
 62
7
 10
2.9625552523576
 20
10.198331057939
  0
SEQEND
  0
POLYLINE
  8
ERPC.1a
  6
CONTINUOUS
 62
7
 70
0
 66
1
  0
VERTEX
  8
ERPC.1a
  6
CONTINUOUS
 62
7
 10
2.9071948761616
 20
10.537796918721
  0
VERTEX
  8
ERPC.1a
  6
CONTINUOUS
 62
7
 10
2.9041420326902
 20
10.539559478721
  0
VERTEX
  8
ERPC.1a
  6
CONTINUOUS
 62
7
 10
2.8962737857474
 20
10.54003175525
  0
VERTEX
  8
ERPC.1a
  6
CONTINUOUS
 62
7
 10
2.8997989057474
 20
10.546137442193
  0
VERTEX
  8
ERPC.1a
  6
CONTINUOUS
 62
7
 10
2.9071948761616
 20
10.537796918721
  0
SEQEND
  0
POLYLINE
  8
ERPC.1a
  6
CONTINUOUS
 62
7
 70
0
 66
1
  0
VERTEX
  8
ERPC.1a
  6
CONTINUOUS
 62
7
 10
2.8502777225635
 20
10.215023668341
  0
VERTEX
  8
ERPC.1a
  6
CONTINUOUS
 62
7
 10
2.8472248790921
 20
10.216786228341
  0
VERTEX
  8
ERPC.1a
  6
CONTINUOUS
 62
7
 10
2.8393566321493
 20
10.217258504869
  0
VERTEX
  8
ERPC.1a
  6
CONTINUOUS
 62
7
 10
2.8428817521493
 20
10.223364191812
  0
VERTEX
  8
ERPC.1a
  6
CONTINUOUS
 62
7
 10
2.8502777225635
 20
10.215023668341
  0
SEQEND
  0
POLYLINE
  8
ERPC.1a
  6
CONTINUOUS
 62
7
 70
0
 66
1
  0
VERTEX
  8
ERPC.1a
  6
CONTINUOUS
 62
7
 10
2.8104059425454
 20
10.670598710745
  0
VERTEX
  8
ERPC.1a
  6
CONTINUOUS
 62
7
 10
2.8013072718072
 20
10.675851830745
  0
VERTEX
  8
ERPC.1a
  6
CONTINUOUS
 62
7
 10
2.8104059425454
 20
10.670598710745
  0
SEQEND
  0
POLYLINE
  8
ERPC.1a
  6
CONTINUOUS
 62
7
 70
0
 66
1
  0
VERTEX
  8
ERPC.1a
  6
CONTINUOUS
 62
7
 10
2.8864623128165
 20
10.636024026278
  0
VERTEX
  8
ERPC.1a
  6
CONTINUOUS
 62
7
 10
2.8790916420783
 20
10.644270130074
  0
VERTEX
  8
ERPC.1a
  6
CONTINUOUS
 62
7
 10
2.8864623128165
 20
10.636024026278
  0
SEQEND
  0
POLYLINE
  8
ERPC.1a
  6
CONTINUOUS
 62
7
 70
0
 66
1
  0
VERTEX
  8
ERPC.1a
  6
CONTINUOUS
 62
7
 10
2.6786780781228
 20
10.617301349204
  0
VERTEX
  8
ERPC.1a
  6
CONTINUOUS
 62
7
 10
2.6695794073845
 20
10.622554469204
  0
VERTEX
  8
ERPC.1a
  6
CONTINUOUS
 62
7
 10
2.6786780781228
 20
10.617301349204
  0
SEQEND
  0
POLYLINE
  8
ERPC.1a
  6
CONTINUOUS
 62
7
 70
0
 66
1
  0
VERTEX
  8
ERPC.1a
  6
CONTINUOUS
 62
7
 10
2.688297817835
 20
10.450359369851
  0
VERTEX
  8
ERPC.1a
  6
CONTINUOUS
 62
7
 10
2.6809271470968
 20
10.458605473646
  0
VERTEX
  8
ERPC.1a
  6
CONTINUOUS
 62
7
 10
2.688297817835
 20
10.450359369851
  0
SEQEND
  0
POLYLINE
  8
ERPC.1a
  6
CONTINUOUS
 62
7
 70
0
 66
1
  0
VERTEX
  8
ERPC.1a
  6
CONTINUOUS
 62
7
 10
2.8007522873394
 20
10.237627358811
  0
VERTEX
  8
ERPC.1a
  6
CONTINUOUS
 62
7
 10
2.7987696522944
 20
10.24483781418
  0
VERTEX
  8
ERPC.1a
  6
CONTINUOUS
 62
7
 10
2.8007522873394
 20
10.237627358811
  0
SEQEND
  0
POLYLINE
  8
ERPC.1a
  6
CONTINUOUS
 62
7
 70
0
 66
1
  0
VERTEX
  8
ERPC.1a
  6
CONTINUOUS
 62
7
 10
2.7602642739661
 20
10.220330417789
  0
VERTEX
  8
ERPC.1a
  6
CONTINUOUS
 62
7
 10
2.7572114304947
 20
10.222092977789
  0
VERTEX
  8
ERPC.1a
  6
CONTINUOUS
 62
7
 10
2.7493431835519
 20
10.222565254318
  0
VERTEX
  8
ERPC.1a
  6
CONTINUOUS
 62
7
 10
2.7528683035519
 20
10.228670941261
  0
VERTEX
  8
ERPC.1a
  6
CONTINUOUS
 62
7
 10
2.7602642739661
 20
10.220330417789
  0
SEQEND
  0
POLYLINE
  8
ERPC.1a
  6
CONTINUOUS
 62
7
 70
0
 66
1
  0
VERTEX
  8
ERPC.1a
  6
CONTINUOUS
 62
7
 10
2.7803784750551
 20
10.6288807865
  0
VERTEX
  8
ERPC.1a
  6
CONTINUOUS
 62
7
 10
2.7783958400101
 20
10.636091241869
  0
VERTEX
  8
ERPC.1a
  6
CONTINUOUS
 62
7
 10
2.7803784750551
 20
10.6288807865
  0
SEQEND
  0
POLYLINE
  8
ERPC.1a
  6
CONTINUOUS
 62
7
 70
0
 66
1
  0
VERTEX
  8
ERPC.1a
  6
CONTINUOUS
 62
7
 10
2.7947398429829
 20
10.387938467722
  0
VERTEX
  8
ERPC.1a
  6
CONTINUOUS
 62
7
 10
2.7927572079379
 20
10.395148923091
  0
VERTEX
  8
ERPC.1a
  6
CONTINUOUS
 62
7
 10
2.7947398429829
 20
10.387938467722
  0
SEQEND
  0
POLYLINE
  8
ERPC.1a
  6
CONTINUOUS
 62
7
 70
0
 66
1
  0
VERTEX
  8
ERPC.1a
  6
CONTINUOUS
 62
7
 10
2.7746533568593
 20
10.336022653467
  0
VERTEX
  8
ERPC.1a
  6
CONTINUOUS
 62
7
 10
2.7716005133879
 20
10.337785213467
  0
VERTEX
  8
ERPC.1a
  6
CONTINUOUS
 62
7
 10
2.7637322664452
 20
10.338257489996
  0
VERTEX
  8
ERPC.1a
  6
CONTINUOUS
 62
7
 10
2.7672573864452
 20
10.344363176939
  0
VERTEX
  8
ERPC.1a
  6
CONTINUOUS
 62
7
 10
2.7746533568593
 20
10.336022653467
  0
SEQEND
  0
POLYLINE
  8
ERPC.1a
  6
CONTINUOUS
 62
7
 70
0
 66
1
  0
VERTEX
  8
ERPC.1a
  6
CONTINUOUS
 62
7
 10
2.7306496792644
 20
10.690290920404
  0
VERTEX
  8
ERPC.1a
  6
CONTINUOUS
 62
7
 10
2.7215510085262
 20
10.695544040404
  0
VERTEX
  8
ERPC.1a
  6
CONTINUOUS
 62
7
 10
2.7306496792644
 20
10.690290920404
  0
SEQEND
  0
POLYLINE
  8
ERPC.1a
  6
CONTINUOUS
 62
7
 70
0
 66
1
  0
VERTEX
  8
ERPC.1a
  6
CONTINUOUS
 62
7
 10
3.1377372785076
 20
9.4484603572267
  0
VERTEX
  8
ERPC.1a
  6
CONTINUOUS
 62
7
 10
3.1338457347122
 20
9.4486320056531
  0
VERTEX
  8
ERPC.1a
  6
CONTINUOUS
 62
7
 10
3.1397313466099
 20
9.4553701844936
  0
VERTEX
  8
ERPC.1a
  6
CONTINUOUS
 62
7
 10
3.1377372785076
 20
9.4484603572267
  0
SEQEND
  0
POLYLINE
  8
ERPC.1a
  6
CONTINUOUS
 62
7
 70
0
 66
1
  0
VERTEX
  8
ERPC.1a
  6
CONTINUOUS
 62
7
 10
3.305846067923
 20
9.414239803298
  0
VERTEX
  8
ERPC.1a
  6
CONTINUOUS
 62
7
 10
3.3019545241275
 20
9.4144114517243
  0
VERTEX
  8
ERPC.1a
  6
CONTINUOUS
 62
7
 10
3.3078401360252
 20
9.4211496305648
  0
VERTEX
  8
ERPC.1a
  6
CONTINUOUS
 62
7
 10
3.305846067923
 20
9.414239803298
  0
SEQEND
  0
POLYLINE
  8
ERPC.1a
  6
CONTINUOUS
 62
7
 70
0
 66
1
  0
VERTEX
  8
ERPC.1a
  6
CONTINUOUS
 62
7
 10
3.412023011689
 20
9.313580270181
  0
VERTEX
  8
ERPC.1a
  6
CONTINUOUS
 62
7
 10
3.4081314678935
 20
9.3137519186073
  0
VERTEX
  8
ERPC.1a
  6
CONTINUOUS
 62
7
 10
3.4140170797912
 20
9.3204900974479
  0
VERTEX
  8
ERPC.1a
  6
CONTINUOUS
 62
7
 10
3.412023011689
 20
9.313580270181
  0
SEQEND
  0
POLYLINE
  8
ERPC.1a
  6
CONTINUOUS
 62
7
 70
0
 66
1
  0
VERTEX
  8
ERPC.1a
  6
CONTINUOUS
 62
7
 10
3.1725416963836
 20
9.2521462884612
  0
VERTEX
  8
ERPC.1a
  6
CONTINUOUS
 62
7
 10
3.1686501525881
 20
9.2523179368876
  0
VERTEX
  8
ERPC.1a
  6
CONTINUOUS
 62
7
 10
3.1745357644859
 20
9.2590561157281
  0
VERTEX
  8
ERPC.1a
  6
CONTINUOUS
 62
7
 10
3.1725416963836
 20
9.2521462884612
  0
SEQEND
  0
POLYLINE
  8
ERPC.1a
  6
CONTINUOUS
 62
7
 70
0
 66
1
  0
VERTEX
  8
ERPC.1a
  6
CONTINUOUS
 62
7
 10
3.2226420559963
 20
9.6710533646268
  0
VERTEX
  8
ERPC.1a
  6
CONTINUOUS
 62
7
 10
3.2187505122008
 20
9.6712250130532
  0
VERTEX
  8
ERPC.1a
  6
CONTINUOUS
 62
7
 10
3.2246361240986
 20
9.6779631918937
  0
VERTEX
  8
ERPC.1a
  6
CONTINUOUS
 62
7
 10
3.2226420559963
 20
9.6710533646268
  0
SEQEND
  0
POLYLINE
  8
ERPC.1a
  6
CONTINUOUS
 62
7
 70
0
 66
1
  0
VERTEX
  8
ERPC.1a
  6
CONTINUOUS
 62
7
 10
3.196946981309
 20
9.4898641690021
  0
VERTEX
  8
ERPC.1a
  6
CONTINUOUS
 62
7
 10
3.1930554375135
 20
9.4900358174285
  0
VERTEX
  8
ERPC.1a
  6
CONTINUOUS
 62
7
 10
3.1989410494112
 20
9.496773996269
  0
VERTEX
  8
ERPC.1a
  6
CONTINUOUS
 62
7
 10
3.196946981309
 20
9.4898641690021
  0
SEQEND
  0
POLYLINE
  8
ERPC.1a
  6
CONTINUOUS
 62
7
 70
0
 66
1
  0
VERTEX
  8
ERPC.1a
  6
CONTINUOUS
 62
7
 10
2.6342052329789
 20
10.641124460386
  0
VERTEX
  8
ERPC.1a
  6
CONTINUOUS
 62
7
 10
2.6359677929789
 20
10.644177303858
  0
VERTEX
  8
ERPC.1a
  6
CONTINUOUS
 62
7
 10
2.6364400695075
 20
10.652045550801
  0
VERTEX
  8
ERPC.1a
  6
CONTINUOUS
 62
7
 10
2.6425457564503
 20
10.648520430801
  0
VERTEX
  8
ERPC.1a
  6
CONTINUOUS
 62
7
 10
2.6342052329789
 20
10.641124460386
  0
SEQEND
  0
POLYLINE
  8
ERPC.1a
  6
CONTINUOUS
 62
7
 70
0
 66
1
  0
VERTEX
  8
ERPC.1a
  6
CONTINUOUS
 62
7
 10
2.6936594037991
 20
10.324014701144
  0
VERTEX
  8
ERPC.1a
  6
CONTINUOUS
 62
7
 10
2.6989125237991
 20
10.333113371882
  0
VERTEX
  8
ERPC.1a
  6
CONTINUOUS
 62
7
 10
2.6936594037991
 20
10.324014701144
  0
SEQEND
  0
POLYLINE
  8
ERPC.1a
  6
CONTINUOUS
 62
7
 70
0
 66
1
  0
VERTEX
  8
ERPC.1a
  6
CONTINUOUS
 62
7
 10
2.6361016874779
 20
10.65999461167
  0
VERTEX
  8
ERPC.1a
  6
CONTINUOUS
 62
7
 10
2.6443477912734
 20
10.667365282409
  0
VERTEX
  8
ERPC.1a
  6
CONTINUOUS
 62
7
 10
2.6361016874779
 20
10.65999461167
  0
SEQEND
  0
POLYLINE
  8
ERPC.1a
  6
CONTINUOUS
 62
7
 70
0
 66
1
  0
VERTEX
  8
ERPC.1a
  6
CONTINUOUS
 62
7
 10
2.6507233549996
 20
10.347001597073
  0
VERTEX
  8
ERPC.1a
  6
CONTINUOUS
 62
7
 10
2.6524859149996
 20
10.350054440544
  0
VERTEX
  8
ERPC.1a
  6
CONTINUOUS
 62
7
 10
2.6529581915282
 20
10.357922687487
  0
VERTEX
  8
ERPC.1a
  6
CONTINUOUS
 62
7
 10
2.659063878471
 20
10.354397567487
  0
VERTEX
  8
ERPC.1a
  6
CONTINUOUS
 62
7
 10
2.6507233549996
 20
10.347001597073
  0
SEQEND
  0
POLYLINE
  8
ERPC.1a
  6
CONTINUOUS
 62
7
 70
0
 66
1
  0
VERTEX
  8
ERPC.1a
  6
CONTINUOUS
 62
7
 10
2.7619409271912
 20
10.673819385855
  0
VERTEX
  8
ERPC.1a
  6
CONTINUOUS
 62
7
 10
2.7671940471912
 20
10.682918056594
  0
VERTEX
  8
ERPC.1a
  6
CONTINUOUS
 62
7
 10
2.7619409271912
 20
10.673819385855
  0
SEQEND
  0
POLYLINE
  8
ERPC.1a
  6
CONTINUOUS
 62
7
 70
0
 66
1
  0
VERTEX
  8
ERPC.1a
  6
CONTINUOUS
 62
7
 10
2.7387707231933
 20
10.381044639776
  0
VERTEX
  8
ERPC.1a
  6
CONTINUOUS
 62
7
 10
2.7440238431933
 20
10.390143310515
  0
VERTEX
  8
ERPC.1a
  6
CONTINUOUS
 62
7
 10
2.7387707231933
 20
10.381044639776
  0
SEQEND
  0
POLYLINE
  8
ERPC.1a
  6
CONTINUOUS
 62
7
 70
0
 66
1
  0
VERTEX
  8
ERPC.1a
  6
CONTINUOUS
 62
7
 10
2.6526198094986
 20
10.365871748356
  0
VERTEX
  8
ERPC.1a
  6
CONTINUOUS
 62
7
 10
2.660865913294
 20
10.373242419095
  0
VERTEX
  8
ERPC.1a
  6
CONTINUOUS
 62
7
 10
2.6526198094986
 20
10.365871748356
  0
SEQEND
  0
LINE
  8
ERPC.1a
  6
CONTINUOUS
 62
8
 10
3.6903657794882
 20
10.167956963254
 11
3.6903657794882
 21
10.759208850212
  0
POLYLINE
  8
ERPC.1a
  6
CONTINUOUS
 62
7
 70
0
 66
1
  0
VERTEX
  8
ERPC.1a
  6
CONTINUOUS
 62
7
 10
3.5537198712009
 20
10.665551172
  0
VERTEX
  8
ERPC.1a
  6
CONTINUOUS
 62
7
 10
3.5234170085719
 20
10.697253234312
  0
VERTEX
  8
ERPC.1a
  6
CONTINUOUS
 62
7
 10
3.5791445981437
 20
10.695487610834
  0
VERTEX
  8
ERPC.1a
  6
CONTINUOUS
 62
7
 10
3.5561747827745
 20
10.666208963574
  0
SEQEND
  0
POLYLINE
  8
ERPC.1a
  6
CONTINUOUS
 62
7
 70
0
 66
1
  0
VERTEX
  8
ERPC.1a
  6
CONTINUOUS
 62
7
 10
3.5696172051345
 20
10.318963255813
  0
VERTEX
  8
ERPC.1a
  6
CONTINUOUS
 62
7
 10
3.5731423251345
 20
10.325068942756
  0
VERTEX
  8
ERPC.1a
  6
CONTINUOUS
 62
7
 10
3.5755626767082
 20
10.325666874654
  0
VERTEX
  8
ERPC.1a
  6
CONTINUOUS
 62
7
 10
3.5696172051345
 20
10.318963255813
  0
SEQEND
  0
POLYLINE
  8
ERPC.1a
  6
CONTINUOUS
 62
7
 70
0
 66
1
  0
VERTEX
  8
ERPC.1a
  6
CONTINUOUS
 62
7
 10
3.5390817721393
 20
10.465530085491
  0
VERTEX
  8
ERPC.1a
  6
CONTINUOUS
 62
7
 10
3.5330359448724
 20
10.469020645491
  0
VERTEX
  8
ERPC.1a
  6
CONTINUOUS
 62
7
 10
3.5390817721393
 20
10.465530085491
  0
SEQEND
  0
POLYLINE
  8
ERPC.1a
  6
CONTINUOUS
 62
7
 70
0
 66
1
  0
VERTEX
  8
ERPC.1a
  6
CONTINUOUS
 62
7
 10
3.8288738898982
 20
9.9307269177337
  0
VERTEX
  8
ERPC.1a
  6
CONTINUOUS
 62
7
 10
3.8291399580005
 20
9.934643761205
  0
VERTEX
  8
ERPC.1a
  6
CONTINUOUS
 62
7
 10
3.8350255698982
 20
9.9413819400456
  0
VERTEX
  8
ERPC.1a
  6
CONTINUOUS
 62
7
 10
3.839368696841
 20
9.9348039765742
  0
VERTEX
  8
ERPC.1a
  6
CONTINUOUS
 62
7
 10
3.8288738898982
 20
9.9307269177337
  0
SEQEND
  0
POLYLINE
  8
ERPC.1a
  6
CONTINUOUS
 62
7
 70
0
 66
1
  0
VERTEX
  8
ERPC.1a
  6
CONTINUOUS
 62
7
 10
3.8710169753175
 20
10.039245761025
  0
VERTEX
  8
ERPC.1a
  6
CONTINUOUS
 62
7
 10
3.8727795353175
 20
10.042298604496
  0
VERTEX
  8
ERPC.1a
  6
CONTINUOUS
 62
7
 10
3.8755663106867
 20
10.036619201025
  0
VERTEX
  8
ERPC.1a
  6
CONTINUOUS
 62
7
 10
3.8710169753175
 20
10.039245761025
  0
SEQEND
  0
POLYLINE
  8
ERPC.1a
  6
CONTINUOUS
 62
7
 70
0
 66
1
  0
VERTEX
  8
ERPC.1a
  6
CONTINUOUS
 62
7
 10
3.900792761251
 20
10.020469981864
  0
VERTEX
  8
ERPC.1a
  6
CONTINUOUS
 62
7
 10
3.9085007928247
 20
10.030226444176
  0
VERTEX
  8
ERPC.1a
  6
CONTINUOUS
 62
7
 10
3.900792761251
 20
10.020469981864
  0
SEQEND
  0
POLYLINE
  8
ERPC.1a
  6
CONTINUOUS
 62
7
 70
0
 66
1
  0
VERTEX
  8
ERPC.1a
  6
CONTINUOUS
 62
7
 10
4.1268124835867
 20
9.764808756494
  0
VERTEX
  8
ERPC.1a
  6
CONTINUOUS
 62
7
 10
4.1321001635867
 20
9.7739672869081
  0
VERTEX
  8
ERPC.1a
  6
CONTINUOUS
 62
7
 10
4.1268124835867
 20
9.764808756494
  0
SEQEND
  0
LINE
  8
ERPC.1a
  6
CONTINUOUS
 62
8
 10
3.0840828569714
 20
10.395864326849
 11
3.4474273803339
 21
10.759208850212
  0
LINE
  8
ERPC.1a
  6
CONTINUOUS
 62
8
 10
3.2990434868927
 20
9.8512724453519
 11
3.4439253766565
 21
9.9349200434077
  0
LINE
  8
ERPC.1a
  6
CONTINUOUS
 62
8
 10
3.4821124327285
 20
9.7751247460413
 11
3.6014056916171
 21
9.8439987411731
  0
LINE
  8
ERPC.1a
  6
CONTINUOUS
 62
8
 10
3.6014056916171
 20
9.8439987411731
 11
3.4439253766565
 21
9.9349200434077
  0
LINE
  8
ERPC.1a
  6
CONTINUOUS
 62
8
 10
3.2990434868927
 20
9.8512724453519
 11
3.3360416981496
 21
9.8299115181232
  0
LINE
  8
ERPC.1a
  6
CONTINUOUS
 62
8
 10
3.3340712739067
 20
9.6735884749225
 11
2.806535384918
 21
9.9781614624373
  0
LINE
  8
ERPC.1a
  6
CONTINUOUS
 62
8
 10
3.7958872982737
 20
9.8433811196641
 11
3.4620356128769
 21
10.036130480097
  0
POLYLINE
  8
ERPC.1a
  6
CONTINUOUS
 62
7
 70
0
 66
1
  0
VERTEX
  8
ERPC.1a
  6
CONTINUOUS
 62
7
 10
3.7625211475203
 20
9.2765974492024
  0
VERTEX
  8
ERPC.1a
  6
CONTINUOUS
 62
7
 10
3.7586296037248
 20
9.2767690976287
  0
VERTEX
  8
ERPC.1a
  6
CONTINUOUS
 62
7
 10
3.7645152156226
 20
9.2835072764692
  0
VERTEX
  8
ERPC.1a
  6
CONTINUOUS
 62
7
 10
3.7625211475203
 20
9.2765974492024
  0
SEQEND
  0
POLYLINE
  8
ERPC.1a
  6
CONTINUOUS
 62
7
 70
0
 66
1
  0
VERTEX
  8
ERPC.1a
  6
CONTINUOUS
 62
7
 10
3.812034090356
 20
9.2582558157513
  0
VERTEX
  8
ERPC.1a
  6
CONTINUOUS
 62
7
 10
3.8081425465605
 20
9.2584274641777
  0
VERTEX
  8
ERPC.1a
  6
CONTINUOUS
 62
7
 10
3.8140281584582
 20
9.2651656430182
  0
VERTEX
  8
ERPC.1a
  6
CONTINUOUS
 62
7
 10
3.812034090356
 20
9.2582558157513
  0
SEQEND
  0
POLYLINE
  8
ERPC.1a
  6
CONTINUOUS
 62
7
 70
0
 66
1
  0
VERTEX
  8
ERPC.1a
  6
CONTINUOUS
 62
7
 10
3.77115730136
 20
9.2966163136307
  0
VERTEX
  8
ERPC.1a
  6
CONTINUOUS
 62
7
 10
3.7672657575645
 20
9.296787962057
  0
VERTEX
  8
ERPC.1a
  6
CONTINUOUS
 62
7
 10
3.7731513694623
 20
9.3035261408975
  0
VERTEX
  8
ERPC.1a
  6
CONTINUOUS
 62
7
 10
3.77115730136
 20
9.2966163136307
  0
SEQEND
  0
POLYLINE
  8
ERPC.1a
  6
CONTINUOUS
 62
7
 70
0
 66
1
  0
VERTEX
  8
ERPC.1a
  6
CONTINUOUS
 62
7
 10
3.8726168154613
 20
9.2059670370312
  0
VERTEX
  8
ERPC.1a
  6
CONTINUOUS
 62
7
 10
3.8706341804163
 20
9.2131774924004
  0
VERTEX
  8
ERPC.1a
  6
CONTINUOUS
 62
7
 10
3.8726168154613
 20
9.2059670370312
  0
SEQEND
  0
POLYLINE
  8
ERPC.1a
  6
CONTINUOUS
 62
7
 70
0
 66
1
  0
VERTEX
  8
ERPC.1a
  6
CONTINUOUS
 62
7
 10
3.9354264558692
 20
9.2093153071306
  0
VERTEX
  8
ERPC.1a
  6
CONTINUOUS
 62
7
 10
3.9323736123978
 20
9.2110778671306
  0
VERTEX
  8
ERPC.1a
  6
CONTINUOUS
 62
7
 10
3.924505365455
 20
9.2115501436592
  0
VERTEX
  8
ERPC.1a
  6
CONTINUOUS
 62
7
 10
3.928030485455
 20
9.217655830602
  0
VERTEX
  8
ERPC.1a
  6
CONTINUOUS
 62
7
 10
3.9354264558692
 20
9.2093153071306
  0
SEQEND
  0
POLYLINE
  8
ERPC.1a
  6
CONTINUOUS
 62
7
 70
0
 66
1
  0
VERTEX
  8
ERPC.1a
  6
CONTINUOUS
 62
7
 10
3.8848843048813
 20
9.284218317341
  0
VERTEX
  8
ERPC.1a
  6
CONTINUOUS
 62
7
 10
3.8809927610858
 20
9.2843899657673
  0
VERTEX
  8
ERPC.1a
  6
CONTINUOUS
 62
7
 10
3.8868783729835
 20
9.2911281446079
  0
VERTEX
  8
ERPC.1a
  6
CONTINUOUS
 62
7
 10
3.8848843048813
 20
9.284218317341
  0
SEQEND
  0
POLYLINE
  8
ERPC.1a
  6
CONTINUOUS
 62
7
 70
0
 66
1
  0
VERTEX
  8
ERPC.1a
  6
CONTINUOUS
 62
7
 10
3.9253931947855
 20
9.2138900569996
  0
VERTEX
  8
ERPC.1a
  6
CONTINUOUS
 62
7
 10
3.9162945240472
 20
9.2191431769996
  0
VERTEX
  8
ERPC.1a
  6
CONTINUOUS
 62
7
 10
3.9253931947855
 20
9.2138900569996
  0
SEQEND
  0
POLYLINE
  8
ERPC.1a
  6
CONTINUOUS
 62
7
 70
0
 66
1
  0
VERTEX
  8
ERPC.1a
  6
CONTINUOUS
 62
7
 10
2.7823220310297
 20
9.2114934411821
  0
VERTEX
  8
ERPC.1a
  6
CONTINUOUS
 62
7
 10
2.7895324863988
 20
9.2134760762271
  0
VERTEX
  8
ERPC.1a
  6
CONTINUOUS
 62
7
 10
2.7823220310297
 20
9.2114934411821
  0
SEQEND
  0
POLYLINE
  8
ERPC.1a
  6
CONTINUOUS
 62
7
 70
0
 66
1
  0
VERTEX
  8
ERPC.1a
  6
CONTINUOUS
 62
7
 10
2.6865384591378
 20
9.4370551200157
  0
VERTEX
  8
ERPC.1a
  6
CONTINUOUS
 62
7
 10
2.6939091298761
 20
9.4288090162202
  0
VERTEX
  8
ERPC.1a
  6
CONTINUOUS
 62
7
 10
2.6865384591378
 20
9.4370551200157
  0
SEQEND
  0
POLYLINE
  8
ERPC.1a
  6
CONTINUOUS
 62
7
 70
0
 66
1
  0
VERTEX
  8
ERPC.1a
  6
CONTINUOUS
 62
7
 10
2.7725449480331
 20
9.3245195031213
  0
VERTEX
  8
ERPC.1a
  6
CONTINUOUS
 62
7
 10
2.7816436187714
 20
9.3192663831213
  0
VERTEX
  8
ERPC.1a
  6
CONTINUOUS
 62
7
 10
2.7725449480331
 20
9.3245195031213
  0
SEQEND
  0
POLYLINE
  8
ERPC.1a
  6
CONTINUOUS
 62
7
 70
0
 66
1
  0
VERTEX
  8
ERPC.1a
  6
CONTINUOUS
 62
7
 10
2.7304062167747
 20
9.2315799273057
  0
VERTEX
  8
ERPC.1a
  6
CONTINUOUS
 62
7
 10
2.7321687767747
 20
9.2346327707771
  0
VERTEX
  8
ERPC.1a
  6
CONTINUOUS
 62
7
 10
2.7326410533033
 20
9.2425010177198
  0
VERTEX
  8
ERPC.1a
  6
CONTINUOUS
 62
7
 10
2.7387467402461
 20
9.2389758977198
  0
VERTEX
  8
ERPC.1a
  6
CONTINUOUS
 62
7
 10
2.7304062167747
 20
9.2315799273057
  0
SEQEND
  0
POLYLINE
  8
ERPC.1a
  6
CONTINUOUS
 62
7
 70
0
 66
1
  0
VERTEX
  8
ERPC.1a
  6
CONTINUOUS
 62
7
 10
2.8321184158255
 20
9.5377774130594
  0
VERTEX
  8
ERPC.1a
  6
CONTINUOUS
 62
7
 10
2.836009959621
 20
9.5371344882522
  0
VERTEX
  8
ERPC.1a
  6
CONTINUOUS
 62
7
 10
2.8301243477233
 20
9.5118960259849
  0
VERTEX
  8
ERPC.1a
  6
CONTINUOUS
 62
7
 10
2.8321184158255
 20
9.5377774130594
  0
SEQEND
  0
POLYLINE
  8
ERPC.1a
  6
CONTINUOUS
 62
7
 70
0
 66
1
  0
VERTEX
  8
ERPC.1a
  6
CONTINUOUS
 62
7
 10
2.8144250438915
 20
9.4614950959348
  0
VERTEX
  8
ERPC.1a
  6
CONTINUOUS
 62
7
 10
2.8217957146297
 20
9.4306085634724
  0
VERTEX
  8
ERPC.1a
  6
CONTINUOUS
 62
7
 10
2.8144250438915
 20
9.4614950959348
  0
SEQEND
  0
POLYLINE
  8
ERPC.1a
  6
CONTINUOUS
 62
7
 70
0
 66
1
  0
VERTEX
  8
ERPC.1a
  6
CONTINUOUS
 62
7
 10
2.678018785406
 20
9.2893566196521
  0
VERTEX
  8
ERPC.1a
  6
CONTINUOUS
 62
7
 10
2.6871174561443
 20
9.2841034996521
  0
VERTEX
  8
ERPC.1a
  6
CONTINUOUS
 62
7
 10
2.678018785406
 20
9.2893566196521
  0
SEQEND
  0
POLYLINE
  8
ERPC.1a
  6
CONTINUOUS
 62
7
 70
0
 66
1
  0
VERTEX
  8
ERPC.1a
  6
CONTINUOUS
 62
7
 10
2.7358576439816
 20
9.406011397908
  0
VERTEX
  8
ERPC.1a
  6
CONTINUOUS
 62
7
 10
2.7430680993507
 20
9.4079940329531
  0
VERTEX
  8
ERPC.1a
  6
CONTINUOUS
 62
7
 10
2.7358576439816
 20
9.406011397908
  0
SEQEND
  0
POLYLINE
  8
ERPC.1a
  6
CONTINUOUS
 62
7
 70
0
 66
1
  0
VERTEX
  8
ERPC.1a
  6
CONTINUOUS
 62
7
 10
2.6400740720898
 20
9.6315730767417
  0
VERTEX
  8
ERPC.1a
  6
CONTINUOUS
 62
7
 10
2.647444742828
 20
9.6233269729462
  0
VERTEX
  8
ERPC.1a
  6
CONTINUOUS
 62
7
 10
2.6400740720898
 20
9.6315730767417
  0
SEQEND
  0
POLYLINE
  8
ERPC.1a
  6
CONTINUOUS
 62
7
 70
0
 66
1
  0
VERTEX
  8
ERPC.1a
  6
CONTINUOUS
 62
7
 10
2.7260805609851
 20
9.5190374598473
  0
VERTEX
  8
ERPC.1a
  6
CONTINUOUS
 62
7
 10
2.7351792317233
 20
9.5137843398473
  0
VERTEX
  8
ERPC.1a
  6
CONTINUOUS
 62
7
 10
2.7260805609851
 20
9.5190374598473
  0
SEQEND
  0
POLYLINE
  8
ERPC.1a
  6
CONTINUOUS
 62
7
 70
0
 66
1
  0
VERTEX
  8
ERPC.1a
  6
CONTINUOUS
 62
7
 10
2.6839418297267
 20
9.4260978840316
  0
VERTEX
  8
ERPC.1a
  6
CONTINUOUS
 62
7
 10
2.6857043897267
 20
9.429150727503
  0
VERTEX
  8
ERPC.1a
  6
CONTINUOUS
 62
7
 10
2.6861766662553
 20
9.4370189744458
  0
VERTEX
  8
ERPC.1a
  6
CONTINUOUS
 62
7
 10
2.6922823531981
 20
9.4334938544458
  0
VERTEX
  8
ERPC.1a
  6
CONTINUOUS
 62
7
 10
2.6839418297267
 20
9.4260978840316
  0
SEQEND
  0
POLYLINE
  8
ERPC.1a
  6
CONTINUOUS
 62
7
 70
0
 66
1
  0
VERTEX
  8
ERPC.1a
  6
CONTINUOUS
 62
7
 10
2.9310196143326
 20
9.2849804623129
  0
VERTEX
  8
ERPC.1a
  6
CONTINUOUS
 62
7
 10
2.9349111581281
 20
9.2848088138865
  0
VERTEX
  8
ERPC.1a
  6
CONTINUOUS
 62
7
 10
2.9290255462303
 20
9.278070635046
  0
VERTEX
  8
ERPC.1a
  6
CONTINUOUS
 62
7
 10
2.9310196143326
 20
9.2849804623129
  0
SEQEND
  0
POLYLINE
  8
ERPC.1a
  6
CONTINUOUS
 62
7
 70
0
 66
1
  0
VERTEX
  8
ERPC.1a
  6
CONTINUOUS
 62
7
 10
2.8706529899369
 20
9.3167707638683
  0
VERTEX
  8
ERPC.1a
  6
CONTINUOUS
 62
7
 10
2.8780236606752
 20
9.3085246600728
  0
VERTEX
  8
ERPC.1a
  6
CONTINUOUS
 62
7
 10
2.8706529899369
 20
9.3167707638683
  0
SEQEND
  0
POLYLINE
  8
ERPC.1a
  6
CONTINUOUS
 62
7
 70
0
 66
1
  0
VERTEX
  8
ERPC.1a
  6
CONTINUOUS
 62
7
 10
2.631554398358
 20
9.4838745763781
  0
VERTEX
  8
ERPC.1a
  6
CONTINUOUS
 62
7
 10
2.6406530690962
 20
9.4786214563781
  0
VERTEX
  8
ERPC.1a
  6
CONTINUOUS
 62
7
 10
2.631554398358
 20
9.4838745763781
  0
SEQEND
  0
POLYLINE
  8
ERPC.1a
  6
CONTINUOUS
 62
7
 70
0
 66
1
  0
VERTEX
  8
ERPC.1a
  6
CONTINUOUS
 62
7
 10
3.9754186459343
 20
9.9562164902692
  0
VERTEX
  8
ERPC.1a
  6
CONTINUOUS
 62
7
 10
3.9662601155201
 20
9.9615041702692
  0
VERTEX
  8
ERPC.1a
  6
CONTINUOUS
 62
7
 10
3.9754186459343
 20
9.9562164902692
  0
SEQEND
  0
POLYLINE
  8
ERPC.1a
  6
CONTINUOUS
 62
7
 70
0
 66
1
  0
VERTEX
  8
ERPC.1a
  6
CONTINUOUS
 62
7
 10
4.0490095512644
 20
9.7095312429281
  0
VERTEX
  8
ERPC.1a
  6
CONTINUOUS
 62
7
 10
4.0464280632443
 20
9.7124890080669
  0
VERTEX
  8
ERPC.1a
  6
CONTINUOUS
 62
7
 10
4.0458252073776
 20
9.7214153761022
  0
VERTEX
  8
ERPC.1a
  6
CONTINUOUS
 62
7
 10
4.0535475844674
 20
9.719835108038
  0
VERTEX
  8
ERPC.1a
  6
CONTINUOUS
 62
7
 10
4.0490095512644
 20
9.7095312429281
  0
SEQEND
  0
ENDSEC
  0
EOF
