  0
SECTION
  2
HEADER
  9
$EXTMIN
 10
3.297144842135
 20
8.3106623890287
  9
$EXTMAX
 10
4.8719479917413
 20
9.885465538635
  9
$LIMMIN
 10
0
 20
0
  9
$LIMMAX
 10
8.27
 20
11.69
  0
ENDSEC
  0
SECTION
  2
TABLES
  0
TABLE
  2
LTYPE
 70
9
  0
LTYPE
  2
CONTINUOUS
  3
___________________________
 70
64
 72
65
 73
0
 40
0
  0
LTYPE
  2
HIDDEN
  3
_ _ _ _ _ _ _ _ _ _ _ _ _ _ 
 70
64
 72
65
 73
2
 49
0.25
 49
-0.125
 40
0.375
  0
LTYPE
  2
DASHED
  3
__ __ __ __ __ __ __ __ __ 
 70
64
 72
65
 73
2
 49
0.5
 49
-0.25
 40
0.75
  0
LTYPE
  2
CENTER
  3
____ _ ____ _ ____ _ ____ _ 
 70
64
 72
65
 73
4
 49
1.25
 49
-0.25
 49
0.25
 49
-0.25
 40
2
  0
LTYPE
  2
PHANTOM
  3
_____ _ _ _____ _ _ _____ _ _ 
 70
64
 72
65
 73
6
 49
1.25
 49
-0.25
 49
0.25
 49
-0.25
 49
0.25
 49
-0.25
 40
2.5
  0
LTYPE
  2
DOT
  3
...........................
 70
64
 72
65
 73
2
 49
0
 49
-0.25
 40
0.25
  0
LTYPE
  2
DASHDOT
  3
__ . __ . __ . __ . __ . __ . 
 70
64
 72
65
 73
4
 49
0.5
 49
-0.25
 49
0
 49
-0.25
 40
1
  0
LTYPE
  2
DIVIDE
  3
__ . . __ . . __ . . __ . . 
 70
64
 72
65
 73
6
 49
0.5
 49
-0.25
 49
0
 49
-0.25
 49
0
 49
-0.25
 40
1.25
  0
LTYPE
  2
BORDER
  3
__ __ . __ __ . __ __ . __ __ . 
 70
64
 72
65
 73
6
 49
0.5
 49
-0.25
 49
0.5
 49
-0.25
 49
0
 49
-0.25
 40
1.75
  0
ENDTAB
  0
TABLE
  2
LAYER
 70
1
  0
LAYER
  2
EQLH.1
 62
7
  6
CONTINUOUS
 70
0
  0
ENDTAB
  0
TABLE
  2
STYLE
 70
5
  0
STYLE
  2
ptmarker
 70
1
 40
0
 50
0
 71
0
 41
0
 42
0
  3
ptmarks
  0
STYLE
  2
TXT
 70
0
 40
0
 50
0
 71
0
 41
0
 42
0
  3
TXT
  0
STYLE
  2
ITALIC
 70
0
 40
0
 50
0
 71
0
 41
0
 42
0
  3
ITALIC
  0
STYLE
  2
SIMPLEX
 70
0
 40
0
 50
0
 71
0
 41
0
 42
0
  3
SIMPLEX
  0
STYLE
  2
COMPLEX
 70
0
 40
0
 50
0
 71
0
 41
0
 42
0
  3
COMPLEX
  0
ENDTAB
  0
ENDSEC
  0
SECTION
  2
BLOCKS
  0
ENDSEC
  0
SECTION
  2
ENTITIES
  0
ARC
  8
EQLH.1
  6
CONTINUOUS
 62
8
 10
3.9379222364651
 20
8.8660166502609
 40
0.012992125984252
 50
4.7149260009184
 51
59.999999999998
  0
ARC
  8
EQLH.1
  6
CONTINUOUS
 62
8
 10
3.4254257822947
 20
9.1619066160349
 40
0.012992125984252
 50
59.999999999998
 51
174.79111789368
  0
LINE
  8
EQLH.1
  6
CONTINUOUS
 62
8
 10
3.9444182994573
 20
8.8772681614124
 11
3.4319218452869
 21
9.1731581271864
  0
ARC
  8
EQLH.1
  6
CONTINUOUS
 62
8
 10
4.0038863085984
 20
8.6956264639663
 40
0.012992125984252
 50
240
 51
348.41790883697
  0
ARC
  8
EQLH.1
  6
CONTINUOUS
 62
8
 10
3.9767561384114
 20
8.7112900750269
 40
0.012992125984252
 50
184.71492600092
 51
240
  0
ARC
  8
EQLH.1
  6
CONTINUOUS
 62
8
 10
3.3891800563853
 20
9.0505272841541
 40
0.012992125984252
 50
240
 51
354.79111789368
  0
ARC
  8
EQLH.1
  6
CONTINUOUS
 62
8
 10
3.3641112363202
 20
9.065000774167
 40
0.012992125984252
 50
184.10496306402
 51
240
  0
ARC
  8
EQLH.1
  6
CONTINUOUS
 62
8
 10
4.0467212152063
 20
8.9046335041879
 40
0.012992125984252
 50
348.41790883697
 51
59.999999999998
  0
ARC
  8
EQLH.1
  6
CONTINUOUS
 62
8
 10
3.346611235704
 20
9.3088421893159
 40
0.012992125984252
 50
60.000000000001
 51
184.10496306402
  0
LINE
  8
EQLH.1
  6
CONTINUOUS
 62
8
 10
3.4124873094176
 20
9.1630861316972
 11
3.4021185292624
 21
9.0493477684918
  0
LINE
  8
EQLH.1
  6
CONTINUOUS
 62
8
 10
3.3336524399022
 20
9.3079121629938
 11
3.3511524405184
 21
9.0640707478448
  0
LINE
  8
EQLH.1
  6
CONTINUOUS
 62
8
 10
4.0594487962008
 20
8.9020250526129
 11
4.0166138895929
 21
8.6930180123913
  0
LINE
  8
EQLH.1
  6
CONTINUOUS
 62
8
 10
3.9973902456063
 20
8.6843749528148
 11
3.9702600754193
 21
8.7000385638754
  0
LINE
  8
EQLH.1
  6
CONTINUOUS
 62
8
 10
3.9638079776857
 20
8.710222146466
 11
3.9508703971909
 21
8.8670845788218
  0
LINE
  8
EQLH.1
  6
CONTINUOUS
 62
8
 10
3.3826839933931
 20
9.0392757730026
 11
3.357615173328
 21
9.0537492630154
  0
LINE
  8
EQLH.1
  6
CONTINUOUS
 62
8
 10
4.0532172781984
 20
8.9158850153394
 11
3.3531072986961
 21
9.3200937004674
  0
LINE
  8
EQLH.1
  6
CONTINUOUS
 62
8
 10
3.7590604564509
 20
8.9842845619686
 11
3.8233657509514
 21
9.0485898564691
  0
LINE
  8
EQLH.1
  6
CONTINUOUS
 62
8
 10
3.7281674826165
 20
9.0021206287279
 11
3.7924727771171
 21
9.0664259232285
  0
LINE
  8
EQLH.1
  6
CONTINUOUS
 62
8
 10
3.6972745087821
 20
9.0199566954873
 11
3.7615798032827
 21
9.0842619899878
  0
LINE
  8
EQLH.1
  6
CONTINUOUS
 62
8
 10
3.6663815349477
 20
9.0377927622466
 11
3.7306868294483
 21
9.1020980567472
  0
LINE
  8
EQLH.1
  6
CONTINUOUS
 62
8
 10
3.6354885611133
 20
9.055628829006
 11
3.6997938556139
 21
9.1199341235065
  0
LINE
  8
EQLH.1
  6
CONTINUOUS
 62
8
 10
3.6045955872789
 20
9.0734648957653
 11
3.6689008817795
 21
9.1377701902659
  0
LINE
  8
EQLH.1
  6
CONTINUOUS
 62
8
 10
3.5737026134445
 20
9.0913009625247
 11
3.6380079079451
 21
9.1556062570253
  0
LINE
  8
EQLH.1
  6
CONTINUOUS
 62
8
 10
4.8719479917413
 20
9.885465538635
 11
3.297144842135
 21
9.885465538635
  0
LINE
  8
EQLH.1
  6
CONTINUOUS
 62
8
 10
4.8719479917413
 20
8.3106623890287
 11
4.8719479917413
 21
9.885465538635
  0
LINE
  8
EQLH.1
  6
CONTINUOUS
 62
8
 10
3.297144842135
 20
8.3106623890287
 11
4.8719479917413
 21
8.3106623890287
  0
LINE
  8
EQLH.1
  6
CONTINUOUS
 62
8
 10
3.297144842135
 20
9.885465538635
 11
3.297144842135
 21
8.3106623890287
  0
LINE
  8
EQLH.1
  6
CONTINUOUS
 62
8
 10
3.8208464041197
 20
8.9486124284498
 11
3.8851516986202
 21
9.0129177229504
  0
LINE
  8
EQLH.1
  6
CONTINUOUS
 62
8
 10
3.7899534302853
 20
8.9664484952092
 11
3.8542587247858
 21
9.0307537897098
  0
LINE
  8
EQLH.1
  6
CONTINUOUS
 62
8
 10
3.8826323517885
 20
8.9129402949311
 11
3.946937646289
 21
8.9772455894317
  0
LINE
  8
EQLH.1
  6
CONTINUOUS
 62
8
 10
3.8517393779541
 20
8.9307763616905
 11
3.9160446724546
 21
8.995081656191
  0
LINE
  8
EQLH.1
  6
CONTINUOUS
 62
8
 10
3.9444182994573
 20
8.8772681614124
 11
4.0087235939578
 21
8.941573455913
  0
LINE
  8
EQLH.1
  6
CONTINUOUS
 62
8
 10
3.9135253256229
 20
8.8951042281718
 11
3.9778306201234
 21
8.9594095226723
  0
LINE
  8
EQLH.1
  6
CONTINUOUS
 62
8
 10
4.4290202766482
 20
8.4306271730907
 11
4.4709363274263
 21
8.4064269298905
  0
LINE
  8
EQLH.1
  6
CONTINUOUS
 62
8
 10
4.350241815717
 20
8.4761099387157
 11
4.3896310461826
 21
8.4533685559032
  0
LINE
  8
EQLH.1
  6
CONTINUOUS
 62
8
 10
4.2651925618136
 20
8.5252131483512
 11
4.3108525852513
 21
8.4988513215282
  0
LINE
  8
EQLH.1
  6
CONTINUOUS
 62
8
 10
4.4709363274263
 20
8.4109729950023
 11
3.9973902456063
 21
8.6843749528148
  0
LINE
  8
EQLH.1
  6
CONTINUOUS
 62
8
 10
4.4709363274263
 20
8.4109729950023
 11
4.4709363274263
 21
8.6747148098221
  0
LINE
  8
EQLH.1
  6
CONTINUOUS
 62
8
 10
4.4709363274263
 20
8.6747148098221
 11
4.8719479917413
 21
8.9062390021625
  0
LINE
  8
EQLH.1
  6
CONTINUOUS
 62
8
 10
4.3842519458071
 20
9.1748225069457
 11
3.7580300721619
 21
9.5363718742672
  0
LINE
  8
EQLH.1
  6
CONTINUOUS
 62
8
 10
4.4925196623425
 20
9.1873241860029
 11
3.8662977886973
 21
9.5488735533244
  0
LINE
  8
EQLH.1
  6
CONTINUOUS
 62
8
 10
4.0594487962008
 20
8.9122872467433
 11
4.3842519458071
 21
9.0998124326021
  0
LINE
  8
EQLH.1
  6
CONTINUOUS
 62
8
 10
3.3466127493272
 20
9.3238433302938
 11
3.7147229855477
 21
9.5363718742672
  0
LINE
  8
EQLH.1
  6
CONTINUOUS
 62
8
 10
4.5358267489567
 20
9.1873241860029
 11
4.8719479917413
 21
9.381383876005
  0
LINE
  8
EQLH.1
  6
CONTINUOUS
 62
8
 10
3.8662977886973
 20
9.623883627668
 11
4.3193709488331
 21
9.885465538635
  0
LINE
  8
EQLH.1
  6
CONTINUOUS
 62
8
 10
4.8719479917413
 20
9.7683685975508
 11
4.6691301403725
 21
9.885465538635
  0
LINE
  8
EQLH.1
  6
CONTINUOUS
 62
8
 10
4.8719479917413
 20
9.8433786718943
 11
4.799051400215
 21
9.885465538635
  0
LINE
  8
EQLH.1
  6
CONTINUOUS
 62
8
 10
3.7580300721619
 20
9.6363853067252
 11
4.1894496889906
 21
9.885465538635
  0
LINE
  8
EQLH.1
  6
CONTINUOUS
 62
8
 10
3.7147229855477
 20
9.6363853067252
 11
3.297144842135
 21
9.8774741602323
  0
LINE
  8
EQLH.1
  6
CONTINUOUS
 62
8
 10
3.6064552690122
 20
9.623883627668
 11
3.297144842135
 21
9.8024640858887
  0
LINE
  8
EQLH.1
  6
CONTINUOUS
 62
8
 10
3.297144842135
 20
9.3702930951037
 11
3.6064552690122
 21
9.5488735533244
  0
CIRCLE
  8
EQLH.1
  6
CONTINUOUS
 62
8
 10
4.1569762243353
 20
8.7302800971335
 40
0.01068890934375
  0
LINE
  8
EQLH.1
  6
CONTINUOUS
 62
8
 10
3.9117616439327
 20
8.6010478825028
 11
4.1516317696634
 21
8.739536964164
  0
LINE
  8
EQLH.1
  6
CONTINUOUS
 62
8
 10
3.9228141907809
 20
8.6008281868586
 11
4.1626843165117
 21
8.7393172685198
  0
LINE
  8
EQLH.1
  6
CONTINUOUS
 62
8
 10
3.9259684238849
 20
8.5977669650691
 11
4.1658385496157
 21
8.7362560467303
  0
LINE
  8
EQLH.1
  6
CONTINUOUS
 62
8
 10
3.9277865646916
 20
8.5922157826111
 11
4.1676566904224
 21
8.7307048642723
  0
LINE
  8
EQLH.1
  6
CONTINUOUS
 62
8
 10
3.9224505532764
 20
8.5825341484419
 11
4.1623206790072
 21
8.7210232301031
  0
CIRCLE
  8
EQLH.1
  6
CONTINUOUS
 62
8
 10
3.9171060986045
 20
8.5917910154723
 40
0.01068890934375
  0
LINE
  8
EQLH.1
  6
CONTINUOUS
 62
8
 10
4.4709363274263
 20
8.6747148098221
 11
4.0532172781984
 21
8.9158850153394
  0
CIRCLE
  8
EQLH.1
  6
CONTINUOUS
 62
8
 10
4.3627199899481
 20
8.6114938786729
 40
0.01068890934375
  0
LINE
  8
EQLH.1
  6
CONTINUOUS
 62
8
 10
4.1175054095454
 20
8.4822616640421
 11
4.3573755352762
 21
8.6207507457033
  0
LINE
  8
EQLH.1
  6
CONTINUOUS
 62
8
 10
4.1285579563937
 20
8.482041968398
 11
4.3684280821244
 21
8.6205310500592
  0
LINE
  8
EQLH.1
  6
CONTINUOUS
 62
8
 10
4.1317121894977
 20
8.4789807466085
 11
4.3715823152284
 21
8.6174698282697
  0
LINE
  8
EQLH.1
  6
CONTINUOUS
 62
8
 10
4.1335303303043
 20
8.4734295641504
 11
4.3734004560351
 21
8.6119186458117
  0
LINE
  8
EQLH.1
  6
CONTINUOUS
 62
8
 10
4.1281943188892
 20
8.4637479299813
 11
4.3680644446199
 21
8.6022370116425
  0
CIRCLE
  8
EQLH.1
  6
CONTINUOUS
 62
8
 10
4.1228498642173
 20
8.4730047970117
 40
0.01068890934375
  0
LINE
  8
EQLH.1
  6
CONTINUOUS
 62
8
 10
4.2651925618136
 20
8.5070288879042
 11
4.2651925618136
 21
8.3106623890287
  0
ARC
  8
EQLH.1
  6
CONTINUOUS
 62
8
 10
3.7363765288548
 20
9.4988668370954
 40
0.043307086614173
 50
60
 51
120
  0
ARC
  8
EQLH.1
  6
CONTINUOUS
 62
8
 10
4.3625984025
 20
9.1373174697739
 40
0.043307086614173
 50
300
 51
60
  0
ARC
  8
EQLH.1
  6
CONTINUOUS
 62
8
 10
3.8879513320044
 20
9.5863785904962
 40
0.043307086614173
 50
120
 51
240
  0
ARC
  8
EQLH.1
  6
CONTINUOUS
 62
8
 10
4.5141732056496
 20
9.2248292231747
 40
0.043307086614173
 50
240
 51
300
  0
ARC
  8
EQLH.1
  6
CONTINUOUS
 62
8
 10
3.7363765288548
 20
9.673890343897
 40
0.043307086614173
 50
240
 51
300
  0
ARC
  8
EQLH.1
  6
CONTINUOUS
 62
8
 10
3.5848017257052
 20
9.5863785904962
 40
0.043307086614173
 50
300
 51
60
  0
LINE
  8
EQLH.1
  6
CONTINUOUS
 62
8
 10
4.4906213667964
 20
8.3768775066643
 11
4.4906213667964
 21
8.6633496470427
  0
LINE
  8
EQLH.1
  6
CONTINUOUS
 62
8
 10
4.4906213667964
 20
8.6633496470427
 11
4.8719479917413
 21
8.8835086766038
  0
LINE
  8
EQLH.1
  6
CONTINUOUS
 62
8
 10
4.4906213667964
 20
8.3768775066643
 11
4.2651925618136
 21
8.5070288879042
  0
LINE
  8
EQLH.1
  6
CONTINUOUS
 62
8
 10
4.4290202766482
 20
8.4260811079789
 11
4.4709363274263
 21
8.4018808647788
  0
LINE
  8
EQLH.1
  6
CONTINUOUS
 62
8
 10
4.350241815717
 20
8.4715638736039
 11
4.3896310461826
 21
8.4488224907914
  0
LINE
  8
EQLH.1
  6
CONTINUOUS
 62
8
 10
4.2651925618136
 20
8.5206670832394
 11
4.3108525852513
 21
8.4943052564164
  0
LINE
  8
EQLH.1
  6
CONTINUOUS
 62
8
 10
4.4290202766482
 20
8.4215350428672
 11
4.4709363274263
 21
8.3973347996671
  0
LINE
  8
EQLH.1
  6
CONTINUOUS
 62
8
 10
4.350241815717
 20
8.4670178084922
 11
4.3896310461826
 21
8.4442764256797
  0
LINE
  8
EQLH.1
  6
CONTINUOUS
 62
8
 10
4.2651925618136
 20
8.5161210181277
 11
4.3108525852513
 21
8.4897591913047
  0
LINE
  8
EQLH.1
  6
CONTINUOUS
 62
8
 10
4.4290202766482
 20
8.4169889777555
 11
4.4709363274263
 21
8.3927887345554
  0
LINE
  8
EQLH.1
  6
CONTINUOUS
 62
8
 10
4.350241815717
 20
8.4624717433805
 11
4.3896310461826
 21
8.439730360568
  0
LINE
  8
EQLH.1
  6
CONTINUOUS
 62
8
 10
4.2651925618136
 20
8.511574953016
 11
4.3108525852513
 21
8.485213126193
  0
LINE
  8
EQLH.1
  6
CONTINUOUS
 62
8
 10
4.4748733353003
 20
8.4332137313759
 11
4.4748733353003
 21
8.4804578258641
  0
LINE
  8
EQLH.1
  6
CONTINUOUS
 62
8
 10
4.4788103431744
 20
8.4309406988201
 11
4.4788103431744
 21
8.4781847933083
  0
LINE
  8
EQLH.1
  6
CONTINUOUS
 62
8
 10
4.4827473510484
 20
8.4286676662642
 11
4.4827473510484
 21
8.4759117607524
  0
LINE
  8
EQLH.1
  6
CONTINUOUS
 62
8
 10
4.4866843589224
 20
8.4263946337084
 11
4.4866843589224
 21
8.4736387281965
  0
LINE
  8
EQLH.1
  6
CONTINUOUS
 62
8
 10
4.4748733353003
 20
8.5277019203523
 11
4.4748733353003
 21
8.5749460148405
  0
LINE
  8
EQLH.1
  6
CONTINUOUS
 62
8
 10
4.4788103431744
 20
8.5254288877965
 11
4.4788103431744
 21
8.5726729822846
  0
LINE
  8
EQLH.1
  6
CONTINUOUS
 62
8
 10
4.4827473510484
 20
8.5231558552406
 11
4.4827473510484
 21
8.5703999497288
  0
LINE
  8
EQLH.1
  6
CONTINUOUS
 62
8
 10
4.4866843589224
 20
8.5208828226847
 11
4.4866843589224
 21
8.5681269171729
  0
LINE
  8
EQLH.1
  6
CONTINUOUS
 62
8
 10
4.4748733353003
 20
8.6221901093287
 11
4.4748733353003
 21
8.6724417772662
  0
LINE
  8
EQLH.1
  6
CONTINUOUS
 62
8
 10
4.4788103431744
 20
8.6199170767728
 11
4.4788103431744
 21
8.6701687447103
  0
LINE
  8
EQLH.1
  6
CONTINUOUS
 62
8
 10
4.4827473510484
 20
8.617644044217
 11
4.4827473510484
 21
8.6678957121545
  0
LINE
  8
EQLH.1
  6
CONTINUOUS
 62
8
 10
4.4866843589224
 20
8.6153710116611
 11
4.4866843589224
 21
8.6656226795986
  0
LINE
  8
EQLH.1
  6
CONTINUOUS
 62
8
 10
3.3446534703959
 20
9.1546260630386
 11
3.4526500649387
 21
9.2626226575814
  0
LINE
  8
EQLH.1
  6
CONTINUOUS
 62
8
 10
3.3413904658012
 20
9.2000920990377
 11
3.4217570911043
 21
9.2804587243408
  0
LINE
  8
EQLH.1
  6
CONTINUOUS
 62
8
 10
3.3381274612066
 20
9.2455581350368
 11
3.3908641172699
 21
9.2982947911001
  0
LINE
  8
EQLH.1
  6
CONTINUOUS
 62
8
 10
3.3348644566119
 20
9.2910241710359
 11
3.3599711434355
 21
9.3161308578595
  0
LINE
  8
EQLH.1
  6
CONTINUOUS
 62
8
 10
3.3511794795852
 20
9.0636939910404
 11
3.4086671542554
 21
9.1211816657106
  0
LINE
  8
EQLH.1
  6
CONTINUOUS
 62
8
 10
3.3479164749906
 20
9.1091600270395
 11
3.4835430387731
 21
9.244786590822
  0
LINE
  8
EQLH.1
  6
CONTINUOUS
 62
8
 10
3.5119166657757
 20
9.1269730960434
 11
3.5762219602763
 21
9.191278390544
  0
LINE
  8
EQLH.1
  6
CONTINUOUS
 62
8
 10
3.3781233758863
 20
9.0419088467478
 11
3.4037792491853
 21
9.0675647200467
  0
LINE
  8
EQLH.1
  6
CONTINUOUS
 62
8
 10
3.5428096396101
 20
9.1091370292841
 11
3.6071149341107
 21
9.1734423237846
  0
LINE
  8
EQLH.1
  6
CONTINUOUS
 62
8
 10
3.4810236919413
 20
9.1448091628028
 11
3.5453289864419
 21
9.2091144573033
  0
LINE
  8
EQLH.1
  6
CONTINUOUS
 62
8
 10
3.4501307181069
 20
9.1626452295621
 11
3.5144360126075
 21
9.2269505240627
  0
LINE
  8
EQLH.1
  6
CONTINUOUS
 62
8
 10
3.9959828525743
 20
8.6851875115607
 11
4.0199135389397
 21
8.7091181979261
  0
LINE
  8
EQLH.1
  6
CONTINUOUS
 62
8
 10
3.9660280748451
 20
8.7039617744253
 11
4.0324746336163
 21
8.7704083331964
  0
LINE
  8
EQLH.1
  6
CONTINUOUS
 62
8
 10
3.9607413163618
 20
8.7474040565357
 11
4.0450357282928
 21
8.8316984684667
  0
LINE
  8
EQLH.1
  6
CONTINUOUS
 62
8
 10
3.9570285022428
 20
8.7924202830105
 11
4.0575968229694
 21
8.892988603737
  0
LINE
  8
EQLH.1
  6
CONTINUOUS
 62
8
 10
3.9533156881238
 20
8.8374365094852
 11
4.0396165677922
 21
8.9237373891536
  0
LINE
  8
EQLH.1
  6
CONTINUOUS
 62
8
 10
3.3966908214364
 20
9.0399261641219
 11
3.5296885979716
 21
9.1167124662061
  0
LINE
  8
EQLH.1
  6
CONTINUOUS
 62
8
 10
3.357615173328
 20
9.0537492630154
 11
3.297144842135
 21
9.0886618250077
  0
LINE
  8
EQLH.1
  6
CONTINUOUS
 62
8
 10
4.4906213667964
 20
8.6633496470427
 11
4.8719479917413
 21
8.4431906174817
  0
LINE
  8
EQLH.1
  6
CONTINUOUS
 62
8
 10
4.4906213667964
 20
8.6178889959255
 11
4.8719479917413
 21
8.3977299663644
  0
LINE
  8
EQLH.1
  6
CONTINUOUS
 62
8
 10
4.4906213667964
 20
8.5724283448082
 11
4.8719479917413
 21
8.3522693152471
  0
LINE
  8
EQLH.1
  6
CONTINUOUS
 62
8
 10
4.4906213667964
 20
8.5269676936909
 11
4.865273144418
 21
8.3106623890287
  0
LINE
  8
EQLH.1
  6
CONTINUOUS
 62
8
 10
4.4906213667964
 20
8.4815070425736
 11
4.7865329869377
 21
8.3106623890287
  0
LINE
  8
EQLH.1
  6
CONTINUOUS
 62
8
 10
4.4906213667964
 20
8.4360463914563
 11
4.7077928294573
 21
8.3106623890287
  0
LINE
  8
EQLH.1
  6
CONTINUOUS
 62
8
 10
4.4906213667964
 20
8.390585740339
 11
4.629052671977
 21
8.3106623890287
  0
LINE
  8
EQLH.1
  6
CONTINUOUS
 62
8
 10
4.2651925618136
 20
8.4752764704616
 11
4.5503125144967
 21
8.3106623890287
  0
LINE
  8
EQLH.1
  6
CONTINUOUS
 62
8
 10
4.2651925618136
 20
8.4298158193443
 11
4.4715723570164
 21
8.3106623890287
  0
LINE
  8
EQLH.1
  6
CONTINUOUS
 62
8
 10
4.2651925618136
 20
8.384355168227
 11
4.3928321995361
 21
8.3106623890287
  0
LINE
  8
EQLH.1
  6
CONTINUOUS
 62
8
 10
4.2651925618136
 20
8.3388945171098
 11
4.3140920420558
 21
8.3106623890287
  0
LINE
  8
EQLH.1
  6
HIDDEN
 62
8
 10
3.4253529068075
 20
9.2783826791765
 11
3.7265340091697
 21
9.4522696697002
  0
LINE
  8
EQLH.1
  6
HIDDEN
 62
8
 10
4.2622047017126
 20
9.1543652139429
 11
3.7462190485398
 21
9.4522696697002
  0
LINE
  8
EQLH.1
  6
HIDDEN
 62
8
 10
3.9807086387205
 20
8.9577478978606
 11
4.2622047017126
 21
9.1202697256049
  0
LINE
  8
EQLH.1
  6
HIDDEN
 62
8
 10
4.5043306859646
 20
9.2714263905699
 11
3.9883450327918
 21
9.5693308463272
  0
LINE
  8
EQLH.1
  6
HIDDEN
 62
8
 10
4.5240157253347
 20
9.2714263905699
 11
4.8719479917413
 21
9.4723051782395
  0
LINE
  8
EQLH.1
  6
HIDDEN
 62
8
 10
3.9883450327918
 20
9.6034263346652
 11
4.4768512637937
 21
9.885465538635
  0
LINE
  8
EQLH.1
  6
HIDDEN
 62
8
 10
4.8719479917413
 20
9.6774472953162
 11
4.5116498254119
 21
9.885465538635
  0
LINE
  8
EQLH.1
  6
HIDDEN
 62
8
 10
3.7462190485398
 20
9.7204875112922
 11
4.0319693740299
 21
9.885465538635
  0
LINE
  8
EQLH.1
  6
HIDDEN
 62
8
 10
3.7265340091697
 20
9.7204875112922
 11
3.4407836836796
 21
9.885465538635
  0
LINE
  8
EQLH.1
  6
HIDDEN
 62
8
 10
3.4844080249178
 20
9.6034263346652
 11
3.297144842135
 21
9.7115427836541
  0
LINE
  8
EQLH.1
  6
HIDDEN
 62
8
 10
3.297144842135
 20
9.4612143973383
 11
3.4844080249178
 21
9.5693308463272
  0
ARC
  8
EQLH.1
  6
HIDDEN
 62
8
 10
3.7363765288548
 20
9.4352219255312
 40
0.019685039370079
 50
60
 51
120
  0
ARC
  8
EQLH.1
  6
HIDDEN
 62
8
 10
4.2523621820276
 20
9.1373174697739
 40
0.019685039370079
 50
300
 51
60
  0
ARC
  8
EQLH.1
  6
HIDDEN
 62
8
 10
3.9981875524768
 20
9.5863785904962
 40
0.019685039370079
 50
120
 51
240
  0
ARC
  8
EQLH.1
  6
HIDDEN
 62
8
 10
4.5141732056496
 20
9.2884741347389
 40
0.019685039370079
 50
240
 51
300
  0
ARC
  8
EQLH.1
  6
HIDDEN
 62
8
 10
3.7363765288548
 20
9.7375352554612
 40
0.019685039370079
 50
240
 51
300
  0
ARC
  8
EQLH.1
  6
HIDDEN
 62
8
 10
3.4745655052327
 20
9.5863785904962
 40
0.019685039370079
 50
300
 51
60.000000000001
  0
CIRCLE
  8
EQLH.1
  6
CONTINUOUS
 62
8
 10
4.0742761223862
 20
8.7901711684371
 40
0.0078740157480315
  0
CIRCLE
  8
EQLH.1
  6
CONTINUOUS
 62
8
 10
4.2550729271121
 20
8.7062432663877
 40
0.0039370078740157
  0
CIRCLE
  8
EQLH.1
  6
CONTINUOUS
 62
8
 10
4.1774269233492
 20
8.6544792638791
 40
0.0078740157480315
  0
CIRCLE
  8
EQLH.1
  6
CONTINUOUS
 62
8
 10
4.4115400703451
 20
8.4846358845719
 40
0.0039370078740157
  0
CIRCLE
  8
EQLH.1
  6
CONTINUOUS
 62
8
 10
4.3456599315022
 20
8.6771260149766
 40
0.015748031496063
  0
CIRCLE
  8
EQLH.1
  6
CONTINUOUS
 62
8
 10
4.0942534294081
 20
8.8524533609173
 40
0.0039370078740157
  0
CIRCLE
  8
EQLH.1
  6
CONTINUOUS
 62
8
 10
4.1671118432529
 20
8.6303527122615
 40
0.0039370078740157
  0
CIRCLE
  8
EQLH.1
  6
CONTINUOUS
 62
8
 10
4.3598340992294
 20
8.694985176156
 40
0.0039370078740157
  0
CIRCLE
  8
EQLH.1
  6
CONTINUOUS
 62
8
 10
4.2211680857829
 20
8.7807700827797
 40
0.0039370078740157
  0
CIRCLE
  8
EQLH.1
  6
CONTINUOUS
 62
8
 10
4.0707507152647
 20
8.7208381617139
 40
0.0039370078740157
  0
CIRCLE
  8
EQLH.1
  6
CONTINUOUS
 62
8
 10
4.343382199329
 20
8.5480932127593
 40
0.0039370078740157
  0
LINE
  8
EQLH.1
  6
CONTINUOUS
 62
8
 10
3.3531072986961
 20
9.3200937004674
 11
3.297144842135
 21
9.3524036398275
  0
CIRCLE
  8
EQLH.1
  6
CONTINUOUS
 62
8
 10
3.7993777410103
 20
9.1714135409352
 40
0.0039370078740157
  0
CIRCLE
  8
EQLH.1
  6
CONTINUOUS
 62
8
 10
3.8575618825355
 20
9.202382519489
 40
0.0039370078740157
  0
CIRCLE
  8
EQLH.1
  6
CONTINUOUS
 62
8
 10
3.9176229318518
 20
9.2389822214161
 40
0.0039370078740157
  0
CIRCLE
  8
EQLH.1
  6
CONTINUOUS
 62
8
 10
3.9767455272726
 20
9.0681836124228
 40
0.0039370078740157
  0
CIRCLE
  8
EQLH.1
  6
CONTINUOUS
 62
8
 10
3.7383782377984
 20
9.2042594272801
 40
0.0039370078740157
  0
CIRCLE
  8
EQLH.1
  6
CONTINUOUS
 62
8
 10
3.7411935994851
 20
9.3422121499286
 40
0.0039370078740157
  0
CIRCLE
  8
EQLH.1
  6
CONTINUOUS
 62
8
 10
3.6788713820204
 20
9.7948524279496
 40
0.0039370078740157
  0
CIRCLE
  8
EQLH.1
  6
CONTINUOUS
 62
8
 10
3.7377678499033
 20
9.8272040088994
 40
0.0039370078740157
  0
CIRCLE
  8
EQLH.1
  6
CONTINUOUS
 62
8
 10
3.792516679203
 20
9.8595555898492
 40
0.0039370078740157
  0
CIRCLE
  8
EQLH.1
  6
CONTINUOUS
 62
8
 10
3.5602489185377
 20
9.8612146452825
 40
0.0039370078740157
  0
CIRCLE
  8
EQLH.1
  6
CONTINUOUS
 62
8
 10
3.6763827988704
 20
9.8628737007159
 40
0.0039370078740157
  0
CIRCLE
  8
EQLH.1
  6
CONTINUOUS
 62
8
 10
3.910309614969
 20
9.8612146452825
 40
0.0039370078740157
  0
CIRCLE
  8
EQLH.1
  6
CONTINUOUS
 62
8
 10
3.3145134220062
 20
9.6540447478653
 40
0.0039370078740157
  0
CIRCLE
  8
EQLH.1
  6
CONTINUOUS
 62
8
 10
3.3176976180845
 20
9.5863805812013
 40
0.0039370078740157
  0
CIRCLE
  8
EQLH.1
  6
CONTINUOUS
 62
8
 10
3.3742170984745
 20
9.6206106890431
 40
0.0039370078740157
  0
CIRCLE
  8
EQLH.1
  6
CONTINUOUS
 62
8
 10
3.3734210494549
 20
9.5521504733595
 40
0.0039370078740157
  0
CIRCLE
  8
EQLH.1
  6
CONTINUOUS
 62
8
 10
3.4339207749427
 20
9.5855845321817
 40
0.0039370078740157
  0
CIRCLE
  8
EQLH.1
  6
CONTINUOUS
 62
8
 10
3.3841742663874
 20
9.4258599342589
 40
0.0039370078740157
  0
CIRCLE
  8
EQLH.1
  6
CONTINUOUS
 62
8
 10
3.6174863309874
 20
9.8272040088994
 40
0.0039370078740157
  0
CIRCLE
  8
EQLH.1
  6
CONTINUOUS
 62
8
 10
3.3145134220062
 20
9.5179203655177
 40
0.0039370078740157
  0
CIRCLE
  8
EQLH.1
  6
CONTINUOUS
 62
8
 10
3.7377678499033
 20
9.7608417915665
 40
0.0039370078740157
  0
CIRCLE
  8
EQLH.1
  6
CONTINUOUS
 62
8
 10
3.792516679203
 20
9.7931933725163
 40
0.0039370078740157
  0
CIRCLE
  8
EQLH.1
  6
CONTINUOUS
 62
8
 10
3.8497540916527
 20
9.8272040088994
 40
0.0039370078740157
  0
CIRCLE
  8
EQLH.1
  6
CONTINUOUS
 62
8
 10
3.6820710040643
 20
9.3056124480014
 40
0.0039370078740157
  0
CIRCLE
  8
EQLH.1
  6
CONTINUOUS
 62
8
 10
3.6238868625391
 20
9.2727665616566
 40
0.0039370078740157
  0
CIRCLE
  8
EQLH.1
  6
CONTINUOUS
 62
8
 10
3.7383782377984
 20
9.271828107761
 40
0.0039370078740157
  0
CIRCLE
  8
EQLH.1
  6
CONTINUOUS
 62
8
 10
3.7993777410103
 20
9.3046739941059
 40
0.0039370078740157
  0
CIRCLE
  8
EQLH.1
  6
CONTINUOUS
 62
8
 10
3.6801940962732
 20
9.2389822214161
 40
0.0039370078740157
  0
CIRCLE
  8
EQLH.1
  6
CONTINUOUS
 62
8
 10
3.7975008332191
 20
9.2380437675206
 40
0.0039370078740157
  0
CIRCLE
  8
EQLH.1
  6
CONTINUOUS
 62
8
 10
3.8575618825355
 20
9.2727665616566
 40
0.0039370078740157
  0
CIRCLE
  8
EQLH.1
  6
CONTINUOUS
 62
8
 10
3.9767455272726
 20
9.2070747889668
 40
0.0039370078740157
  0
CIRCLE
  8
EQLH.1
  6
CONTINUOUS
 62
8
 10
4.0368065765889
 20
9.1695366331441
 40
0.0039370078740157
  0
CIRCLE
  8
EQLH.1
  6
CONTINUOUS
 62
8
 10
4.0968676259052
 20
9.1366907467992
 40
0.0039370078740157
  0
CIRCLE
  8
EQLH.1
  6
CONTINUOUS
 62
8
 10
4.0377450304845
 20
9.1019679526632
 40
0.0039370078740157
  0
CIRCLE
  8
EQLH.1
  6
CONTINUOUS
 62
8
 10
3.9767455272726
 20
9.1357522929037
 40
0.0039370078740157
  0
CIRCLE
  8
EQLH.1
  6
CONTINUOUS
 62
8
 10
3.9176229318518
 20
9.1714135409352
 40
0.0039370078740157
  0
CIRCLE
  8
EQLH.1
  6
CONTINUOUS
 62
8
 10
3.8575618825355
 20
9.1348138390081
 40
0.0039370078740157
  0
CIRCLE
  8
EQLH.1
  6
CONTINUOUS
 62
8
 10
3.9157460240607
 20
9.1010294987677
 40
0.0039370078740157
  0
CIRCLE
  8
EQLH.1
  6
CONTINUOUS
 62
8
 10
3.7987291983933
 20
9.3739754240536
 40
0.0039370078740157
  0
CIRCLE
  8
EQLH.1
  6
CONTINUOUS
 62
8
 10
3.737111035364
 20
9.409034034053
 40
0.0039370078740157
  0
CIRCLE
  8
EQLH.1
  6
CONTINUOUS
 62
8
 10
3.6797424008195
 20
9.3750378061748
 40
0.0039370078740157
  0
CIRCLE
  8
EQLH.1
  6
CONTINUOUS
 62
8
 10
3.6213113841538
 20
9.3410415782966
 40
0.0039370078740157
  0
CIRCLE
  8
EQLH.1
  6
CONTINUOUS
 62
8
 10
3.5628803674881
 20
9.3102324967819
 40
0.0039370078740157
  0
CIRCLE
  8
EQLH.1
  6
CONTINUOUS
 62
8
 10
3.50232458658
 20
9.2762362689037
 40
0.0039370078740157
  0
CIRCLE
  8
EQLH.1
  6
CONTINUOUS
 62
8
 10
3.5628803674881
 20
9.2358657482983
 40
0.0039370078740157
  0
CIRCLE
  8
EQLH.1
  6
CONTINUOUS
 62
8
 10
3.6213113841538
 20
9.2029319025413
 40
0.0039370078740157
  0
CIRCLE
  8
EQLH.1
  6
CONTINUOUS
 62
8
 10
3.6829295471831
 20
9.1710604389054
 40
0.0039370078740157
  0
CIRCLE
  8
EQLH.1
  6
CONTINUOUS
 62
8
 10
3.7392357996064
 20
9.1370642110272
 40
0.0039370078740157
  0
CIRCLE
  8
EQLH.1
  6
CONTINUOUS
 62
8
 10
3.7976668162721
 20
9.1009432189066
 40
0.0039370078740157
  0
CIRCLE
  8
EQLH.1
  6
CONTINUOUS
 62
8
 10
3.8571602150589
 20
9.0658846089072
 40
0.0039370078740157
  0
CIRCLE
  8
EQLH.1
  6
CONTINUOUS
 62
8
 10
3.9198407602094
 20
9.031888381029
 40
0.0039370078740157
  0
CIRCLE
  8
EQLH.1
  6
CONTINUOUS
 62
8
 10
3.9718974841479
 20
9.0032040637567
 40
0.0039370078740157
  0
CIRCLE
  8
EQLH.1
  6
CONTINUOUS
 62
8
 10
4.0313908829348
 20
9.0340131452714
 40
0.0039370078740157
  0
CIRCLE
  8
EQLH.1
  6
CONTINUOUS
 62
8
 10
4.0940714280853
 20
9.070134137392
 40
0.0039370078740157
  0
CIRCLE
  8
EQLH.1
  6
CONTINUOUS
 62
8
 10
4.1514400626298
 20
9.1020056010278
 40
0.0039370078740157
  0
CIRCLE
  8
EQLH.1
  6
CONTINUOUS
 62
8
 10
4.2088086971743
 20
9.1391889752696
 40
0.0039370078740157
  0
CIRCLE
  8
EQLH.1
  6
CONTINUOUS
 62
8
 10
4.1546272089934
 20
9.1721228210266
 40
0.0039370078740157
  0
CIRCLE
  8
EQLH.1
  6
CONTINUOUS
 62
8
 10
4.0919466638429
 20
9.2061190489049
 40
0.0039370078740157
  0
CIRCLE
  8
EQLH.1
  6
CONTINUOUS
 62
8
 10
4.0335156471772
 20
9.2390528946619
 40
0.0039370078740157
  0
CIRCLE
  8
EQLH.1
  6
CONTINUOUS
 62
8
 10
3.9750846305115
 20
9.2719867404189
 40
0.0039370078740157
  0
CIRCLE
  8
EQLH.1
  6
CONTINUOUS
 62
8
 10
3.9145288496034
 20
9.3081077325395
 40
0.0039370078740157
  0
CIRCLE
  8
EQLH.1
  6
CONTINUOUS
 62
8
 10
3.8603473614225
 20
9.3410415782966
 40
0.0039370078740157
  0
CIRCLE
  8
EQLH.1
  6
CONTINUOUS
 62
8
 10
4.5572517567583
 20
9.6089723079392
 40
0.0039370078740157
  0
CIRCLE
  8
EQLH.1
  6
CONTINUOUS
 62
8
 10
4.6154358982835
 20
9.6399412864929
 40
0.0039370078740157
  0
CIRCLE
  8
EQLH.1
  6
CONTINUOUS
 62
8
 10
4.6754969475998
 20
9.6765409884201
 40
0.0039370078740157
  0
CIRCLE
  8
EQLH.1
  6
CONTINUOUS
 62
8
 10
4.7346195430206
 20
9.5057423794267
 40
0.0039370078740157
  0
CIRCLE
  8
EQLH.1
  6
CONTINUOUS
 62
8
 10
4.4962522535464
 20
9.6418181942841
 40
0.0039370078740157
  0
CIRCLE
  8
EQLH.1
  6
CONTINUOUS
 62
8
 10
4.4990676152331
 20
9.7797709169325
 40
0.0039370078740157
  0
CIRCLE
  8
EQLH.1
  6
CONTINUOUS
 62
8
 10
4.4399450198123
 20
9.7431712150054
 40
0.0039370078740157
  0
CIRCLE
  8
EQLH.1
  6
CONTINUOUS
 62
8
 10
4.3817608782871
 20
9.7103253286605
 40
0.0039370078740157
  0
CIRCLE
  8
EQLH.1
  6
CONTINUOUS
 62
8
 10
4.4962522535464
 20
9.7093868747649
 40
0.0039370078740157
  0
CIRCLE
  8
EQLH.1
  6
CONTINUOUS
 62
8
 10
4.5572517567583
 20
9.7422327611098
 40
0.0039370078740157
  0
CIRCLE
  8
EQLH.1
  6
CONTINUOUS
 62
8
 10
4.4380681120212
 20
9.6765409884201
 40
0.0039370078740157
  0
CIRCLE
  8
EQLH.1
  6
CONTINUOUS
 62
8
 10
4.5553748489672
 20
9.6756025345245
 40
0.0039370078740157
  0
CIRCLE
  8
EQLH.1
  6
CONTINUOUS
 62
8
 10
4.6154358982835
 20
9.7103253286605
 40
0.0039370078740157
  0
CIRCLE
  8
EQLH.1
  6
CONTINUOUS
 62
8
 10
4.7346195430206
 20
9.6446335559708
 40
0.0039370078740157
  0
CIRCLE
  8
EQLH.1
  6
CONTINUOUS
 62
8
 10
4.7946805923369
 20
9.6070954001481
 40
0.0039370078740157
  0
CIRCLE
  8
EQLH.1
  6
CONTINUOUS
 62
8
 10
4.8547416416533
 20
9.5742495138032
 40
0.0039370078740157
  0
CIRCLE
  8
EQLH.1
  6
CONTINUOUS
 62
8
 10
4.7956190462325
 20
9.5395267196672
 40
0.0039370078740157
  0
CIRCLE
  8
EQLH.1
  6
CONTINUOUS
 62
8
 10
4.7346195430206
 20
9.5733110599076
 40
0.0039370078740157
  0
CIRCLE
  8
EQLH.1
  6
CONTINUOUS
 62
8
 10
4.6754969475998
 20
9.6089723079392
 40
0.0039370078740157
  0
CIRCLE
  8
EQLH.1
  6
CONTINUOUS
 62
8
 10
4.6154358982835
 20
9.5723726060121
 40
0.0039370078740157
  0
CIRCLE
  8
EQLH.1
  6
CONTINUOUS
 62
8
 10
4.6736200398087
 20
9.5385882657716
 40
0.0039370078740157
  0
CIRCLE
  8
EQLH.1
  6
CONTINUOUS
 62
8
 10
4.5566032141413
 20
9.8115341910575
 40
0.0039370078740157
  0
CIRCLE
  8
EQLH.1
  6
CONTINUOUS
 62
8
 10
4.494985051112
 20
9.846592801057
 40
0.0039370078740157
  0
CIRCLE
  8
EQLH.1
  6
CONTINUOUS
 62
8
 10
4.4376164165675
 20
9.8125965731787
 40
0.0039370078740157
  0
CIRCLE
  8
EQLH.1
  6
CONTINUOUS
 62
8
 10
4.3791853999018
 20
9.7786003453005
 40
0.0039370078740157
  0
CIRCLE
  8
EQLH.1
  6
CONTINUOUS
 62
8
 10
4.3207543832361
 20
9.7477912637859
 40
0.0039370078740157
  0
CIRCLE
  8
EQLH.1
  6
CONTINUOUS
 62
8
 10
4.260198602328
 20
9.7137950359076
 40
0.0039370078740157
  0
CIRCLE
  8
EQLH.1
  6
CONTINUOUS
 62
8
 10
4.3207543832361
 20
9.6734245153023
 40
0.0039370078740157
  0
CIRCLE
  8
EQLH.1
  6
CONTINUOUS
 62
8
 10
4.3791853999018
 20
9.6404906695452
 40
0.0039370078740157
  0
CIRCLE
  8
EQLH.1
  6
CONTINUOUS
 62
8
 10
4.4408035629311
 20
9.6086192059094
 40
0.0039370078740157
  0
CIRCLE
  8
EQLH.1
  6
CONTINUOUS
 62
8
 10
4.4971098153544
 20
9.5746229780312
 40
0.0039370078740157
  0
CIRCLE
  8
EQLH.1
  6
CONTINUOUS
 62
8
 10
4.5555408320201
 20
9.5385019859106
 40
0.0039370078740157
  0
CIRCLE
  8
EQLH.1
  6
CONTINUOUS
 62
8
 10
4.615034230807
 20
9.5034433759111
 40
0.0039370078740157
  0
CIRCLE
  8
EQLH.1
  6
CONTINUOUS
 62
8
 10
4.6777147759574
 20
9.4694471480329
 40
0.0039370078740157
  0
CIRCLE
  8
EQLH.1
  6
CONTINUOUS
 62
8
 10
4.729771499896
 20
9.4407628307607
 40
0.0039370078740157
  0
CIRCLE
  8
EQLH.1
  6
CONTINUOUS
 62
8
 10
4.7892648986829
 20
9.4715719122753
 40
0.0039370078740157
  0
CIRCLE
  8
EQLH.1
  6
CONTINUOUS
 62
8
 10
4.8519454438333
 20
9.5076929043959
 40
0.0039370078740157
  0
CIRCLE
  8
EQLH.1
  6
CONTINUOUS
 62
8
 10
4.8498206795909
 20
9.6436778159088
 40
0.0039370078740157
  0
CIRCLE
  8
EQLH.1
  6
CONTINUOUS
 62
8
 10
4.7913896629252
 20
9.6766116616658
 40
0.0039370078740157
  0
CIRCLE
  8
EQLH.1
  6
CONTINUOUS
 62
8
 10
4.7329586462596
 20
9.7095455074229
 40
0.0039370078740157
  0
CIRCLE
  8
EQLH.1
  6
CONTINUOUS
 62
8
 10
4.6724028653515
 20
9.7456664995435
 40
0.0039370078740157
  0
CIRCLE
  8
EQLH.1
  6
CONTINUOUS
 62
8
 10
4.6182213771706
 20
9.7786003453005
 40
0.0039370078740157
  0
CIRCLE
  8
EQLH.1
  6
CONTINUOUS
 62
8
 10
4.3220066320304
 20
9.4756603203172
 40
0.0039370078740157
  0
CIRCLE
  8
EQLH.1
  6
CONTINUOUS
 62
8
 10
4.3801907735556
 20
9.5066292988709
 40
0.0039370078740157
  0
CIRCLE
  8
EQLH.1
  6
CONTINUOUS
 62
8
 10
4.4402518228719
 20
9.5432290007981
 40
0.0039370078740157
  0
CIRCLE
  8
EQLH.1
  6
CONTINUOUS
 62
8
 10
4.4993744182927
 20
9.3724303918048
 40
0.0039370078740157
  0
CIRCLE
  8
EQLH.1
  6
CONTINUOUS
 62
8
 10
4.2610071288185
 20
9.5085062066621
 40
0.0039370078740157
  0
CIRCLE
  8
EQLH.1
  6
CONTINUOUS
 62
8
 10
4.2638224905052
 20
9.6464589293105
 40
0.0039370078740157
  0
CIRCLE
  8
EQLH.1
  6
CONTINUOUS
 62
8
 10
4.2046998950845
 20
9.6098592273834
 40
0.0039370078740157
  0
CIRCLE
  8
EQLH.1
  6
CONTINUOUS
 62
8
 10
4.1465157535593
 20
9.5770133410385
 40
0.0039370078740157
  0
CIRCLE
  8
EQLH.1
  6
CONTINUOUS
 62
8
 10
4.2610071288185
 20
9.576074887143
 40
0.0039370078740157
  0
CIRCLE
  8
EQLH.1
  6
CONTINUOUS
 62
8
 10
4.3220066320304
 20
9.6089207734878
 40
0.0039370078740157
  0
CIRCLE
  8
EQLH.1
  6
CONTINUOUS
 62
8
 10
4.2028229872933
 20
9.5432290007981
 40
0.0039370078740157
  0
CIRCLE
  8
EQLH.1
  6
CONTINUOUS
 62
8
 10
4.3201297242393
 20
9.5422905469025
 40
0.0039370078740157
  0
CIRCLE
  8
EQLH.1
  6
CONTINUOUS
 62
8
 10
4.3801907735556
 20
9.5770133410385
 40
0.0039370078740157
  0
CIRCLE
  8
EQLH.1
  6
CONTINUOUS
 62
8
 10
4.4993744182927
 20
9.5113215683488
 40
0.0039370078740157
  0
CIRCLE
  8
EQLH.1
  6
CONTINUOUS
 62
8
 10
4.559435467609
 20
9.4737834125261
 40
0.0039370078740157
  0
CIRCLE
  8
EQLH.1
  6
CONTINUOUS
 62
8
 10
4.6194965169254
 20
9.4409375261812
 40
0.0039370078740157
  0
CIRCLE
  8
EQLH.1
  6
CONTINUOUS
 62
8
 10
4.5603739215046
 20
9.4062147320452
 40
0.0039370078740157
  0
CIRCLE
  8
EQLH.1
  6
CONTINUOUS
 62
8
 10
4.4993744182927
 20
9.4399990722856
 40
0.0039370078740157
  0
CIRCLE
  8
EQLH.1
  6
CONTINUOUS
 62
8
 10
4.4402518228719
 20
9.4756603203172
 40
0.0039370078740157
  0
CIRCLE
  8
EQLH.1
  6
CONTINUOUS
 62
8
 10
4.3801907735556
 20
9.4390606183901
 40
0.0039370078740157
  0
CIRCLE
  8
EQLH.1
  6
CONTINUOUS
 62
8
 10
4.4383749150808
 20
9.4052762781496
 40
0.0039370078740157
  0
CIRCLE
  8
EQLH.1
  6
CONTINUOUS
 62
8
 10
4.2023712918396
 20
9.6792845855567
 40
0.0039370078740157
  0
CIRCLE
  8
EQLH.1
  6
CONTINUOUS
 62
8
 10
4.1439402751739
 20
9.6452883576785
 40
0.0039370078740157
  0
CIRCLE
  8
EQLH.1
  6
CONTINUOUS
 62
8
 10
4.0855092585082
 20
9.6144792761639
 40
0.0039370078740157
  0
CIRCLE
  8
EQLH.1
  6
CONTINUOUS
 62
8
 10
4.0249534776001
 20
9.5804830482857
 40
0.0039370078740157
  0
CIRCLE
  8
EQLH.1
  6
CONTINUOUS
 62
8
 10
4.0855092585082
 20
9.5401125276803
 40
0.0039370078740157
  0
CIRCLE
  8
EQLH.1
  6
CONTINUOUS
 62
8
 10
4.1439402751739
 20
9.5071786819232
 40
0.0039370078740157
  0
CIRCLE
  8
EQLH.1
  6
CONTINUOUS
 62
8
 10
4.2055584382032
 20
9.4753072182874
 40
0.0039370078740157
  0
CIRCLE
  8
EQLH.1
  6
CONTINUOUS
 62
8
 10
4.2618646906265
 20
9.4413109904092
 40
0.0039370078740157
  0
CIRCLE
  8
EQLH.1
  6
CONTINUOUS
 62
8
 10
4.3202957072922
 20
9.4051899982886
 40
0.0039370078740157
  0
CIRCLE
  8
EQLH.1
  6
CONTINUOUS
 62
8
 10
4.3797891060791
 20
9.3701313882892
 40
0.0039370078740157
  0
CIRCLE
  8
EQLH.1
  6
CONTINUOUS
 62
8
 10
4.4424696512296
 20
9.3361351604109
 40
0.0039370078740157
  0
CIRCLE
  8
EQLH.1
  6
CONTINUOUS
 62
8
 10
4.4945263751681
 20
9.3074508431387
 40
0.0039370078740157
  0
CIRCLE
  8
EQLH.1
  6
CONTINUOUS
 62
8
 10
4.554019773955
 20
9.3382599246533
 40
0.0039370078740157
  0
CIRCLE
  8
EQLH.1
  6
CONTINUOUS
 62
8
 10
4.6167003191054
 20
9.3743809167739
 40
0.0039370078740157
  0
CIRCLE
  8
EQLH.1
  6
CONTINUOUS
 62
8
 10
4.6740689536499
 20
9.4062523804098
 40
0.0039370078740157
  0
ENDSEC
  0
EOF
