  0
SECTION
  2
HEADER
  9
$EXTMIN
 10
0.71212329118469
 20
9.3789581676883
  9
$EXTMAX
 10
2.286926440791
 20
10.953761317295
  9
$LIMMIN
 10
0
 20
0
  9
$LIMMAX
 10
8.2677165354331
 20
11.692913385827
  0
ENDSEC
  0
SECTION
  2
TABLES
  0
TABLE
  2
LTYPE
 70
9
  0
LTYPE
  2
CONTINUOUS
  3
___________________________
 70
64
 72
65
 73
0
 40
0
  0
LTYPE
  2
HIDDEN
  3
_ _ _ _ _ _ _ _ _ _ _ _ _ _ 
 70
64
 72
65
 73
2
 49
0.25
 49
-0.125
 40
0.375
  0
LTYPE
  2
DASHED
  3
__ __ __ __ __ __ __ __ __ 
 70
64
 72
65
 73
2
 49
0.5
 49
-0.25
 40
0.75
  0
LTYPE
  2
CENTER
  3
____ _ ____ _ ____ _ ____ _ 
 70
64
 72
65
 73
4
 49
1.25
 49
-0.25
 49
0.25
 49
-0.25
 40
2
  0
LTYPE
  2
PHANTOM
  3
_____ _ _ _____ _ _ _____ _ _ 
 70
64
 72
65
 73
6
 49
1.25
 49
-0.25
 49
0.25
 49
-0.25
 49
0.25
 49
-0.25
 40
2.5
  0
LTYPE
  2
DOT
  3
...........................
 70
64
 72
65
 73
2
 49
0
 49
-0.25
 40
0.25
  0
LTYPE
  2
DASHDOT
  3
__ . __ . __ . __ . __ . __ . 
 70
64
 72
65
 73
4
 49
0.5
 49
-0.25
 49
0
 49
-0.25
 40
1
  0
LTYPE
  2
DIVIDE
  3
__ . . __ . . __ . . __ . . 
 70
64
 72
65
 73
6
 49
0.5
 49
-0.25
 49
0
 49
-0.25
 49
0
 49
-0.25
 40
1.25
  0
LTYPE
  2
BORDER
  3
__ __ . __ __ . __ __ . __ __ . 
 70
64
 72
65
 73
6
 49
0.5
 49
-0.25
 49
0.5
 49
-0.25
 49
0
 49
-0.25
 40
1.75
  0
ENDTAB
  0
TABLE
  2
LAYER
 70
1
  0
LAYER
  2
LM
 62
7
  6
CONTINUOUS
 70
0
  0
ENDTAB
  0
TABLE
  2
STYLE
 70
5
  0
STYLE
  2
ptmarker
 70
1
 40
0
 50
0
 71
0
 41
0
 42
0
  3
ptmarks
  0
STYLE
  2
TXT
 70
0
 40
0
 50
0
 71
0
 41
0
 42
0
  3
TXT
  0
STYLE
  2
ITALIC
 70
0
 40
0
 50
0
 71
0
 41
0
 42
0
  3
ITALIC
  0
STYLE
  2
SIMPLEX
 70
0
 40
0
 50
0
 71
0
 41
0
 42
0
  3
SIMPLEX
  0
STYLE
  2
COMPLEX
 70
0
 40
0
 50
0
 71
0
 41
0
 42
0
  3
COMPLEX
  0
ENDTAB
  0
ENDSEC
  0
SECTION
  2
BLOCKS
  0
ENDSEC
  0
SECTION
  2
ENTITIES
  0
LINE
  8
LM
  6
CONTINUOUS
 62
8
 10
2.286926440791
 20
9.3789581676883
 11
0.71212329118469
 21
9.3789581676883
  0
LINE
  8
LM
  6
CONTINUOUS
 62
8
 10
2.286926440791
 20
10.953761317295
 11
2.286926440791
 21
9.3789581676883
  0
LINE
  8
LM
  6
CONTINUOUS
 62
8
 10
0.71212329118469
 20
10.953761317295
 11
2.286926440791
 21
10.953761317295
  0
LINE
  8
LM
  6
CONTINUOUS
 62
8
 10
0.71212329118469
 20
9.3789581676883
 11
0.71212329118469
 21
10.953761317295
  0
LINE
  8
LM
  6
CONTINUOUS
 62
8
 10
0.78689251955759
 20
9.87484399446
 11
0.78689251955759
 21
10.03984399446
  0
LINE
  8
LM
  6
CONTINUOUS
 62
8
 10
0.78689251955759
 20
9.4857888763497
 11
0.78689251955759
 21
9.6507888763497
  0
LINE
  8
LM
  6
CONTINUOUS
 62
8
 10
0.75736496050247
 20
10.28094685574
 11
0.75736496050247
 21
10.44594685574
  0
LINE
  8
LM
  6
CONTINUOUS
 62
8
 10
0.71212329118469
 20
10.472067144168
 11
0.75736496050247
 21
10.44594685574
  0
LINE
  8
LM
  6
CONTINUOUS
 62
8
 10
0.71212329118469
 20
10.307067144168
 11
0.75736496050247
 21
10.28094685574
  0
LINE
  8
LM
  6
CONTINUOUS
 62
8
 10
1.5013635195576
 20
10.428899220823
 11
1.8585990195576
 21
10.22264911257
  0
LINE
  8
LM
  6
CONTINUOUS
 62
8
 10
1.5013635195576
 20
9.8513991125702
 11
1.5013635195576
 21
10.01639911257
  0
LINE
  8
LM
  6
CONTINUOUS
 62
8
 10
0.78689251955759
 20
10.26389911257
 11
1.5013635195576
 21
9.8513991125702
  0
LINE
  8
LM
  6
CONTINUOUS
 62
8
 10
0.78689251955759
 20
10.26389911257
 11
0.78689251955759
 21
10.42889911257
  0
LINE
  8
LM
  6
CONTINUOUS
 62
8
 10
0.78689251955759
 20
10.42889911257
 11
1.5013635195576
 21
10.01639911257
  0
LINE
  8
LM
  6
CONTINUOUS
 62
8
 10
1.5013635195576
 20
10.623426671625
 11
1.5013635195576
 21
10.458426671625
  0
LINE
  8
LM
  6
CONTINUOUS
 62
8
 10
1.5013635195576
 20
10.458426671625
 11
1.5013635195576
 21
10.428899220823
  0
LINE
  8
LM
  6
CONTINUOUS
 62
8
 10
1.1441280195576
 20
10.222649220823
 11
1.5013635195576
 21
10.428899220823
  0
LINE
  8
LM
  6
CONTINUOUS
 62
8
 10
1.1441280195576
 20
10.252176671625
 11
1.1441280195576
 21
10.222649220823
  0
LINE
  8
LM
  6
CONTINUOUS
 62
8
 10
1.1441280195576
 20
10.252176671625
 11
1.5013635195576
 21
10.458426671625
  0
LINE
  8
LM
  6
CONTINUOUS
 62
8
 10
1.1441280195576
 20
10.252176671625
 11
1.1441280195576
 21
10.417176671625
  0
LINE
  8
LM
  6
CONTINUOUS
 62
8
 10
1.1441280195576
 20
10.417176671625
 11
1.5013635195576
 21
10.623426671625
  0
LINE
  8
LM
  6
CONTINUOUS
 62
8
 10
0.92920739652609
 20
10.953761317295
 11
1.5013635195576
 21
10.623426671625
  0
LINE
  8
LM
  6
CONTINUOUS
 62
8
 10
0.71212329118469
 20
10.666594703223
 11
1.1441280195576
 21
10.417176671625
  0
LINE
  8
LM
  6
CONTINUOUS
 62
8
 10
0.71212329118469
 20
10.501594703223
 11
1.1441280195576
 21
10.252176671625
  0
LINE
  8
LM
  6
CONTINUOUS
 62
8
 10
1.1146004605025
 20
9.8801692966848
 11
1.1146004605025
 21
10.045169296685
  0
LINE
  8
LM
  6
CONTINUOUS
 62
8
 10
0.71212329118469
 20
10.277539585113
 11
1.1146004605025
 21
10.045169296685
  0
LINE
  8
LM
  6
CONTINUOUS
 62
8
 10
0.71212329118469
 20
10.112539585113
 11
1.1146004605025
 21
9.8801692966848
  0
LINE
  8
LM
  6
CONTINUOUS
 62
8
 10
1.8585990195576
 20
9.4506215535151
 11
1.8585990195576
 21
9.6156215535151
  0
LINE
  8
LM
  6
CONTINUOUS
 62
8
 10
1.1441280195576
 20
9.8631215535151
 11
1.8585990195576
 21
9.4506215535151
  0
LINE
  8
LM
  6
CONTINUOUS
 62
8
 10
1.1441280195576
 20
9.8631215535151
 11
1.1441280195576
 21
10.028121553515
  0
LINE
  8
LM
  6
CONTINUOUS
 62
8
 10
1.1441280195576
 20
10.028121553515
 11
1.8585990195576
 21
9.6156215535151
  0
LINE
  8
LM
  6
CONTINUOUS
 62
8
 10
0.75736496050247
 20
9.8918917376297
 11
0.75736496050247
 21
10.05689173763
  0
LINE
  8
LM
  6
CONTINUOUS
 62
8
 10
0.71212329118469
 20
10.083012026058
 11
0.75736496050247
 21
10.05689173763
  0
LINE
  8
LM
  6
CONTINUOUS
 62
8
 10
0.71212329118469
 20
9.9180120260579
 11
0.75736496050247
 21
9.8918917376297
  0
LINE
  8
LM
  6
CONTINUOUS
 62
8
 10
1.5013635195576
 20
9.46234399446
 11
1.5013635195576
 21
9.62734399446
  0
LINE
  8
LM
  6
CONTINUOUS
 62
8
 10
0.78689251955759
 20
10.03984399446
 11
1.5013635195576
 21
9.62734399446
  0
LINE
  8
LM
  6
CONTINUOUS
 62
8
 10
0.75736496050247
 20
9.8918917376297
 11
0.75736496050247
 21
10.05689173763
  0
LINE
  8
LM
  6
CONTINUOUS
 62
8
 10
0.78689251955759
 20
9.87484399446
 11
1.5013635195576
 21
9.46234399446
  0
LINE
  8
LM
  6
CONTINUOUS
 62
8
 10
1.5308910786127
 20
9.4452962512902
 11
1.6457920166227
 21
9.3789581676883
  0
LINE
  8
LM
  6
CONTINUOUS
 62
8
 10
1.5308910786127
 20
9.4452962512902
 11
1.5308910786127
 21
9.6102962512902
  0
LINE
  8
LM
  6
CONTINUOUS
 62
8
 10
1.5308910786127
 20
9.6102962512902
 11
1.9315804166227
 21
9.3789581676883
  0
LINE
  8
LM
  6
CONTINUOUS
 62
8
 10
1.1441280195576
 20
9.4740664354049
 11
1.1441280195576
 21
9.6390664354049
  0
LINE
  8
LM
  6
CONTINUOUS
 62
8
 10
0.71212329118469
 20
9.8884844670028
 11
1.1146004605025
 21
9.6561141785746
  0
LINE
  8
LM
  6
CONTINUOUS
 62
8
 10
0.71212329118469
 20
9.7234844670028
 11
1.1146004605025
 21
9.4911141785746
  0
LINE
  8
LM
  6
CONTINUOUS
 62
8
 10
1.1441280195576
 20
9.6390664354049
 11
1.5946487811181
 21
9.3789581676883
  0
LINE
  8
LM
  6
CONTINUOUS
 62
8
 10
1.1146004605025
 20
9.4911141785746
 11
1.1146004605025
 21
9.6561141785746
  0
LINE
  8
LM
  6
CONTINUOUS
 62
8
 10
1.1441280195576
 20
9.4740664354049
 11
1.3088603811181
 21
9.3789581676883
  0
LINE
  8
LM
  6
CONTINUOUS
 62
8
 10
0.78689251955759
 20
9.6507888763497
 11
1.2577171456134
 21
9.3789581676883
  0
LINE
  8
LM
  6
CONTINUOUS
 62
8
 10
0.78689251955759
 20
9.4857888763497
 11
0.97192874561343
 21
9.3789581676883
  0
LINE
  8
LM
  6
CONTINUOUS
 62
8
 10
0.71212329118469
 20
9.6939569079477
 11
0.75736496050247
 21
9.6678366195195
  0
LINE
  8
LM
  6
CONTINUOUS
 62
8
 10
0.71212329118469
 20
9.5289569079477
 11
0.75736496050247
 21
9.5028366195195
  0
LINE
  8
LM
  6
CONTINUOUS
 62
8
 10
0.75736496050247
 20
9.5028366195195
 11
0.75736496050247
 21
9.6678366195195
  0
LINE
  8
LM
  6
CONTINUOUS
 62
8
 10
0.71212329118469
 20
9.4994293488926
 11
0.92078551010878
 21
9.3789581676883
  0
LINE
  8
LM
  6
CONTINUOUS
 62
8
 10
1.5308910786127
 20
9.8343513694005
 11
1.5308910786127
 21
9.9993513694005
  0
LINE
  8
LM
  6
CONTINUOUS
 62
8
 10
1.5308910786127
 20
9.8343513694005
 11
2.2453620786127
 21
9.4218513694005
  0
LINE
  8
LM
  6
CONTINUOUS
 62
8
 10
1.5308910786127
 20
9.9993513694005
 11
2.2453620786127
 21
9.5868513694005
  0
LINE
  8
LM
  6
CONTINUOUS
 62
8
 10
2.2453620786127
 20
9.4218513694005
 11
2.2453620786127
 21
9.5868513694005
  0
LINE
  8
LM
  6
CONTINUOUS
 62
8
 10
1.8881265786127
 20
9.4335738103453
 11
1.8881265786127
 21
9.5985738103453
  0
LINE
  8
LM
  6
CONTINUOUS
 62
8
 10
1.8881265786127
 20
9.4335738103453
 11
1.9827236521274
 21
9.3789581676883
  0
LINE
  8
LM
  6
CONTINUOUS
 62
8
 10
1.8881265786127
 20
9.5985738103453
 11
2.2685120521274
 21
9.3789581676883
  0
LINE
  8
LM
  6
CONTINUOUS
 62
8
 10
2.2748896376678
 20
9.4048036262307
 11
2.2748896376678
 21
9.5698036262307
  0
LINE
  8
LM
  6
CONTINUOUS
 62
8
 10
2.2748896376678
 20
9.4048036262307
 11
2.286926440791
 21
9.3978541751147
  0
LINE
  8
LM
  6
CONTINUOUS
 62
8
 10
2.2748896376678
 20
9.5698036262307
 11
2.286926440791
 21
9.5628541751147
  0
LINE
  8
LM
  6
CONTINUOUS
 62
8
 10
1.8881265786127
 20
10.2056013694
 11
2.286926440791
 21
9.9753541751147
  0
LINE
  8
LM
  6
CONTINUOUS
 62
8
 10
1.5013635195576
 20
10.01639911257
 11
1.8585990195576
 21
10.22264911257
  0
LINE
  8
LM
  6
CONTINUOUS
 62
8
 10
1.5308910786127
 20
9.9993513694005
 11
1.8881265786127
 21
10.2056013694
  0
LINE
  8
LM
  6
CONTINUOUS
 62
8
 10
2.2453620786127
 20
9.5868513694005
 11
2.286926440791
 21
9.6108485636862
  0
LINE
  8
LM
  6
CONTINUOUS
 62
8
 10
2.2748896376678
 20
9.5698036262307
 11
2.286926440791
 21
9.5767530773467
  0
LINE
  8
LM
  6
CONTINUOUS
 62
8
 10
1.5013635195576
 20
10.01639911257
 11
1.5308910786127
 21
9.9993513694005
  0
LINE
  8
LM
  6
CONTINUOUS
 62
8
 10
1.8881265786127
 20
10.2056013694
 11
1.8585990195576
 21
10.22264911257
  0
LINE
  8
LM
  6
CONTINUOUS
 62
8
 10
2.2453620786127
 20
9.5868513694005
 11
2.2748896376678
 21
9.5698036262307
  0
ENDSEC
  0
EOF
