  0
SECTION
  2
HEADER
  9
$EXTMIN
 10
0.99473377106363
 20
9.3789581676883
  9
$EXTMAX
 10
2.5695369206699
 20
10.953761317295
  9
$LIMMIN
 10
0
 20
0
  9
$LIMMAX
 10
8.2677165354331
 20
11.692913385827
  0
ENDSEC
  0
SECTION
  2
TABLES
  0
TABLE
  2
LTYPE
 70
9
  0
LTYPE
  2
CONTINUOUS
  3
___________________________
 70
64
 72
65
 73
0
 40
0
  0
LTYPE
  2
HIDDEN
  3
_ _ _ _ _ _ _ _ _ _ _ _ _ _ 
 70
64
 72
65
 73
2
 49
0.25
 49
-0.125
 40
0.375
  0
LTYPE
  2
DASHED
  3
__ __ __ __ __ __ __ __ __ 
 70
64
 72
65
 73
2
 49
0.5
 49
-0.25
 40
0.75
  0
LTYPE
  2
CENTER
  3
____ _ ____ _ ____ _ ____ _ 
 70
64
 72
65
 73
4
 49
1.25
 49
-0.25
 49
0.25
 49
-0.25
 40
2
  0
LTYPE
  2
PHANTOM
  3
_____ _ _ _____ _ _ _____ _ _ 
 70
64
 72
65
 73
6
 49
1.25
 49
-0.25
 49
0.25
 49
-0.25
 49
0.25
 49
-0.25
 40
2.5
  0
LTYPE
  2
DOT
  3
...........................
 70
64
 72
65
 73
2
 49
0
 49
-0.25
 40
0.25
  0
LTYPE
  2
DASHDOT
  3
__ . __ . __ . __ . __ . __ . 
 70
64
 72
65
 73
4
 49
0.5
 49
-0.25
 49
0
 49
-0.25
 40
1
  0
LTYPE
  2
DIVIDE
  3
__ . . __ . . __ . . __ . . 
 70
64
 72
65
 73
6
 49
0.5
 49
-0.25
 49
0
 49
-0.25
 49
0
 49
-0.25
 40
1.25
  0
LTYPE
  2
BORDER
  3
__ __ . __ __ . __ __ . __ __ . 
 70
64
 72
65
 73
6
 49
0.5
 49
-0.25
 49
0.5
 49
-0.25
 49
0
 49
-0.25
 40
1.75
  0
ENDTAB
  0
TABLE
  2
LAYER
 70
1
  0
LAYER
  2
LHS
 62
7
  6
CONTINUOUS
 70
0
  0
ENDTAB
  0
TABLE
  2
STYLE
 70
5
  0
STYLE
  2
ptmarker
 70
1
 40
0
 50
0
 71
0
 41
0
 42
0
  3
ptmarks
  0
STYLE
  2
TXT
 70
0
 40
0
 50
0
 71
0
 41
0
 42
0
  3
TXT
  0
STYLE
  2
ITALIC
 70
0
 40
0
 50
0
 71
0
 41
0
 42
0
  3
ITALIC
  0
STYLE
  2
SIMPLEX
 70
0
 40
0
 50
0
 71
0
 41
0
 42
0
  3
SIMPLEX
  0
STYLE
  2
COMPLEX
 70
0
 40
0
 50
0
 71
0
 41
0
 42
0
  3
COMPLEX
  0
ENDTAB
  0
ENDSEC
  0
SECTION
  2
BLOCKS
  0
ENDSEC
  0
SECTION
  2
ENTITIES
  0
LINE
  8
LHS
  6
CONTINUOUS
 62
8
 10
2.5695369206699
 20
9.3789581676883
 11
0.99473377106363
 21
9.3789581676883
  0
LINE
  8
LHS
  6
CONTINUOUS
 62
8
 10
2.5695369206699
 20
10.953761317295
 11
2.5695369206699
 21
9.3789581676883
  0
LINE
  8
LHS
  6
CONTINUOUS
 62
8
 10
0.99473377106363
 20
10.953761317295
 11
2.5695369206699
 21
10.953761317295
  0
LINE
  8
LHS
  6
CONTINUOUS
 62
8
 10
0.99473377106363
 20
9.3789581676883
 11
0.99473377106363
 21
10.953761317295
  0
LINE
  8
LHS
  6
CONTINUOUS
 62
8
 10
1.4715793977383
 20
9.5511126753761
 11
1.7697596127789
 21
9.3789581676883
  0
LINE
  8
LHS
  6
CONTINUOUS
 62
8
 10
1.4715793977383
 20
9.3789581676883
 11
1.4715793977383
 21
9.5511126753761
  0
LINE
  8
LHS
  6
CONTINUOUS
 62
8
 10
1.0848165261832
 20
9.8085059198058
 11
1.0848165261832
 21
10.255873999659
  0
LINE
  8
LHS
  6
CONTINUOUS
 62
8
 10
0.99473377106364
 20
10.307883326826
 11
1.0848165261832
 21
10.255873999659
  0
LINE
  8
LHS
  6
CONTINUOUS
 62
8
 10
0.99473377106363
 20
9.8605152469728
 11
1.0848165261832
 21
9.8085059198058
  0
LINE
  8
LHS
  6
CONTINUOUS
 62
8
 10
1.6044081477383
 20
10.109264849362
 11
1.9616434602383
 21
9.9030149576147
  0
LINE
  8
LHS
  6
CONTINUOUS
 62
8
 10
1.6044081477383
 20
10.143360449927
 11
1.6044081477383
 21
10.109264849362
  0
LINE
  8
LHS
  6
CONTINUOUS
 62
8
 10
1.4715793977383
 20
10.032576139288
 11
1.6044081477383
 21
10.109264849362
  0
LINE
  8
LHS
  6
CONTINUOUS
 62
8
 10
1.1143440852383
 20
9.7914581676883
 11
1.1143440852383
 21
10.238826247541
  0
LINE
  8
LHS
  6
CONTINUOUS
 62
8
 10
1.1143440852383
 20
9.7914581676883
 11
1.8288147102383
 21
9.3789581676883
  0
LINE
  8
LHS
  6
CONTINUOUS
 62
8
 10
1.1143440852383
 20
10.238826247541
 11
1.8288147102383
 21
9.8263262475411
  0
LINE
  8
LHS
  6
CONTINUOUS
 62
8
 10
1.4715793977383
 20
10.032576247541
 11
1.4715793977383
 21
10.066671739853
  0
LINE
  8
LHS
  6
CONTINUOUS
 62
8
 10
1.8288147102383
 20
9.8263262475411
 11
1.9616434602383
 21
9.9030149576147
  0
LINE
  8
LHS
  6
CONTINUOUS
 62
8
 10
1.8288147102383
 20
9.3789581676883
 11
1.8288147102383
 21
9.8263262475411
  0
LINE
  8
LHS
  6
CONTINUOUS
 62
8
 10
1.8288147102383
 20
9.3789581676883
 11
1.8288147102383
 21
9.8263262475411
  0
LINE
  8
LHS
  6
CONTINUOUS
 62
8
 10
1.4420518386832
 20
9.3789581676883
 11
1.4420518386832
 21
9.5681604274936
  0
LINE
  8
LHS
  6
CONTINUOUS
 62
8
 10
0.99473377106364
 20
9.8264197546606
 11
1.4420518386832
 21
9.5681604274936
  0
LINE
  8
LHS
  6
CONTINUOUS
 62
8
 10
1.4715793977383
 20
10.066671739853
 11
1.4715793977383
 21
10.514039819706
  0
LINE
  8
LHS
  6
CONTINUOUS
 62
8
 10
0.99473377106363
 20
10.341978819138
 11
1.4715793977383
 21
10.066671739853
  0
LINE
  8
LHS
  6
CONTINUOUS
 62
8
 10
0.99473377106364
 20
10.789346898991
 11
1.4715793977383
 21
10.514039819706
  0
LINE
  8
LHS
  6
CONTINUOUS
 62
8
 10
1.4922043977383
 20
10.102394989853
 11
1.4922043977383
 21
10.219763614853
  0
LINE
  8
LHS
  6
CONTINUOUS
 62
8
 10
1.4922043977383
 20
10.219763614853
 11
1.5837831477383
 21
10.272636739853
  0
LINE
  8
LHS
  6
CONTINUOUS
 62
8
 10
1.5837831477383
 20
10.155268114853
 11
1.4922043977383
 21
10.208141239853
  0
LINE
  8
LHS
  6
CONTINUOUS
 62
8
 10
1.4922043977383
 20
10.102394989853
 11
1.5837831477383
 21
10.155268114853
  0
LINE
  8
LHS
  6
CONTINUOUS
 62
8
 10
1.4715793977383
 20
10.066671739853
 11
1.6044081477383
 21
10.143360449927
  0
LINE
  8
LHS
  6
CONTINUOUS
 62
8
 10
1.4922043977383
 20
10.24357902978
 11
1.5837823977383
 21
10.29645177978
  0
LINE
  8
LHS
  6
CONTINUOUS
 62
8
 10
1.4922043977383
 20
10.24357902978
 11
1.4922043977383
 21
10.36094765478
  0
LINE
  8
LHS
  6
CONTINUOUS
 62
8
 10
1.5837823977383
 20
10.29645177978
 11
1.4922043977383
 21
10.34932490478
  0
LINE
  8
LHS
  6
CONTINUOUS
 62
8
 10
1.4922043977383
 20
10.36094765478
 11
1.5837823977383
 21
10.41382040478
  0
LINE
  8
LHS
  6
CONTINUOUS
 62
8
 10
1.5837823977383
 20
10.29645177978
 11
1.5837823977383
 21
10.41382040478
  0
LINE
  8
LHS
  6
CONTINUOUS
 62
8
 10
1.4922043977383
 20
10.384763069706
 11
1.5837823977383
 21
10.437635819706
  0
LINE
  8
LHS
  6
CONTINUOUS
 62
8
 10
1.5837823977383
 20
10.437635819706
 11
1.4922043977383
 21
10.490508944706
  0
LINE
  8
LHS
  6
CONTINUOUS
 62
8
 10
1.5837823977383
 20
10.437635819706
 11
1.5837823977383
 21
10.555004444706
  0
LINE
  8
LHS
  6
CONTINUOUS
 62
8
 10
1.4922043977383
 20
10.384763069706
 11
1.4922043977383
 21
10.502131694706
  0
LINE
  8
LHS
  6
CONTINUOUS
 62
8
 10
1.4922043977383
 20
10.502131694706
 11
1.5837823977383
 21
10.555004444706
  0
LINE
  8
LHS
  6
CONTINUOUS
 62
8
 10
1.4715793977383
 20
10.514039819706
 11
1.6044081477383
 21
10.59072852978
  0
LINE
  8
LHS
  6
CONTINUOUS
 62
8
 10
0.99473377106363
 20
10.942724174639
 11
1.6044081477383
 21
10.59072852978
  0
LINE
  8
LHS
  6
CONTINUOUS
 62
8
 10
1.5837831477383
 20
10.155268114853
 11
1.5837831477383
 21
10.272636739853
  0
LINE
  8
LHS
  6
CONTINUOUS
 62
8
 10
1.6044081477383
 20
10.143360449927
 11
1.6044081477383
 21
10.59072852978
  0
LINE
  8
LHS
  6
CONTINUOUS
 62
8
 10
1.8583422692934
 20
9.3789581676883
 11
1.8583422692934
 21
9.8092784954236
  0
LINE
  8
LHS
  6
CONTINUOUS
 62
8
 10
1.8583422692934
 20
9.8092784954236
 11
2.5695369206699
 21
9.3986698805588
  0
LINE
  8
LHS
  6
CONTINUOUS
 62
8
 10
1.9911710192934
 20
9.8859672054972
 11
2.5695369206699
 21
9.5520473409572
  0
LINE
  8
LHS
  6
CONTINUOUS
 62
8
 10
1.8583422692934
 20
9.8092784954236
 11
1.9911710192934
 21
9.8859672054972
  0
LINE
  8
LHS
  6
CONTINUOUS
 62
8
 10
1.8288147102383
 20
9.8263262475411
 11
1.8583422692934
 21
9.8092784954236
  0
LINE
  8
LHS
  6
CONTINUOUS
 62
8
 10
1.9616434602383
 20
9.9030149576147
 11
1.9911710192934
 21
9.8859672054972
  0
ENDSEC
  0
EOF
