  0
SECTION
  2
HEADER
  9
$EXTMIN
 10
3.1155119431122
 20
8.7306192721024
  9
$EXTMAX
 10
4.6903150927185
 20
10.305422421709
  9
$LIMMIN
 10
0
 20
0
  9
$LIMMAX
 10
8.27
 20
11.69
  0
ENDSEC
  0
SECTION
  2
TABLES
  0
TABLE
  2
LTYPE
 70
9
  0
LTYPE
  2
CONTINUOUS
  3
___________________________
 70
64
 72
65
 73
0
 40
0
  0
LTYPE
  2
HIDDEN
  3
_ _ _ _ _ _ _ _ _ _ _ _ _ _ 
 70
64
 72
65
 73
2
 49
0.25
 49
-0.125
 40
0.375
  0
LTYPE
  2
DASHED
  3
__ __ __ __ __ __ __ __ __ 
 70
64
 72
65
 73
2
 49
0.5
 49
-0.25
 40
0.75
  0
LTYPE
  2
CENTER
  3
____ _ ____ _ ____ _ ____ _ 
 70
64
 72
65
 73
4
 49
1.25
 49
-0.25
 49
0.25
 49
-0.25
 40
2
  0
LTYPE
  2
PHANTOM
  3
_____ _ _ _____ _ _ _____ _ _ 
 70
64
 72
65
 73
6
 49
1.25
 49
-0.25
 49
0.25
 49
-0.25
 49
0.25
 49
-0.25
 40
2.5
  0
LTYPE
  2
DOT
  3
...........................
 70
64
 72
65
 73
2
 49
0
 49
-0.25
 40
0.25
  0
LTYPE
  2
DASHDOT
  3
__ . __ . __ . __ . __ . __ . 
 70
64
 72
65
 73
4
 49
0.5
 49
-0.25
 49
0
 49
-0.25
 40
1
  0
LTYPE
  2
DIVIDE
  3
__ . . __ . . __ . . __ . . 
 70
64
 72
65
 73
6
 49
0.5
 49
-0.25
 49
0
 49
-0.25
 49
0
 49
-0.25
 40
1.25
  0
LTYPE
  2
BORDER
  3
__ __ . __ __ . __ __ . __ __ . 
 70
64
 72
65
 73
6
 49
0.5
 49
-0.25
 49
0.5
 49
-0.25
 49
0
 49
-0.25
 40
1.75
  0
ENDTAB
  0
TABLE
  2
LAYER
 70
1
  0
LAYER
  2
ECPE.1
 62
7
  6
CONTINUOUS
 70
0
  0
ENDTAB
  0
TABLE
  2
STYLE
 70
5
  0
STYLE
  2
ptmarker
 70
1
 40
0
 50
0
 71
0
 41
0
 42
0
  3
ptmarks
  0
STYLE
  2
TXT
 70
0
 40
0
 50
0
 71
0
 41
0
 42
0
  3
TXT
  0
STYLE
  2
ITALIC
 70
0
 40
0
 50
0
 71
0
 41
0
 42
0
  3
ITALIC
  0
STYLE
  2
SIMPLEX
 70
0
 40
0
 50
0
 71
0
 41
0
 42
0
  3
SIMPLEX
  0
STYLE
  2
COMPLEX
 70
0
 40
0
 50
0
 71
0
 41
0
 42
0
  3
COMPLEX
  0
ENDTAB
  0
ENDSEC
  0
SECTION
  2
BLOCKS
  0
ENDSEC
  0
SECTION
  2
ENTITIES
  0
LINE
  8
ECPE.1
  6
CONTINUOUS
 62
8
 10
3.7589202914099
 20
9.0055890397131
 11
3.8185142240049
 21
8.9963698262565
  0
LINE
  8
ECPE.1
  6
CONTINUOUS
 62
8
 10
3.8799495819228
 20
8.9930979618586
 11
3.9414589817714
 21
8.9958675721011
  0
LINE
  8
ECPE.1
  6
CONTINUOUS
 62
8
 10
3.7028821930761
 20
9.0204903822426
 11
3.7589202914099
 21
9.0055890397131
  0
LINE
  8
ECPE.1
  6
CONTINUOUS
 62
8
 10
4.0576706291139
 20
9.0190409998572
 11
4.1090296790999
 21
9.038778160046
  0
LINE
  8
ECPE.1
  6
CONTINUOUS
 62
8
 10
3.8185142240049
 20
8.7837714010596
 11
3.8799495819228
 21
8.7804995366618
  0
LINE
  8
ECPE.1
  6
CONTINUOUS
 62
8
 10
3.6520120430642
 20
8.8280467441545
 11
3.7028821930761
 21
8.8078919570458
  0
LINE
  8
ECPE.1
  6
CONTINUOUS
 62
8
 10
3.6077732829712
 20
8.852875159313
 11
3.6520120430642
 21
8.8280467441545
  0
LINE
  8
ECPE.1
  6
CONTINUOUS
 62
8
 10
4.1538725537058
 20
8.8506442335463
 11
4.1909092050744
 21
8.8791322716665
  0
LINE
  8
ECPE.1
  6
CONTINUOUS
 62
8
 10
3.9414589817714
 20
8.7832691469042
 11
4.0012729101069
 21
8.792000555143
  0
LINE
  8
ECPE.1
  6
CONTINUOUS
 62
8
 10
4.1909092050744
 20
9.0917306968633
 11
4.2190741561784
 21
9.123422725418
  0
LINE
  8
ECPE.1
  6
CONTINUOUS
 62
8
 10
4.1538725537058
 20
9.0632426587431
 11
4.1909092050744
 21
9.0917306968633
  0
LINE
  8
ECPE.1
  6
CONTINUOUS
 62
8
 10
4.1090296790999
 20
9.038778160046
 11
4.1538725537058
 21
9.0632426587431
  0
LINE
  8
ECPE.1
  6
CONTINUOUS
 62
8
 10
4.0012729101069
 20
9.0045989803399
 11
4.0576706291139
 21
9.0190409998572
  0
LINE
  8
ECPE.1
  6
CONTINUOUS
 62
8
 10
3.6077732829712
 20
9.0654735845098
 11
3.6520120430642
 21
9.0406451693513
  0
LINE
  8
ECPE.1
  6
CONTINUOUS
 62
8
 10
3.5440532214995
 20
9.1261803222084
 11
3.5714385813795
 21
9.094261359419
  0
LINE
  8
ECPE.1
  6
CONTINUOUS
 62
8
 10
4.1909092050744
 20
8.8791322716665
 11
4.2190741561784
 21
8.9108243002211
  0
LINE
  8
ECPE.1
  6
CONTINUOUS
 62
8
 10
4.1090296790999
 20
8.8261797348492
 11
4.1538725537058
 21
8.8506442335463
  0
LINE
  8
ECPE.1
  6
CONTINUOUS
 62
8
 10
3.5440532214995
 20
8.9135818970116
 11
3.5714385813795
 21
8.8816629342221
  0
LINE
  8
ECPE.1
  6
CONTINUOUS
 62
8
 10
3.5264050302746
 20
8.9477137972365
 11
3.5440532214995
 21
8.9135818970116
  0
LINE
  8
ECPE.1
  6
HIDDEN
 62
8
 10
4.2040243257339
 20
10.305422421709
 11
4.2040243257339
 21
9.9190552236768
  0
LINE
  8
ECPE.1
  6
HIDDEN
 62
8
 10
3.8749517200058
 20
10.305422421709
 11
3.8749517200058
 21
9.7290650661768
  0
LINE
  8
ECPE.1
  6
HIDDEN
 62
8
 10
3.5458791142778
 20
10.305422421709
 11
3.5458791142778
 21
9.9190552236768
  0
LINE
  8
ECPE.1
  6
CONTINUOUS
 62
8
 10
3.8632326101152
 20
9.5694769424268
 11
4.4804390643534
 21
9.9258212549268
  0
LINE
  8
ECPE.1
  6
CONTINUOUS
 62
8
 10
3.2694643756582
 20
9.9122891924268
 11
3.8632326101152
 21
9.5694769424268
  0
LINE
  8
ECPE.1
  6
CONTINUOUS
 62
8
 10
3.8632326101152
 20
9.5694769424268
 11
3.8632326101152
 21
9.0528627691985
  0
LINE
  8
ECPE.1
  6
CONTINUOUS
 62
8
 10
3.8632326101152
 20
9.0528627691985
 11
4.4804390643534
 21
9.4092070816985
  0
LINE
  8
ECPE.1
  6
CONTINUOUS
 62
8
 10
3.2694643756582
 20
9.3956750191985
 11
3.8632326101152
 21
9.0528627691985
  0
LINE
  8
ECPE.1
  6
CONTINUOUS
 62
8
 10
3.2694643756582
 20
9.9122891924268
 11
3.2694643756582
 21
9.3956750191985
  0
LINE
  8
ECPE.1
  6
CONTINUOUS
 62
8
 10
4.4804390643534
 20
9.9258212549268
 11
4.4804390643534
 21
9.4092070816985
  0
LINE
  8
ECPE.1
  6
CONTINUOUS
 62
8
 10
3.2694643756582
 20
9.9122891924268
 11
3.8866708298964
 21
10.268633504927
  0
LINE
  8
ECPE.1
  6
CONTINUOUS
 62
8
 10
3.8866708298964
 20
10.268633504927
 11
4.4804390643534
 21
9.9258212549268
  0
LINE
  8
ECPE.1
  6
HIDDEN
 62
8
 10
3.8749517200058
 20
9.7290650661768
 11
4.2040243257339
 21
9.9190552236768
  0
LINE
  8
ECPE.1
  6
HIDDEN
 62
8
 10
3.5458791142778
 20
9.9190552236768
 11
3.8749517200058
 21
10.109045381177
  0
LINE
  8
ECPE.1
  6
HIDDEN
 62
8
 10
3.5458791142778
 20
9.9190552236768
 11
3.8749517200058
 21
9.7290650661768
  0
LINE
  8
ECPE.1
  6
HIDDEN
 62
8
 10
3.8749517200058
 20
10.109045381177
 11
4.2040243257339
 21
9.9190552236768
  0
LINE
  8
ECPE.1
  6
CONTINUOUS
 62
8
 10
4.6903150927185
 20
10.305422421709
 11
3.1155119431122
 21
10.305422421709
  0
LINE
  8
ECPE.1
  6
CONTINUOUS
 62
8
 10
4.6903150927185
 20
8.7306192721024
 11
4.6903150927185
 21
10.305422421709
  0
LINE
  8
ECPE.1
  6
CONTINUOUS
 62
8
 10
3.1155119431122
 20
8.7306192721024
 11
4.6903150927185
 21
8.7306192721024
  0
LINE
  8
ECPE.1
  6
CONTINUOUS
 62
8
 10
3.1155119431122
 20
10.305422421709
 11
3.1155119431122
 21
8.7306192721024
  0
LINE
  8
ECPE.1
  6
CONTINUOUS
 62
8
 10
3.5235403218966
 20
9.2452912854029
 11
3.5200665827119
 21
9.1991414404193
  0
LINE
  8
ECPE.1
  6
CONTINUOUS
 62
8
 10
3.5200665827119
 20
9.1991414404193
 11
3.5200665827119
 21
9.1577518455011
  0
LINE
  8
ECPE.1
  6
CONTINUOUS
 62
8
 10
3.5200665827119
 20
9.1577518455011
 11
3.529618027693
 21
9.1386489555388
  0
LINE
  8
ECPE.1
  6
CONTINUOUS
 62
8
 10
3.529618027693
 20
9.1386489555388
 11
3.5391694726741
 21
9.1195460655766
  0
LINE
  8
ECPE.1
  6
CONTINUOUS
 62
8
 10
3.5391694726741
 20
9.1195460655766
 11
3.5487209176553
 21
9.103626990608
  0
LINE
  8
ECPE.1
  6
CONTINUOUS
 62
8
 10
3.5487209176553
 20
9.103626990608
 11
3.551904732649
 21
9.0845241006458
  0
LINE
  8
ECPE.1
  6
CONTINUOUS
 62
8
 10
3.551904732649
 20
9.0845241006458
 11
3.5455371026615
 21
9.0686050256772
  0
LINE
  8
ECPE.1
  6
CONTINUOUS
 62
8
 10
3.5455371026615
 20
9.0686050256772
 11
3.5359856576804
 21
9.049502135715
  0
LINE
  8
ECPE.1
  6
CONTINUOUS
 62
8
 10
3.5359856576804
 20
9.049502135715
 11
3.5264342126993
 21
9.0335830607464
  0
LINE
  8
ECPE.1
  6
CONTINUOUS
 62
8
 10
3.5264342126993
 20
9.0335830607464
 11
3.5168827677182
 21
9.0176639857779
  0
LINE
  8
ECPE.1
  6
CONTINUOUS
 62
8
 10
3.5168827677182
 20
9.0176639857779
 11
3.5168827677182
 21
8.9985610958156
  0
LINE
  8
ECPE.1
  6
CONTINUOUS
 62
8
 10
3.5168827677182
 20
8.9985610958156
 11
3.5168827677182
 21
8.9826420208471
  0
LINE
  8
ECPE.1
  6
CONTINUOUS
 62
8
 10
3.5168827677182
 20
8.9826420208471
 11
3.5200665827119
 21
8.9476200559163
  0
LINE
  8
ECPE.1
  6
CONTINUOUS
 62
8
 10
3.5200665827119
 20
8.9476200559163
 11
3.5264342126993
 21
8.8934952010232
  0
LINE
  8
ECPE.1
  6
CONTINUOUS
 62
8
 10
3.5264342126993
 20
8.8934952010232
 11
3.529618027693
 21
8.8393703461302
  0
LINE
  8
ECPE.1
  6
CONTINUOUS
 62
8
 10
3.529618027693
 20
8.8393703461302
 11
3.5264342126993
 21
8.8202674561679
  0
LINE
  8
ECPE.1
  6
CONTINUOUS
 62
8
 10
3.5264342126993
 20
8.8202674561679
 11
3.5232503977056
 21
8.8043483811994
  0
LINE
  8
ECPE.1
  6
CONTINUOUS
 62
8
 10
3.5232503977056
 20
8.8043483811994
 11
3.5136989527245
 21
8.7693264162686
  0
LINE
  8
ECPE.1
  6
CONTINUOUS
 62
8
 10
3.5136989527245
 20
8.7693264162686
 11
3.5200665827119
 21
8.7502235263064
  0
LINE
  8
ECPE.1
  6
CONTINUOUS
 62
8
 10
3.5200665827119
 20
8.7502235263064
 11
3.5264342126993
 21
8.7343044513378
  0
LINE
  8
ECPE.1
  6
CONTINUOUS
 62
8
 10
3.5264342126993
 20
8.7343044513378
 11
3.5277742778758
 21
8.7306192721024
  0
LINE
  8
ECPE.1
  6
CONTINUOUS
 62
8
 10
4.2310731809279
 20
9.2631769809847
 11
4.2396087712901
 21
9.2437148503312
  0
LINE
  8
ECPE.1
  6
CONTINUOUS
 62
8
 10
4.2396087712901
 20
9.2437148503312
 11
4.2427925862838
 21
9.2277957753627
  0
LINE
  8
ECPE.1
  6
CONTINUOUS
 62
8
 10
4.2427925862838
 20
9.2277957753627
 11
4.2427925862838
 21
9.1895899954382
  0
LINE
  8
ECPE.1
  6
CONTINUOUS
 62
8
 10
4.2427925862838
 20
9.1895899954382
 11
4.2364249562964
 21
9.1545680305074
  0
LINE
  8
ECPE.1
  6
CONTINUOUS
 62
8
 10
4.2364249562964
 20
9.1545680305074
 11
4.2268735113152
 21
9.1354651405451
  0
LINE
  8
ECPE.1
  6
CONTINUOUS
 62
8
 10
4.2268735113152
 20
9.1354651405451
 11
4.2205058813278
 21
9.1163622505829
  0
LINE
  8
ECPE.1
  6
CONTINUOUS
 62
8
 10
4.2205058813278
 20
9.1163622505829
 11
4.2109544363467
 21
9.1004431756143
  0
LINE
  8
ECPE.1
  6
CONTINUOUS
 62
8
 10
4.2109544363467
 20
9.1004431756143
 11
4.207770621353
 21
9.0813402856521
  0
LINE
  8
ECPE.1
  6
CONTINUOUS
 62
8
 10
4.207770621353
 20
9.0813402856521
 11
4.2141382513404
 21
9.0654212106835
  0
LINE
  8
ECPE.1
  6
CONTINUOUS
 62
8
 10
4.2141382513404
 20
9.0654212106835
 11
4.2236896963215
 21
9.0463183207213
  0
LINE
  8
ECPE.1
  6
CONTINUOUS
 62
8
 10
4.2236896963215
 20
9.0463183207213
 11
4.2364249562964
 21
9.0303992457527
  0
LINE
  8
ECPE.1
  6
CONTINUOUS
 62
8
 10
4.2364249562964
 20
9.0303992457527
 11
4.2427925862838
 21
9.0144801707842
  0
LINE
  8
ECPE.1
  6
CONTINUOUS
 62
8
 10
4.2427925862838
 20
9.0144801707842
 11
4.2427925862838
 21
8.9794582058534
  0
LINE
  8
ECPE.1
  6
CONTINUOUS
 62
8
 10
4.2427925862838
 20
8.9794582058534
 11
4.2364249562964
 21
8.9444362409226
  0
LINE
  8
ECPE.1
  6
CONTINUOUS
 62
8
 10
4.2364249562964
 20
8.9444362409226
 11
4.2268735113152
 21
8.9253333509603
  0
LINE
  8
ECPE.1
  6
CONTINUOUS
 62
8
 10
4.2268735113152
 20
8.9253333509603
 11
4.2173220663341
 21
8.9094142759918
  0
LINE
  8
ECPE.1
  6
CONTINUOUS
 62
8
 10
4.2173220663341
 20
8.9094142759918
 11
4.2109544363467
 21
8.8871275710358
  0
LINE
  8
ECPE.1
  6
CONTINUOUS
 62
8
 10
4.2109544363467
 20
8.8871275710358
 11
4.207770621353
 21
8.8680246810736
  0
LINE
  8
ECPE.1
  6
CONTINUOUS
 62
8
 10
4.207770621353
 20
8.8680246810736
 11
4.2173220663341
 21
8.852105606105
  0
LINE
  8
ECPE.1
  6
CONTINUOUS
 62
8
 10
4.2173220663341
 20
8.852105606105
 11
4.2268735113152
 21
8.8330027161428
  0
LINE
  8
ECPE.1
  6
CONTINUOUS
 62
8
 10
4.2268735113152
 20
8.8330027161428
 11
4.2427925862838
 21
8.8011645662057
  0
LINE
  8
ECPE.1
  6
CONTINUOUS
 62
8
 10
4.2427925862838
 20
8.8011645662057
 11
4.2427925862838
 21
8.7661426012749
  0
LINE
  8
ECPE.1
  6
CONTINUOUS
 62
8
 10
4.2427925862838
 20
8.7661426012749
 11
4.2363337991615
 21
8.7306192721024
  0
LINE
  8
ECPE.1
  6
CONTINUOUS
 62
8
 10
4.2350101888019
 20
9.2631769809847
 11
4.2427925862838
 21
9.2437148503312
  0
LINE
  8
ECPE.1
  6
CONTINUOUS
 62
8
 10
4.2427925862838
 20
9.2437148503312
 11
4.2459764012775
 21
9.2277957753627
  0
LINE
  8
ECPE.1
  6
CONTINUOUS
 62
8
 10
4.2459764012775
 20
9.2277957753627
 11
4.2459764012775
 21
9.1895899954382
  0
LINE
  8
ECPE.1
  6
CONTINUOUS
 62
8
 10
4.2459764012775
 20
9.1895899954382
 11
4.2396087712901
 21
9.1545680305074
  0
LINE
  8
ECPE.1
  6
CONTINUOUS
 62
8
 10
4.2396087712901
 20
9.1545680305074
 11
4.2332411413026
 21
9.1354651405451
  0
LINE
  8
ECPE.1
  6
CONTINUOUS
 62
8
 10
4.2332411413026
 20
9.1354651405451
 11
4.2236896963215
 21
9.1163622505829
  0
LINE
  8
ECPE.1
  6
CONTINUOUS
 62
8
 10
4.2236896963215
 20
9.1163622505829
 11
4.2173220663341
 21
9.1004431756143
  0
LINE
  8
ECPE.1
  6
CONTINUOUS
 62
8
 10
4.2173220663341
 20
9.1004431756143
 11
4.2109544363467
 21
9.0813402856521
  0
LINE
  8
ECPE.1
  6
CONTINUOUS
 62
8
 10
4.2109544363467
 20
9.0813402856521
 11
4.2173220663341
 21
9.0654212106835
  0
LINE
  8
ECPE.1
  6
CONTINUOUS
 62
8
 10
4.2173220663341
 20
9.0654212106835
 11
4.2268735113152
 21
9.0463183207213
  0
LINE
  8
ECPE.1
  6
CONTINUOUS
 62
8
 10
4.2268735113152
 20
9.0463183207213
 11
4.2396087712901
 21
9.0303992457527
  0
LINE
  8
ECPE.1
  6
CONTINUOUS
 62
8
 10
4.2396087712901
 20
9.0303992457527
 11
4.2459764012775
 21
9.0144801707842
  0
LINE
  8
ECPE.1
  6
CONTINUOUS
 62
8
 10
4.2459764012775
 20
9.0144801707842
 11
4.2491602162712
 21
8.9953772808219
  0
LINE
  8
ECPE.1
  6
CONTINUOUS
 62
8
 10
4.2491602162712
 20
8.9953772808219
 11
4.2491602162712
 21
8.9794582058534
  0
LINE
  8
ECPE.1
  6
CONTINUOUS
 62
8
 10
4.2491602162712
 20
8.9794582058534
 11
4.2396087712901
 21
8.9444362409226
  0
LINE
  8
ECPE.1
  6
CONTINUOUS
 62
8
 10
4.2396087712901
 20
8.9444362409226
 11
4.2300573263089
 21
8.9253333509603
  0
LINE
  8
ECPE.1
  6
CONTINUOUS
 62
8
 10
4.2300573263089
 20
8.9253333509603
 11
4.2205058813278
 21
8.9094142759918
  0
LINE
  8
ECPE.1
  6
CONTINUOUS
 62
8
 10
4.2205058813278
 20
8.9094142759918
 11
4.2141382513404
 21
8.8871275710358
  0
LINE
  8
ECPE.1
  6
CONTINUOUS
 62
8
 10
4.2141382513404
 20
8.8871275710358
 11
4.2109544363467
 21
8.8680246810736
  0
LINE
  8
ECPE.1
  6
CONTINUOUS
 62
8
 10
4.2109544363467
 20
8.8680246810736
 11
4.2205058813278
 21
8.852105606105
  0
LINE
  8
ECPE.1
  6
CONTINUOUS
 62
8
 10
4.2205058813278
 20
8.852105606105
 11
4.2300573263089
 21
8.8330027161428
  0
LINE
  8
ECPE.1
  6
CONTINUOUS
 62
8
 10
4.2300573263089
 20
8.8330027161428
 11
4.2459764012775
 21
8.8011645662057
  0
LINE
  8
ECPE.1
  6
CONTINUOUS
 62
8
 10
4.2459764012775
 20
8.8011645662057
 11
4.2491602162712
 21
8.7820616762434
  0
LINE
  8
ECPE.1
  6
CONTINUOUS
 62
8
 10
4.2491602162712
 20
8.7820616762434
 11
4.2491602162712
 21
8.7661426012749
  0
LINE
  8
ECPE.1
  6
CONTINUOUS
 62
8
 10
4.2491602162712
 20
8.7661426012749
 11
4.2394720355878
 21
8.7306192721024
  0
LINE
  8
ECPE.1
  6
CONTINUOUS
 62
8
 10
3.5274773297706
 20
9.2452912854029
 11
3.5232503977056
 21
9.1991414404193
  0
LINE
  8
ECPE.1
  6
CONTINUOUS
 62
8
 10
3.5232503977056
 20
9.1991414404193
 11
3.5232503977056
 21
9.1577518455011
  0
LINE
  8
ECPE.1
  6
CONTINUOUS
 62
8
 10
3.5232503977056
 20
9.1577518455011
 11
3.5328018426867
 21
9.1386489555388
  0
LINE
  8
ECPE.1
  6
CONTINUOUS
 62
8
 10
3.5328018426867
 20
9.1386489555388
 11
3.5423532876678
 21
9.1195460655766
  0
LINE
  8
ECPE.1
  6
CONTINUOUS
 62
8
 10
3.5423532876678
 20
9.1195460655766
 11
3.551904732649
 21
9.103626990608
  0
LINE
  8
ECPE.1
  6
CONTINUOUS
 62
8
 10
3.551904732649
 20
9.103626990608
 11
3.5582723626364
 21
9.0845241006458
  0
LINE
  8
ECPE.1
  6
CONTINUOUS
 62
8
 10
3.5582723626364
 20
9.0845241006458
 11
3.551904732649
 21
9.0686050256772
  0
LINE
  8
ECPE.1
  6
CONTINUOUS
 62
8
 10
3.551904732649
 20
9.0686050256772
 11
3.5391694726741
 21
9.049502135715
  0
LINE
  8
ECPE.1
  6
CONTINUOUS
 62
8
 10
3.5391694726741
 20
9.049502135715
 11
3.529618027693
 21
9.0335830607464
  0
LINE
  8
ECPE.1
  6
CONTINUOUS
 62
8
 10
3.529618027693
 20
9.0335830607464
 11
3.5200665827119
 21
9.0176639857779
  0
LINE
  8
ECPE.1
  6
CONTINUOUS
 62
8
 10
3.5200665827119
 20
9.0176639857779
 11
3.5200665827119
 21
8.9985610958156
  0
LINE
  8
ECPE.1
  6
CONTINUOUS
 62
8
 10
3.5200665827119
 20
8.9985610958156
 11
3.5200665827119
 21
8.9826420208471
  0
LINE
  8
ECPE.1
  6
CONTINUOUS
 62
8
 10
3.5200665827119
 20
8.9826420208471
 11
3.5232503977056
 21
8.9476200559163
  0
LINE
  8
ECPE.1
  6
CONTINUOUS
 62
8
 10
3.5232503977056
 20
8.9476200559163
 11
3.529618027693
 21
8.8934952010232
  0
LINE
  8
ECPE.1
  6
CONTINUOUS
 62
8
 10
3.529618027693
 20
8.8934952010232
 11
3.5328018426867
 21
8.8393703461302
  0
LINE
  8
ECPE.1
  6
CONTINUOUS
 62
8
 10
3.5328018426867
 20
8.8393703461302
 11
3.529618027693
 21
8.8202674561679
  0
LINE
  8
ECPE.1
  6
CONTINUOUS
 62
8
 10
3.529618027693
 20
8.8202674561679
 11
3.5264342126993
 21
8.8043483811994
  0
LINE
  8
ECPE.1
  6
CONTINUOUS
 62
8
 10
3.5264342126993
 20
8.8043483811994
 11
3.5168827677182
 21
8.7693264162686
  0
LINE
  8
ECPE.1
  6
CONTINUOUS
 62
8
 10
3.5168827677182
 20
8.7693264162686
 11
3.5232503977056
 21
8.7502235263064
  0
LINE
  8
ECPE.1
  6
CONTINUOUS
 62
8
 10
3.5232503977056
 20
8.7502235263064
 11
3.529618027693
 21
8.7343044513378
  0
LINE
  8
ECPE.1
  6
CONTINUOUS
 62
8
 10
3.529618027693
 20
8.7343044513378
 11
3.5309580928695
 21
8.7306192721024
  0
ENDSEC
  0
EOF
