  0
SECTION
  2
HEADER
  9
$EXTMIN
 10
3.1155119431122
 20
8.7306192721024
  9
$EXTMAX
 10
4.6903150927185
 20
10.305422421709
  9
$LIMMIN
 10
0
 20
0
  9
$LIMMAX
 10
8.27
 20
11.69
  0
ENDSEC
  0
SECTION
  2
TABLES
  0
TABLE
  2
LTYPE
 70
9
  0
LTYPE
  2
CONTINUOUS
  3
___________________________
 70
64
 72
65
 73
0
 40
0
  0
LTYPE
  2
HIDDEN
  3
_ _ _ _ _ _ _ _ _ _ _ _ _ _ 
 70
64
 72
65
 73
2
 49
0.25
 49
-0.125
 40
0.375
  0
LTYPE
  2
DASHED
  3
__ __ __ __ __ __ __ __ __ 
 70
64
 72
65
 73
2
 49
0.5
 49
-0.25
 40
0.75
  0
LTYPE
  2
CENTER
  3
____ _ ____ _ ____ _ ____ _ 
 70
64
 72
65
 73
4
 49
1.25
 49
-0.25
 49
0.25
 49
-0.25
 40
2
  0
LTYPE
  2
PHANTOM
  3
_____ _ _ _____ _ _ _____ _ _ 
 70
64
 72
65
 73
6
 49
1.25
 49
-0.25
 49
0.25
 49
-0.25
 49
0.25
 49
-0.25
 40
2.5
  0
LTYPE
  2
DOT
  3
...........................
 70
64
 72
65
 73
2
 49
0
 49
-0.25
 40
0.25
  0
LTYPE
  2
DASHDOT
  3
__ . __ . __ . __ . __ . __ . 
 70
64
 72
65
 73
4
 49
0.5
 49
-0.25
 49
0
 49
-0.25
 40
1
  0
LTYPE
  2
DIVIDE
  3
__ . . __ . . __ . . __ . . 
 70
64
 72
65
 73
6
 49
0.5
 49
-0.25
 49
0
 49
-0.25
 49
0
 49
-0.25
 40
1.25
  0
LTYPE
  2
BORDER
  3
__ __ . __ __ . __ __ . __ __ . 
 70
64
 72
65
 73
6
 49
0.5
 49
-0.25
 49
0.5
 49
-0.25
 49
0
 49
-0.25
 40
1.75
  0
ENDTAB
  0
TABLE
  2
LAYER
 70
1
  0
LAYER
  2
UPVC.6
 62
7
  6
CONTINUOUS
 70
0
  0
ENDTAB
  0
TABLE
  2
STYLE
 70
5
  0
STYLE
  2
ptmarker
 70
1
 40
0
 50
0
 71
0
 41
0
 42
0
  3
ptmarks
  0
STYLE
  2
TXT
 70
0
 40
0
 50
0
 71
0
 41
0
 42
0
  3
TXT
  0
STYLE
  2
ITALIC
 70
0
 40
0
 50
0
 71
0
 41
0
 42
0
  3
ITALIC
  0
STYLE
  2
SIMPLEX
 70
0
 40
0
 50
0
 71
0
 41
0
 42
0
  3
SIMPLEX
  0
STYLE
  2
COMPLEX
 70
0
 40
0
 50
0
 71
0
 41
0
 42
0
  3
COMPLEX
  0
ENDTAB
  0
ENDSEC
  0
SECTION
  2
BLOCKS
  0
ENDSEC
  0
SECTION
  2
ENTITIES
  0
LINE
  8
UPVC.6
  6
CONTINUOUS
 62
8
 10
3.1155119431122
 20
10.305422421709
 11
3.1155119431122
 21
8.7306192721024
  0
LINE
  8
UPVC.6
  6
CONTINUOUS
 62
8
 10
3.1155119431122
 20
8.7306192721024
 11
4.6903150927185
 21
8.7306192721024
  0
LINE
  8
UPVC.6
  6
CONTINUOUS
 62
8
 10
4.6903150927185
 20
8.7306192721024
 11
4.6903150927185
 21
10.305422421709
  0
LINE
  8
UPVC.6
  6
CONTINUOUS
 62
8
 10
4.6903150927185
 20
10.305422421709
 11
3.1155119431122
 21
10.305422421709
  0
LINE
  8
UPVC.6
  6
CONTINUOUS
 62
8
 10
3.1155119431122
 20
10.241622050244
 11
3.7919502242832
 21
9.8510802265197
  0
LINE
  8
UPVC.6
  6
CONTINUOUS
 62
8
 10
3.5176224740146
 20
9.3411929045819
 11
3.7990169972254
 21
9.077160549229
  0
LINE
  8
UPVC.6
  6
CONTINUOUS
 62
8
 10
3.1155119431122
 20
10.051720845948
 11
3.5097484582666
 21
9.8241082877988
  0
LINE
  8
UPVC.6
  6
CONTINUOUS
 62
8
 10
3.5176224740146
 20
9.3411929045819
 11
3.5176224740146
 21
10.009463426983
  0
LINE
  8
UPVC.6
  6
CONTINUOUS
 62
8
 10
3.7919502242832
 20
9.8510802265197
 11
4.040172527227
 21
9.4963701938247
  0
LINE
  8
UPVC.6
  6
CONTINUOUS
 62
8
 10
4.040172527227
 20
9.4963701938247
 11
4.5669057449868
 21
9.2613439100024
  0
LINE
  8
UPVC.6
  6
CONTINUOUS
 62
8
 10
4.5669057449868
 20
9.2613439100024
 11
4.6903150927185
 21
9.190093489869
  0
LINE
  8
UPVC.6
  6
CONTINUOUS
 62
8
 10
3.7990169972254
 20
9.077160549229
 11
4.5669057449868
 21
8.8018696922358
  0
LINE
  8
UPVC.6
  6
CONTINUOUS
 62
8
 10
4.5669057449868
 20
8.8018696922358
 11
4.5669057449868
 21
9.2613439100024
  0
LINE
  8
UPVC.6
  6
CONTINUOUS
 62
8
 10
3.5176224740146
 20
10.009463426983
 11
4.0302384898357
 21
10.305422421709
  0
LINE
  8
UPVC.6
  6
CONTINUOUS
 62
8
 10
3.7919502242832
 20
9.8510802265197
 11
4.5788939903729
 21
10.305422421709
  0
LINE
  8
UPVC.6
  6
CONTINUOUS
 62
8
 10
4.040172527227
 20
9.4963701938247
 11
4.6903150927185
 21
9.8717301790228
  0
LINE
  8
UPVC.6
  6
CONTINUOUS
 62
8
 10
4.5669057449868
 20
9.2613439100024
 11
4.6903150927185
 21
9.3325943301358
  0
LINE
  8
UPVC.6
  6
CONTINUOUS
 62
8
 10
4.5669057449868
 20
8.8018696922358
 11
4.6903150927185
 21
8.7306192721024
  0
LINE
  8
UPVC.6
  6
CONTINUOUS
 62
8
 10
3.5176224740146
 20
9.5029013724302
 11
3.8223541186869
 21
9.8076330171025
  0
LINE
  8
UPVC.6
  6
CONTINUOUS
 62
8
 10
3.5176224740146
 20
9.4472236731242
 11
3.845276171341
 21
9.7748773704506
  0
LINE
  8
UPVC.6
  6
CONTINUOUS
 62
8
 10
3.5176224740146
 20
9.3915459738181
 11
3.8681982239951
 21
9.7421217237986
  0
LINE
  8
UPVC.6
  6
CONTINUOUS
 62
8
 10
3.5203695365424
 20
9.3386153370399
 11
3.8911202766491
 21
9.7093660771467
  0
LINE
  8
UPVC.6
  6
CONTINUOUS
 62
8
 10
3.5490945595757
 20
9.3116626607672
 11
3.9140423293032
 21
9.6766104304947
  0
LINE
  8
UPVC.6
  6
CONTINUOUS
 62
8
 10
3.5778195826089
 20
9.2847099844944
 11
3.9369643819573
 21
9.6438547838428
  0
LINE
  8
UPVC.6
  6
CONTINUOUS
 62
8
 10
3.6065446056422
 20
9.2577573082216
 11
3.9598864346114
 21
9.6110991371908
  0
LINE
  8
UPVC.6
  6
CONTINUOUS
 62
8
 10
3.6352696286754
 20
9.2308046319488
 11
3.9828084872654
 21
9.5783434905388
  0
LINE
  8
UPVC.6
  6
CONTINUOUS
 62
8
 10
3.6639946517087
 20
9.203851955676
 11
4.0057305399195
 21
9.5455878438869
  0
LINE
  8
UPVC.6
  6
CONTINUOUS
 62
8
 10
3.6927196747419
 20
9.1768992794033
 11
4.0286525925736
 21
9.5128321972349
  0
LINE
  8
UPVC.6
  6
CONTINUOUS
 62
8
 10
3.7214446977752
 20
9.1499466031305
 11
4.059323292537
 21
9.4878251978924
  0
LINE
  8
UPVC.6
  6
CONTINUOUS
 62
8
 10
3.7501697208084
 20
9.1229939268577
 11
4.097822705609
 21
9.4706469116583
  0
LINE
  8
UPVC.6
  6
CONTINUOUS
 62
8
 10
3.7788947438417
 20
9.0960412505849
 11
4.136322118681
 21
9.4534686254243
  0
LINE
  8
UPVC.6
  6
CONTINUOUS
 62
8
 10
3.8112913444864
 20
9.0727601519236
 11
4.174821531753
 21
9.4362903391903
  0
LINE
  8
UPVC.6
  6
CONTINUOUS
 62
8
 10
3.8522759252848
 20
9.058067033416
 11
4.213320944825
 21
9.4191120529562
  0
LINE
  8
UPVC.6
  6
CONTINUOUS
 62
8
 10
3.8932605060832
 20
9.0433739149084
 11
4.251820357897
 21
9.4019337667222
  0
LINE
  8
UPVC.6
  6
CONTINUOUS
 62
8
 10
3.9342450868817
 20
9.0286807964008
 11
4.290319770969
 21
9.3847554804882
  0
LINE
  8
UPVC.6
  6
CONTINUOUS
 62
8
 10
3.9752296676801
 20
9.0139876778932
 11
4.328819184041
 21
9.3675771942541
  0
LINE
  8
UPVC.6
  6
CONTINUOUS
 62
8
 10
4.0162142484785
 20
8.9992945593856
 11
4.367318597113
 21
9.3503989080201
  0
LINE
  8
UPVC.6
  6
CONTINUOUS
 62
8
 10
4.057198829277
 20
8.984601440878
 11
4.405818010185
 21
9.3332206217861
  0
LINE
  8
UPVC.6
  6
CONTINUOUS
 62
8
 10
4.0981834100754
 20
8.9699083223704
 11
4.444317423257
 21
9.3160423355521
  0
LINE
  8
UPVC.6
  6
CONTINUOUS
 62
8
 10
4.1391679908738
 20
8.9552152038629
 11
4.482816836329
 21
9.298864049318
  0
LINE
  8
UPVC.6
  6
CONTINUOUS
 62
8
 10
4.1801525716723
 20
8.9405220853553
 11
4.521316249401
 21
9.281685763084
  0
LINE
  8
UPVC.6
  6
CONTINUOUS
 62
8
 10
4.2211371524707
 20
8.9258289668477
 11
4.559815662473
 21
9.26450747685
  0
LINE
  8
UPVC.6
  6
CONTINUOUS
 62
8
 10
4.2621217332691
 20
8.9111358483401
 11
4.5669057449868
 21
9.2159198600577
  0
LINE
  8
UPVC.6
  6
CONTINUOUS
 62
8
 10
4.3031063140675
 20
8.8964427298325
 11
4.5669057449868
 21
9.1602421607517
  0
LINE
  8
UPVC.6
  6
CONTINUOUS
 62
8
 10
4.344090894866
 20
8.8817496113249
 11
4.5669057449868
 21
9.1045644614457
  0
LINE
  8
UPVC.6
  6
CONTINUOUS
 62
8
 10
4.3850754756644
 20
8.8670564928173
 11
4.5669057449868
 21
9.0488867621396
  0
LINE
  8
UPVC.6
  6
CONTINUOUS
 62
8
 10
4.4260600564628
 20
8.8523633743097
 11
4.5669057449868
 21
8.9932090628336
  0
LINE
  8
UPVC.6
  6
CONTINUOUS
 62
8
 10
4.4670446372613
 20
8.8376702558021
 11
4.5669057449868
 21
8.9375313635276
  0
LINE
  8
UPVC.6
  6
CONTINUOUS
 62
8
 10
4.5080292180597
 20
8.8229771372945
 11
4.5669057449868
 21
8.8818536642215
  0
LINE
  8
UPVC.6
  6
CONTINUOUS
 62
8
 10
4.5490137988581
 20
8.8082840187869
 11
4.5669057449868
 21
8.8261759649155
  0
LINE
  8
UPVC.6
  6
CONTINUOUS
 62
8
 10
3.5176224740146
 20
9.5585790717362
 11
3.7994320660329
 21
9.8403886637545
  0
LINE
  8
UPVC.6
  6
CONTINUOUS
 62
8
 10
3.5176224740146
 20
9.6142567710423
 11
3.7681734541366
 21
9.8648077511643
  0
LINE
  8
UPVC.6
  6
CONTINUOUS
 62
8
 10
3.5176224740146
 20
9.6699344703483
 11
3.7328752072009
 21
9.8851872035345
  0
LINE
  8
UPVC.6
  6
CONTINUOUS
 62
8
 10
3.5176224740146
 20
9.7256121696543
 11
3.6975769602651
 21
9.9055666559048
  0
LINE
  8
UPVC.6
  6
CONTINUOUS
 62
8
 10
3.5176224740146
 20
9.7812898689603
 11
3.6622787133294
 21
9.9259461082751
  0
LINE
  8
UPVC.6
  6
CONTINUOUS
 62
8
 10
3.5176224740146
 20
9.8369675682664
 11
3.6269804663936
 21
9.9463255606454
  0
LINE
  8
UPVC.6
  6
CONTINUOUS
 62
8
 10
3.5176224740146
 20
9.8926452675724
 11
3.5916822194579
 21
9.9667050130157
  0
LINE
  8
UPVC.6
  6
CONTINUOUS
 62
8
 10
3.5176224740146
 20
9.9483229668784
 11
3.5563839725221
 21
9.9870844653859
  0
CIRCLE
  8
UPVC.6
  6
CONTINUOUS
 62
8
 10
4.1833267444032
 20
9.816971808724
 40
0.0078740157480315
  0
CIRCLE
  8
UPVC.6
  6
CONTINUOUS
 62
8
 10
4.5707647605045
 20
10.188266574154
 40
0.0078740157480315
  0
CIRCLE
  8
UPVC.6
  6
CONTINUOUS
 62
8
 10
3.9465590678969
 20
10.172123323483
 40
0.0078740157480315
  0
CIRCLE
  8
UPVC.6
  6
CONTINUOUS
 62
8
 10
4.4362376715804
 20
9.8438772265088
 40
0.0078740157480315
  0
CIRCLE
  8
UPVC.6
  6
CONTINUOUS
 62
8
 10
4.640718846745
 20
9.4725824610785
 40
0.0078740157480315
  0
CIRCLE
  8
UPVC.6
  6
CONTINUOUS
 62
8
 10
4.2855673319855
 20
9.547917630876
 40
0.0078740157480315
  0
CIRCLE
  8
UPVC.6
  6
CONTINUOUS
 62
8
 10
4.5869080111753
 20
9.6232528006734
 40
0.0078740157480315
  0
CIRCLE
  8
UPVC.6
  6
CONTINUOUS
 62
8
 10
3.9734644856817
 20
9.9945475661038
 40
0.0078740157480315
  0
CIRCLE
  8
UPVC.6
  6
CONTINUOUS
 62
8
 10
4.210232162188
 20
10.172123323483
 40
0.0078740157480315
  0
CIRCLE
  8
UPVC.6
  6
CONTINUOUS
 62
8
 10
4.360902501783
 20
10.096788153686
 40
0.0078740157480315
  0
CIRCLE
  8
UPVC.6
  6
CONTINUOUS
 62
8
 10
3.7636022269602
 20
9.9999286496607
 40
0.0078740157480315
  0
CIRCLE
  8
UPVC.6
  6
CONTINUOUS
 62
8
 10
4.1348969923906
 20
9.6663014691291
 40
0.0078740157480315
  0
CIRCLE
  8
UPVC.6
  6
CONTINUOUS
 62
8
 10
3.935796900783
 20
9.7846853073823
 40
0.0078740157480315
  0
CIRCLE
  8
UPVC.6
  6
CONTINUOUS
 62
8
 10
4.5115728413779
 20
9.6340149677873
 40
0.0078740157480315
  0
CIRCLE
  8
UPVC.6
  6
CONTINUOUS
 62
8
 10
4.4577620058083
 20
9.3541986228253
 40
0.0078740157480315
  0
LINE
  8
UPVC.6
  6
CONTINUOUS
 62
8
 10
3.1155119431122
 20
9.5733515278424
 11
3.5176224740146
 21
9.3411929045819
  0
LINE
  8
UPVC.6
  6
CONTINUOUS
 62
8
 10
4.6312599746082
 20
8.7647147604404
 11
4.6312599746082
 21
9.224188978207
  0
LINE
  8
UPVC.6
  6
CONTINUOUS
 62
8
 10
4.572204856498
 20
8.7988102487783
 11
4.572204856498
 21
9.258284466545
  0
LINE
  8
UPVC.6
  6
CONTINUOUS
 62
8
 10
3.1554177496051
 20
10.028681217827
 11
3.1554177496051
 21
9.5503118997215
  0
LINE
  8
UPVC.6
  6
CONTINUOUS
 62
8
 10
3.2144728677154
 20
9.9945857294886
 11
3.2144728677154
 21
9.5162164113835
  0
LINE
  8
UPVC.6
  6
CONTINUOUS
 62
8
 10
3.2735279858256
 20
9.9604902411507
 11
3.2735279858256
 21
9.4821209230455
  0
LINE
  8
UPVC.6
  6
CONTINUOUS
 62
8
 10
3.3325831039359
 20
9.9263947528127
 11
3.3325831039359
 21
9.4480254347076
  0
LINE
  8
UPVC.6
  6
CONTINUOUS
 62
8
 10
3.3916382220461
 20
9.8922992644747
 11
3.3916382220461
 21
9.4139299463696
  0
LINE
  8
UPVC.6
  6
CONTINUOUS
 62
8
 10
3.4506933401563
 20
9.8582037761368
 11
3.4506933401563
 21
9.3798344580316
  0
LINE
  8
UPVC.6
  6
CONTINUOUS
 62
8
 10
3.5097484582666
 20
9.3457389696937
 11
3.5097484582666
 21
9.8241082877988
  0
LINE
  8
UPVC.6
  6
CONTINUOUS
 62
8
 10
3.5097484582666
 20
9.832166887626
 11
3.5097484582666
 21
10.014009492095
  0
LINE
  8
UPVC.6
  6
CONTINUOUS
 62
8
 10
3.5097484582666
 20
10.014009492095
 11
4.0144904583397
 21
10.305422421709
  0
LINE
  8
UPVC.6
  6
CONTINUOUS
 62
8
 10
4.572204856498
 20
9.258284466545
 11
4.6903150927185
 21
9.3264754432209
  0
LINE
  8
UPVC.6
  6
CONTINUOUS
 62
8
 10
3.5097484582666
 20
9.3457389696937
 11
3.1155119431122
 21
9.1181264115449
  0
LINE
  8
UPVC.6
  6
CONTINUOUS
 62
8
 10
3.8050240488177
 20
9.0750069997915
 11
3.208527006957
 21
8.7306192721024
  0
LINE
  8
UPVC.6
  6
CONTINUOUS
 62
8
 10
3.9231342850382
 20
9.0326640585209
 11
3.3999773688001
 21
8.7306192721024
  0
LINE
  8
UPVC.6
  6
CONTINUOUS
 62
8
 10
4.0412445212587
 20
8.9903211172503
 11
3.5914277306431
 21
8.7306192721024
  0
LINE
  8
UPVC.6
  6
CONTINUOUS
 62
8
 10
4.1593547574791
 20
8.9479781759797
 11
3.7828780924861
 21
8.7306192721024
  0
LINE
  8
UPVC.6
  6
CONTINUOUS
 62
8
 10
4.2774649936996
 20
8.9056352347091
 11
3.9743284543292
 21
8.7306192721024
  0
LINE
  8
UPVC.6
  6
CONTINUOUS
 62
8
 10
4.3955752299201
 20
8.8632922934385
 11
4.1657788161722
 21
8.7306192721024
  0
LINE
  8
UPVC.6
  6
CONTINUOUS
 62
8
 10
4.5136854661406
 20
8.8209493521679
 11
4.3572291780153
 21
8.7306192721024
  0
LINE
  8
UPVC.6
  6
CONTINUOUS
 62
8
 10
4.6312599746082
 20
8.7647147604404
 11
4.572204856498
 21
8.7306192721024
  0
LINE
  8
UPVC.6
  6
CONTINUOUS
 62
8
 10
3.1554177496051
 20
9.5503118997215
 11
3.1155119431122
 21
9.5272722716005
  0
LINE
  8
UPVC.6
  6
CONTINUOUS
 62
8
 10
3.2735279858256
 20
9.4821209230455
 11
3.1155119431122
 21
9.3908903182487
  0
LINE
  8
UPVC.6
  6
CONTINUOUS
 62
8
 10
3.3916382220461
 20
9.4139299463696
 11
3.1155119431122
 21
9.2545083648968
  0
LINE
  8
UPVC.6
  6
CONTINUOUS
 62
8
 10
3.65831973562
 20
9.2091767269055
 11
3.1155119431122
 21
8.8957865017829
  0
LINE
  8
UPVC.6
  6
CONTINUOUS
 62
8
 10
3.1155119431122
 20
10.196161399127
 11
3.5097484582666
 21
9.9685488409779
  0
LINE
  8
UPVC.6
  6
CONTINUOUS
 62
8
 10
3.1155119431122
 20
10.150700748009
 11
3.5097484582666
 21
9.9230881898606
  0
LINE
  8
UPVC.6
  6
CONTINUOUS
 62
8
 10
3.1155119431122
 20
10.105240096892
 11
3.5097484582666
 21
9.8776275387433
  0
LINE
  8
UPVC.6
  6
CONTINUOUS
 62
8
 10
3.1155119431122
 20
10.059779445775
 11
3.5097484582666
 21
9.832166887626
  0
LINE
  8
UPVC.6
  6
CONTINUOUS
 62
8
 10
4.0443844930397
 20
9.4988019734204
 11
4.5685099724708
 21
9.264939252153
  0
LINE
  8
UPVC.6
  6
CONTINUOUS
 62
8
 10
3.7946751089994
 20
9.854053078707
 11
4.0435950160793
 21
9.4983461686848
  0
LINE
  8
UPVC.6
  6
CONTINUOUS
 62
8
 10
3.1155119431122
 20
10.246168115356
 11
3.7946751089994
 21
9.854053078707
  0
LINE
  8
UPVC.6
  6
CONTINUOUS
 62
8
 10
4.5688742489238
 20
9.2647534588362
 11
4.6903150927185
 21
9.1946395549807
  0
ENDSEC
  0
EOF
