  0
SECTION
  2
HEADER
  9
$EXTMIN
 10
3.1155119431122
 20
8.7272097232686
  9
$EXTMAX
 10
4.6903150927185
 20
10.307695454265
  9
$LIMMIN
 10
0
 20
0
  9
$LIMMAX
 10
8.27
 20
11.69
  0
ENDSEC
  0
SECTION
  2
TABLES
  0
TABLE
  2
LTYPE
 70
9
  0
LTYPE
  2
CONTINUOUS
  3
___________________________
 70
64
 72
65
 73
0
 40
0
  0
LTYPE
  2
HIDDEN
  3
_ _ _ _ _ _ _ _ _ _ _ _ _ _ 
 70
64
 72
65
 73
2
 49
0.25
 49
-0.125
 40
0.375
  0
LTYPE
  2
DASHED
  3
__ __ __ __ __ __ __ __ __ 
 70
64
 72
65
 73
2
 49
0.5
 49
-0.25
 40
0.75
  0
LTYPE
  2
CENTER
  3
____ _ ____ _ ____ _ ____ _ 
 70
64
 72
65
 73
4
 49
1.25
 49
-0.25
 49
0.25
 49
-0.25
 40
2
  0
LTYPE
  2
PHANTOM
  3
_____ _ _ _____ _ _ _____ _ _ 
 70
64
 72
65
 73
6
 49
1.25
 49
-0.25
 49
0.25
 49
-0.25
 49
0.25
 49
-0.25
 40
2.5
  0
LTYPE
  2
DOT
  3
...........................
 70
64
 72
65
 73
2
 49
0
 49
-0.25
 40
0.25
  0
LTYPE
  2
DASHDOT
  3
__ . __ . __ . __ . __ . __ . 
 70
64
 72
65
 73
4
 49
0.5
 49
-0.25
 49
0
 49
-0.25
 40
1
  0
LTYPE
  2
DIVIDE
  3
__ . . __ . . __ . . __ . . 
 70
64
 72
65
 73
6
 49
0.5
 49
-0.25
 49
0
 49
-0.25
 49
0
 49
-0.25
 40
1.25
  0
LTYPE
  2
BORDER
  3
__ __ . __ __ . __ __ . __ __ . 
 70
64
 72
65
 73
6
 49
0.5
 49
-0.25
 49
0.5
 49
-0.25
 49
0
 49
-0.25
 40
1.75
  0
ENDTAB
  0
TABLE
  2
LAYER
 70
3
  0
LAYER
  2
0
 62
7
  6
CONTINUOUS
 70
0
  0
LAYER
  2
Encepado-1
 62
7
  6
CONTINUOUS
 70
0
  0
LAYER
  2
UPVC.1
 62
7
  6
CONTINUOUS
 70
0
  0
ENDTAB
  0
TABLE
  2
STYLE
 70
5
  0
STYLE
  2
ptmarker
 70
1
 40
0
 50
0
 71
0
 41
0
 42
0
  3
ptmarks
  0
STYLE
  2
TXT
 70
0
 40
0
 50
0
 71
0
 41
0
 42
0
  3
TXT
  0
STYLE
  2
ITALIC
 70
0
 40
0
 50
0
 71
0
 41
0
 42
0
  3
ITALIC
  0
STYLE
  2
SIMPLEX
 70
0
 40
0
 50
0
 71
0
 41
0
 42
0
  3
SIMPLEX
  0
STYLE
  2
COMPLEX
 70
0
 40
0
 50
0
 71
0
 41
0
 42
0
  3
COMPLEX
  0
ENDTAB
  0
ENDSEC
  0
SECTION
  2
BLOCKS
  0
ENDSEC
  0
SECTION
  2
ENTITIES
  0
LINE
  8
UPVC.1
  6
CONTINUOUS
 62
8
 10
3.1155119431122
 20
10.305422421709
 11
3.1155119431122
 21
8.7306192721024
  0
LINE
  8
UPVC.1
  6
CONTINUOUS
 62
8
 10
3.1155119431122
 20
8.7306192721024
 11
4.6903150927185
 21
8.7306192721024
  0
LINE
  8
UPVC.1
  6
CONTINUOUS
 62
8
 10
4.6903150927185
 20
8.7306192721024
 11
4.6903150927185
 21
10.305422421709
  0
LINE
  8
UPVC.1
  6
CONTINUOUS
 62
8
 10
4.6903150927185
 20
10.305422421709
 11
3.1155119431122
 21
10.305422421709
  0
LINE
  8
UPVC.1
  6
CONTINUOUS
 62
8
 10
3.1155119431122
 20
9.8470981244318
 11
3.5712146904822
 21
9.5839980205672
  0
LINE
  8
UPVC.1
  6
CONTINUOUS
 62
8
 10
3.3596064313011
 20
8.9077846264331
 11
3.3596064313011
 21
9.7107161710799
  0
LINE
  8
UPVC.1
  6
CONTINUOUS
 62
8
 10
3.5712146904822
 20
9.5839980205672
 11
3.6664658263429
 21
9.2328297414127
  0
LINE
  8
UPVC.1
  6
CONTINUOUS
 62
8
 10
3.6704028342169
 20
8.9503859673817
 11
4.0510499162521
 21
8.7306192721024
  0
LINE
  8
UPVC.1
  6
CONTINUOUS
 62
8
 10
3.6664658263429
 20
8.8607342292359
 11
3.8918315429228
 21
8.7306192721024
  0
LINE
  8
UPVC.1
  6
CONTINUOUS
 62
8
 10
3.3596064313011
 20
9.7107161710799
 11
4.393604880843
 21
10.307695454265
  0
LINE
  8
UPVC.1
  6
CONTINUOUS
 62
8
 10
3.5745893510606
 20
9.5865957244856
 11
4.6822727484938
 21
10.22611703217
  0
LINE
  8
UPVC.1
  6
CONTINUOUS
 62
8
 10
3.6704028342169
 20
9.233354204626
 11
4.6864795697946
 21
9.8199863814291
  0
LINE
  8
UPVC.1
  6
CONTINUOUS
 62
8
 10
3.6704028342169
 20
8.9503859673817
 11
4.6903150927185
 21
9.5392325843774
  0
LINE
  8
UPVC.1
  6
CONTINUOUS
 62
8
 10
3.3596064313011
 20
9.1996080514149
 11
3.6080805918681
 21
9.4480822119819
  0
LINE
  8
UPVC.1
  6
CONTINUOUS
 62
8
 10
3.3596064313011
 20
9.1439303521089
 11
3.619960371113
 21
9.4042842919207
  0
LINE
  8
UPVC.1
  6
CONTINUOUS
 62
8
 10
3.3596064313011
 20
9.0882526528028
 11
3.6318401503579
 21
9.3604863718596
  0
LINE
  8
UPVC.1
  6
CONTINUOUS
 62
8
 10
3.362353493829
 20
9.0353220160246
 11
3.6437199296027
 21
9.3166884517984
  0
LINE
  8
UPVC.1
  6
CONTINUOUS
 62
8
 10
3.3596064313011
 20
8.9768972541908
 11
3.6555997088476
 21
9.2728905317373
  0
LINE
  8
UPVC.1
  6
CONTINUOUS
 62
8
 10
3.3596064313011
 20
8.9212195548848
 11
3.6664658263429
 21
9.2280789499265
  0
LINE
  8
UPVC.1
  6
CONTINUOUS
 62
8
 10
3.3863872748966
 20
8.8923226991742
 11
3.6664658263429
 21
9.1724012506205
  0
LINE
  8
UPVC.1
  6
CONTINUOUS
 62
8
 10
3.4216855218323
 20
8.8719432468039
 11
3.6664658263429
 21
9.1167235513144
  0
LINE
  8
UPVC.1
  6
CONTINUOUS
 62
8
 10
3.4569837687681
 20
8.8515637944336
 11
3.6664658263429
 21
9.0610458520084
  0
LINE
  8
UPVC.1
  6
CONTINUOUS
 62
8
 10
3.4922820157038
 20
8.8311843420633
 11
3.6664658263429
 21
9.0053681527024
  0
LINE
  8
UPVC.1
  6
CONTINUOUS
 62
8
 10
3.5275802626396
 20
8.810804889693
 11
3.6664658263429
 21
8.9496904533964
  0
LINE
  8
UPVC.1
  6
CONTINUOUS
 62
8
 10
3.5628785095753
 20
8.7904254373228
 11
3.6664658263429
 21
8.8940127540903
  0
LINE
  8
UPVC.1
  6
CONTINUOUS
 62
8
 10
3.3596064313011
 20
9.2552857507209
 11
3.5962008126232
 21
9.491880132043
  0
LINE
  8
UPVC.1
  6
CONTINUOUS
 62
8
 10
3.3596064313011
 20
9.310963450027
 11
3.5843210333783
 21
9.5356780521042
  0
LINE
  8
UPVC.1
  6
CONTINUOUS
 62
8
 10
3.3596064313011
 20
9.366641149333
 11
3.5724412541335
 21
9.5794759721653
  0
LINE
  8
UPVC.1
  6
CONTINUOUS
 62
8
 10
3.3596064313011
 20
9.422318848639
 11
3.5395609175517
 21
9.6022733348895
  0
LINE
  8
UPVC.1
  6
CONTINUOUS
 62
8
 10
3.3596064313011
 20
9.477996547945
 11
3.5042626706159
 21
9.6226527872598
  0
LINE
  8
UPVC.1
  6
CONTINUOUS
 62
8
 10
3.3596064313011
 20
9.5336742472511
 11
3.4689644236802
 21
9.6430322396301
  0
LINE
  8
UPVC.1
  6
CONTINUOUS
 62
8
 10
3.3596064313011
 20
9.5893519465571
 11
3.4336661767444
 21
9.6634116920004
  0
LINE
  8
UPVC.1
  6
CONTINUOUS
 62
8
 10
3.3596064313011
 20
9.6450296458631
 11
3.3983679298087
 21
9.6837911443706
  0
CIRCLE
  8
UPVC.1
  6
CONTINUOUS
 62
8
 10
4.0253107016898
 20
9.5136784877087
 40
0.0078740157480315
  0
CIRCLE
  8
UPVC.1
  6
CONTINUOUS
 62
8
 10
4.2039984589257
 20
10.005130380158
 40
0.0078740157480315
  0
CIRCLE
  8
UPVC.1
  6
CONTINUOUS
 62
8
 10
3.7885430251835
 20
9.8688300024682
 40
0.0078740157480315
  0
CIRCLE
  8
UPVC.1
  6
CONTINUOUS
 62
8
 10
4.278221628867
 20
9.5405839054935
 40
0.0078740157480315
  0
CIRCLE
  8
UPVC.1
  6
CONTINUOUS
 62
8
 10
4.636948218608
 20
9.9004557573338
 40
0.0078740157480315
  0
CIRCLE
  8
UPVC.1
  6
CONTINUOUS
 62
8
 10
4.5319265412379
 20
9.5766852638225
 40
0.0078740157480315
  0
CIRCLE
  8
UPVC.1
  6
CONTINUOUS
 62
8
 10
3.8983979194605
 20
9.6456003337281
 40
0.0078740157480315
  0
CIRCLE
  8
UPVC.1
  6
CONTINUOUS
 62
8
 10
4.473645993748
 20
10.220848408016
 40
0.0078740157480315
  0
CIRCLE
  8
UPVC.1
  6
CONTINUOUS
 62
8
 10
4.2028864590695
 20
9.7934948326707
 40
0.0078740157480315
  0
CIRCLE
  8
UPVC.1
  6
CONTINUOUS
 62
8
 10
3.6055861842468
 20
9.6966353286454
 40
0.0078740157480315
  0
CIRCLE
  8
UPVC.1
  6
CONTINUOUS
 62
8
 10
3.9768809496771
 20
9.3630081481138
 40
0.0078740157480315
  0
CIRCLE
  8
UPVC.1
  6
CONTINUOUS
 62
8
 10
3.7777808580696
 20
9.481391986367
 40
0.0078740157480315
  0
CIRCLE
  8
UPVC.1
  6
CONTINUOUS
 62
8
 10
4.5078022132409
 20
10.061888264043
 40
0.0078740157480315
  0
CIRCLE
  8
UPVC.1
  6
CONTINUOUS
 62
8
 10
3.8645234089095
 20
9.1384912880514
 40
0.0078740157480315
  0
LINE
  8
UPVC.1
  6
CONTINUOUS
 62
8
 10
3.1745670612224
 20
9.6311600316246
 11
3.1745670612224
 21
9.0146171565587
  0
LINE
  8
UPVC.1
  6
CONTINUOUS
 62
8
 10
3.2336221793326
 20
9.5970645432866
 11
3.2336221793326
 21
8.9805216682208
  0
LINE
  8
UPVC.1
  6
CONTINUOUS
 62
8
 10
3.2926772974429
 20
9.5629690549487
 11
3.2926772974429
 21
8.9464261798828
  0
LINE
  8
UPVC.1
  6
CONTINUOUS
 62
8
 10
3.2390495572631
 20
8.9773881701116
 11
3.1155119431122
 21
8.9060636953265
  0
LINE
  8
UPVC.1
  6
CONTINUOUS
 62
8
 10
3.1155119431122
 20
9.8016374733145
 11
3.3596064313011
 21
9.6607094548509
  0
LINE
  8
UPVC.1
  6
CONTINUOUS
 62
8
 10
3.1155119431122
 20
9.7561768221972
 11
3.3596064313011
 21
9.6152488037336
  0
LINE
  8
UPVC.1
  6
CONTINUOUS
 62
8
 10
3.1155119431122
 20
9.7107161710799
 11
3.3596064313011
 21
9.5697881526163
  0
LINE
  8
UPVC.1
  6
CONTINUOUS
 62
8
 10
3.1155119431122
 20
9.6652555199626
 11
3.3596064313011
 21
9.524327501499
  0
LINE
  8
UPVC.1
  6
CONTINUOUS
 62
8
 10
3.6664658263429
 20
8.7306192721024
 11
3.6664658263429
 21
9.2328297414127
  0
LINE
  8
UPVC.1
  6
CONTINUOUS
 62
8
 10
3.3571597934836
 20
8.9091971934357
 11
3.1155119431122
 21
8.7696817419746
  0
LINE
  8
UPVC.1
  6
CONTINUOUS
 62
8
 10
3.4752700297041
 20
8.8410062167597
 11
3.2840742330653
 21
8.7306192721024
  0
LINE
  8
UPVC.1
  6
CONTINUOUS
 62
8
 10
3.5933802659245
 20
8.7728152400838
 11
3.5202947055062
 21
8.7306192721024
  0
LINE
  8
UPVC.1
  6
CONTINUOUS
 62
8
 10
4.1430709982303
 20
10.163049649697
 11
4.3580539179898
 21
10.038929203103
  0
LINE
  8
UPVC.1
  6
CONTINUOUS
 62
8
 10
4.1627560376003
 20
10.174414812476
 11
4.3777389573598
 21
10.050294365882
  0
LINE
  8
UPVC.1
  6
CONTINUOUS
 62
8
 10
4.3580539179898
 20
10.038929203103
 11
4.453867401146
 21
9.6856876832431
  0
LINE
  8
UPVC.1
  6
CONTINUOUS
 62
8
 10
4.3777389573598
 20
10.050294365882
 11
4.4735524405161
 21
9.6970528460224
  0
LINE
  8
UPVC.1
  6
CONTINUOUS
 62
8
 10
4.453867401146
 20
9.4027194459987
 11
4.453867401146
 21
9.6856876832431
  0
LINE
  8
UPVC.1
  6
CONTINUOUS
 62
8
 10
4.4735524405161
 20
9.4140846087781
 11
4.4735524405161
 21
9.6970528460224
  0
LINE
  8
UPVC.1
  6
CONTINUOUS
 62
8
 10
3.6704028342169
 20
8.9503859673817
 11
3.6704028342169
 21
9.233354204626
  0
LINE
  8
UPVC.1
  6
CONTINUOUS
 62
8
 10
3.5745893510606
 20
9.5865957244856
 11
3.6704028342169
 21
9.233354204626
  0
LINE
  8
UPVC.1
  6
CONTINUOUS
 62
8
 10
3.1155119431122
 20
9.8516441895435
 11
3.5745893510606
 21
9.5865957244856
  0
LINE
  8
UPVC.1
  6
CONTINUOUS
 62
8
 10
3.6664658263429
 20
8.9299286743789
 11
4.0116798375119
 21
8.7306192721024
  0
LINE
  8
UPVC.1
  6
CONTINUOUS
 62
8
 10
3.6664658263429
 20
8.9071983488202
 11
3.9723097587718
 21
8.7306192721024
  0
LINE
  8
UPVC.1
  6
CONTINUOUS
 62
8
 10
3.6664658263429
 20
8.8844680232616
 11
3.9329396800316
 21
8.7306192721024
  0
LINE
  8
UPVC.1
  6
CONTINUOUS
 62
8
 10
3.1155119431122
 20
9.0487126448967
 11
3.6664658263429
 21
8.7306192721024
  0
LINE
  8
UPVC.1
  6
CONTINUOUS
 62
8
 10
3.6664658263429
 20
8.8380039036773
 11
3.8524614641826
 21
8.7306192721024
  0
LINE
  8
UPVC.1
  6
CONTINUOUS
 62
8
 10
3.6664658263429
 20
8.8152735781186
 11
3.8130913854425
 21
8.7306192721024
  0
LINE
  8
UPVC.1
  6
CONTINUOUS
 62
8
 10
3.6664658263429
 20
8.79254325256
 11
3.7737213067023
 21
8.7306192721024
  0
LINE
  8
UPVC.1
  6
CONTINUOUS
 62
8
 10
3.6664658263429
 20
8.7698129270014
 11
3.7343512279622
 21
8.7306192721024
  0
LINE
  8
UPVC.1
  6
CONTINUOUS
 62
8
 10
3.6664658263429
 20
8.7470826014427
 11
3.694981149222
 21
8.7306192721024
  0
LINE
  8
UPVC.1
  6
CONTINUOUS
 62
8
 10
3.5981767565111
 20
8.7700459849525
 11
3.6664658263429
 21
8.8383350547843
  0
LINE
  8
UPVC.1
  6
CONTINUOUS
 62
8
 10
3.6334750034468
 20
8.7496665325822
 11
3.6664658263429
 21
8.7826573554783
  0
LINE
  8
UPVC.1
  6
CONTINUOUS
 62
8
 10
3.6664658263429
 20
8.9481129348258
 11
4.0490814123151
 21
8.7272097232686
  0
ENDSEC
  0
EOF
