  0
SECTION
  2
HEADER
  9
$EXTMIN
 10
3.1155119431122
 20
8.7306192721024
  9
$EXTMAX
 10
4.6903150927185
 20
10.305422421709
  9
$LIMMIN
 10
0
 20
0
  9
$LIMMAX
 10
8.27
 20
11.69
  0
ENDSEC
  0
SECTION
  2
TABLES
  0
TABLE
  2
LTYPE
 70
9
  0
LTYPE
  2
CONTINUOUS
  3
___________________________
 70
64
 72
65
 73
0
 40
0
  0
LTYPE
  2
HIDDEN
  3
_ _ _ _ _ _ _ _ _ _ _ _ _ _ 
 70
64
 72
65
 73
2
 49
0.25
 49
-0.125
 40
0.375
  0
LTYPE
  2
DASHED
  3
__ __ __ __ __ __ __ __ __ 
 70
64
 72
65
 73
2
 49
0.5
 49
-0.25
 40
0.75
  0
LTYPE
  2
CENTER
  3
____ _ ____ _ ____ _ ____ _ 
 70
64
 72
65
 73
4
 49
1.25
 49
-0.25
 49
0.25
 49
-0.25
 40
2
  0
LTYPE
  2
PHANTOM
  3
_____ _ _ _____ _ _ _____ _ _ 
 70
64
 72
65
 73
6
 49
1.25
 49
-0.25
 49
0.25
 49
-0.25
 49
0.25
 49
-0.25
 40
2.5
  0
LTYPE
  2
DOT
  3
...........................
 70
64
 72
65
 73
2
 49
0
 49
-0.25
 40
0.25
  0
LTYPE
  2
DASHDOT
  3
__ . __ . __ . __ . __ . __ . 
 70
64
 72
65
 73
4
 49
0.5
 49
-0.25
 49
0
 49
-0.25
 40
1
  0
LTYPE
  2
DIVIDE
  3
__ . . __ . . __ . . __ . . 
 70
64
 72
65
 73
6
 49
0.5
 49
-0.25
 49
0
 49
-0.25
 49
0
 49
-0.25
 40
1.25
  0
LTYPE
  2
BORDER
  3
__ __ . __ __ . __ __ . __ __ . 
 70
64
 72
65
 73
6
 49
0.5
 49
-0.25
 49
0.5
 49
-0.25
 49
0
 49
-0.25
 40
1.75
  0
ENDTAB
  0
TABLE
  2
LAYER
 70
2
  0
LAYER
  2
0
 62
7
  6
CONTINUOUS
 70
0
  0
LAYER
  2
UPVA.1$
 62
7
  6
CONTINUOUS
 70
0
  0
ENDTAB
  0
TABLE
  2
STYLE
 70
5
  0
STYLE
  2
ptmarker
 70
1
 40
0
 50
0
 71
0
 41
0
 42
0
  3
ptmarks
  0
STYLE
  2
TXT
 70
0
 40
0
 50
0
 71
0
 41
0
 42
0
  3
TXT
  0
STYLE
  2
ITALIC
 70
0
 40
0
 50
0
 71
0
 41
0
 42
0
  3
ITALIC
  0
STYLE
  2
SIMPLEX
 70
0
 40
0
 50
0
 71
0
 41
0
 42
0
  3
SIMPLEX
  0
STYLE
  2
COMPLEX
 70
0
 40
0
 50
0
 71
0
 41
0
 42
0
  3
COMPLEX
  0
ENDTAB
  0
ENDSEC
  0
SECTION
  2
BLOCKS
  0
ENDSEC
  0
SECTION
  2
ENTITIES
  0
LINE
  8
UPVA.1$
  6
CONTINUOUS
 62
8
 10
3.1155119431122
 20
10.105640974812
 11
3.4615435595463
 21
10.305422421709
  0
LINE
  8
UPVA.1$
  6
CONTINUOUS
 62
8
 10
4.1654523497687
 20
9.256655910941
 11
4.1981714008085
 21
9.7100263343971
  0
LINE
  8
UPVA.1$
  6
CONTINUOUS
 62
8
 10
4.2505868551051
 20
9.2069115094483
 11
4.1649398223729
 21
9.2563598468515
  0
LINE
  8
UPVA.1$
  6
CONTINUOUS
 62
8
 10
4.2183801961363
 20
9.6983587809747
 11
4.6903150927185
 21
9.9708305205564
  0
LINE
  8
UPVA.1$
  6
HIDDEN
 62
8
 10
4.2679992824246
 20
8.9535213675117
 11
4.5905233432986
 21
8.7673120141459
  0
LINE
  8
UPVA.1$
  6
CONTINUOUS
 62
8
 10
4.2505868551051
 20
9.2069115094483
 11
4.6073822302047
 21
9.0009156035889
  0
LINE
  8
UPVA.1$
  6
CONTINUOUS
 62
8
 10
4.2183801961363
 20
9.6983587809747
 11
4.2511403955185
 21
9.2065919227416
  0
LINE
  8
UPVA.1$
  6
CONTINUOUS
 62
8
 10
4.6401424295869
 20
9.4548542419579
 11
4.2183801961363
 21
9.6983587809747
  0
LINE
  8
UPVA.1$
  6
CONTINUOUS
 62
8
 10
4.661477073783
 20
9.977515989406
 11
4.2397148403324
 21
10.221020528423
  0
LINE
  8
UPVA.1$
  6
CONTINUOUS
 62
8
 10
4.2397148403324
 20
10.221020528423
 11
4.3859032077586
 21
10.305422421709
  0
LINE
  8
UPVA.1$
  6
CONTINUOUS
 62
8
 10
3.7982387151169
 20
9.9894692755338
 11
4.3454856171031
 21
10.305422421709
  0
LINE
  8
UPVA.1$
  6
CONTINUOUS
 62
8
 10
3.3764764816663
 20
10.232973814551
 11
3.5019611502018
 21
10.305422421709
  0
LINE
  8
UPVA.1$
  6
CONTINUOUS
 62
8
 10
3.7646913933791
 20
9.0252766211484
 11
4.165452361536
 21
9.2566560739945
  0
LINE
  8
UPVA.1$
  6
HIDDEN
 62
8
 10
3.7477914934554
 20
8.7911047386627
 11
4.2591513588761
 21
9.0863384946161
  0
LINE
  8
UPVA.1$
  6
CONTINUOUS
 62
8
 10
3.4083675326576
 20
9.2310002980546
 11
3.7646913933791
 21
9.0252766211484
  0
LINE
  8
UPVA.1$
  6
CONTINUOUS
 62
8
 10
3.1155119431122
 20
9.1608167194032
 11
3.3227204999255
 21
9.2804486354578
  0
LINE
  8
UPVA.1$
  6
HIDDEN
 62
8
 10
3.1155119431122
 20
8.9364021549474
 11
3.4164195090329
 21
9.1101312191329
  0
LINE
  8
UPVA.1$
  6
CONTINUOUS
 62
8
 10
3.7974105797437
 20
9.4786469664747
 11
4.6409705649602
 21
9.965676551017
  0
LINE
  8
UPVA.1$
  6
CONTINUOUS
 62
8
 10
4.6409705649602
 20
9.965676551017
 11
4.2192083315095
 21
10.209181090034
  0
LINE
  8
UPVA.1$
  6
CONTINUOUS
 62
8
 10
3.7974105797437
 20
9.4786469664747
 11
3.3756483462931
 21
9.7221515054915
  0
LINE
  8
UPVA.1$
  6
CONTINUOUS
 62
8
 10
3.3227204999255
 20
9.2804486354578
 11
3.3554395509653
 21
9.7338190589139
  0
LINE
  8
UPVA.1$
  6
CONTINUOUS
 62
8
 10
3.7646913933791
 20
9.0252766211484
 11
3.7974105797437
 21
9.4786469664747
  0
LINE
  8
UPVA.1$
  6
HIDDEN
 62
8
 10
3.4252674325814
 20
8.9773140920285
 11
3.7477914934554
 21
8.7911047386627
  0
LINE
  8
UPVA.1$
  6
CONTINUOUS
 62
8
 10
3.3756483462931
 20
9.7221515054915
 11
3.4083675326576
 21
9.2310002980546
  0
LINE
  8
UPVA.1$
  6
CONTINUOUS
 62
8
 10
3.3756483462931
 20
9.7221515054915
 11
3.3554395509653
 21
9.7338190589139
  0
LINE
  8
UPVA.1$
  6
CONTINUOUS
 62
8
 10
3.4083675326576
 20
9.2310002980546
 11
3.3227204999255
 21
9.2804486354578
  0
LINE
  8
UPVA.1$
  6
CONTINUOUS
 62
8
 10
3.7982387151169
 20
9.9894692755338
 11
3.3764764816663
 21
10.232973814551
  0
LINE
  8
UPVA.1$
  6
CONTINUOUS
 62
8
 10
3.3756483462931
 20
9.7221515054915
 11
4.2192083315095
 21
10.209181090034
  0
LINE
  8
UPVA.1$
  6
CONTINUOUS
 62
8
 10
3.7777322062941
 20
9.9776298371448
 11
3.3559699728435
 21
10.221134376162
  0
LINE
  8
UPVA.1$
  6
CONTINUOUS
 62
8
 10
3.1155119431122
 20
9.5952967899339
 11
3.7777322062941
 21
9.9776298371448
  0
LINE
  8
UPVA.1$
  6
CONTINUOUS
 62
8
 10
3.1155119431122
 20
10.082305867967
 11
3.3559699728435
 21
10.221134376162
  0
LINE
  8
UPVA.1$
  6
CONTINUOUS
 62
8
 10
3.1155119431122
 20
10.305422421709
 11
3.1155119431122
 21
8.7306192721024
  0
LINE
  8
UPVA.1$
  6
CONTINUOUS
 62
8
 10
3.1155119431122
 20
8.7306192721024
 11
4.6903150927185
 21
8.7306192721024
  0
LINE
  8
UPVA.1$
  6
CONTINUOUS
 62
8
 10
4.6903150927185
 20
8.7306192721024
 11
4.6903150927185
 21
10.305422421709
  0
LINE
  8
UPVA.1$
  6
CONTINUOUS
 62
8
 10
4.6903150927185
 20
10.305422421709
 11
3.1155119431122
 21
10.305422421709
  0
LINE
  8
UPVA.1$
  6
CONTINUOUS
 62
8
 10
3.7921703894645
 20
9.4060367600352
 11
3.9568097494323
 21
9.570676120003
  0
LINE
  8
UPVA.1$
  6
CONTINUOUS
 62
8
 10
3.7869301991853
 20
9.3334265535957
 11
4.1162089191209
 21
9.6627052735314
  0
LINE
  8
UPVA.1$
  6
CONTINUOUS
 62
8
 10
3.781690008906
 20
9.2608163471562
 11
4.1956257094081
 21
9.6747520476582
  0
LINE
  8
UPVA.1$
  6
CONTINUOUS
 62
8
 10
3.7764498186268
 20
9.1882061407166
 11
4.1903855434611
 21
9.6021418655509
  0
LINE
  8
UPVA.1$
  6
CONTINUOUS
 62
8
 10
3.7712096283476
 20
9.1155959342771
 11
4.1851453775141
 21
9.5295316834436
  0
LINE
  8
UPVA.1$
  6
CONTINUOUS
 62
8
 10
3.7542745174823
 20
9.0312908072515
 11
3.7659694380684
 21
9.0429857278376
  0
CIRCLE
  8
UPVA.1$
  6
CONTINUOUS
 62
8
 10
3.6607422595034
 20
9.3754417540605
 40
0.0060976377952756
  0
CIRCLE
  8
UPVA.1$
  6
CONTINUOUS
 62
8
 10
3.5474159772342
 20
9.9861879506393
 40
0.0059055118110236
  0
CIRCLE
  8
UPVA.1$
  6
CONTINUOUS
 62
8
 10
3.2294691820807
 20
9.727236128026
 40
0.0059055118110236
  0
CIRCLE
  8
UPVA.1$
  6
CONTINUOUS
 62
8
 10
3.5169474125505
 20
9.4821153085618
 40
0.0060976377952756
  0
CIRCLE
  8
UPVA.1$
  6
CONTINUOUS
 62
8
 10
3.1946461943912
 20
9.9861879506393
 40
0.0039370078740157
  0
CIRCLE
  8
UPVA.1$
  6
CONTINUOUS
 62
8
 10
3.4621362916
 20
9.2697222148784
 40
0.0060976377952756
  0
LINE
  8
UPVA.1$
  6
HIDDEN
 62
8
 10
4.2511403955185
 20
9.2065919227416
 11
4.2679992824246
 21
8.9535213675117
  0
LINE
  8
UPVA.1$
  6
HIDDEN
 62
8
 10
3.7646913933791
 20
9.0252766211484
 11
3.7477914934554
 21
8.7911047386627
  0
LINE
  8
UPVA.1$
  6
HIDDEN
 62
8
 10
3.4252674325814
 20
8.9773140920285
 11
3.4083675326576
 21
9.2310002980546
  0
LINE
  8
UPVA.1$
  6
CONTINUOUS
 62
8
 10
3.4064620208466
 20
9.2596041397376
 11
3.3246260038554
 21
9.3068521861769
  0
LINE
  8
UPVA.1$
  6
CONTINUOUS
 62
8
 10
3.4045565090356
 20
9.2882079814206
 11
3.3265315077854
 21
9.3332557368959
  0
LINE
  8
UPVA.1$
  6
CONTINUOUS
 62
8
 10
3.4026509972246
 20
9.3168118231036
 11
3.3284370117153
 21
9.359659287615
  0
LINE
  8
UPVA.1$
  6
CONTINUOUS
 62
8
 10
3.3969344617915
 20
9.4026233481526
 11
3.3341535235051
 21
9.4388699397722
  0
LINE
  8
UPVA.1$
  6
CONTINUOUS
 62
8
 10
3.3988399736025
 20
9.3740195064696
 11
3.3322480195751
 21
9.4124663890532
  0
LINE
  8
UPVA.1$
  6
CONTINUOUS
 62
8
 10
3.4007454854136
 20
9.3454156647866
 11
3.3303425156452
 21
9.3860628383341
  0
LINE
  8
UPVA.1$
  6
CONTINUOUS
 62
8
 10
3.3912179263584
 20
9.4884348732016
 11
3.3398700352949
 21
9.5180805919295
  0
LINE
  8
UPVA.1$
  6
CONTINUOUS
 62
8
 10
3.3931234381695
 20
9.4598310315186
 11
3.3379645313649
 21
9.4916770412104
  0
LINE
  8
UPVA.1$
  6
CONTINUOUS
 62
8
 10
3.3950289499805
 20
9.4312271898356
 11
3.336059027435
 21
9.4652734904913
  0
LINE
  8
UPVA.1$
  6
CONTINUOUS
 62
8
 10
3.3855013909254
 20
9.5742463982506
 11
3.3455865470847
 21
9.5972912440867
  0
LINE
  8
UPVA.1$
  6
CONTINUOUS
 62
8
 10
3.3874069027364
 20
9.5456425565676
 11
3.3436810431547
 21
9.5708876933676
  0
LINE
  8
UPVA.1$
  6
CONTINUOUS
 62
8
 10
3.3893124145474
 20
9.5170387148846
 11
3.3417755392248
 21
9.5444841426485
  0
LINE
  8
UPVA.1$
  6
CONTINUOUS
 62
8
 10
3.3797848554923
 20
9.6600579232996
 11
3.3513030588744
 21
9.6765018962439
  0
LINE
  8
UPVA.1$
  6
CONTINUOUS
 62
8
 10
3.3816903673033
 20
9.6314540816166
 11
3.3493975549445
 21
9.6500983455248
  0
LINE
  8
UPVA.1$
  6
CONTINUOUS
 62
8
 10
3.3835958791143
 20
9.6028502399336
 11
3.3474920510146
 21
9.6236947948058
  0
LINE
  8
UPVA.1$
  6
CONTINUOUS
 62
8
 10
3.3759738318702
 20
9.7172656066656
 11
3.3551140667343
 21
9.7293089976821
  0
LINE
  8
UPVA.1$
  6
CONTINUOUS
 62
8
 10
3.3778793436813
 20
9.6886617649826
 11
3.3532085628044
 21
9.702905446963
  0
LINE
  8
UPVA.1$
  6
CONTINUOUS
 62
8
 10
4.2183801961363
 20
9.6983587809747
 11
4.1981714008085
 21
9.7100263343971
  0
LINE
  8
UPVA.1$
  6
CONTINUOUS
 62
8
 10
4.2396663116347
 20
9.3788306236358
 11
4.1768853733483
 21
9.4150772152554
  0
LINE
  8
UPVA.1$
  6
CONTINUOUS
 62
8
 10
4.2415718234458
 20
9.3502267819528
 11
4.1749798694184
 21
9.3886736645364
  0
LINE
  8
UPVA.1$
  6
CONTINUOUS
 62
8
 10
4.2434773352568
 20
9.3216229402698
 11
4.1730743654884
 21
9.3622701138173
  0
LINE
  8
UPVA.1$
  6
CONTINUOUS
 62
8
 10
4.2339497762017
 20
9.4646421486848
 11
4.1826018851381
 21
9.4942878674127
  0
LINE
  8
UPVA.1$
  6
CONTINUOUS
 62
8
 10
4.2358552880127
 20
9.4360383070018
 11
4.1806963812082
 21
9.4678843166936
  0
LINE
  8
UPVA.1$
  6
CONTINUOUS
 62
8
 10
4.2377607998237
 20
9.4074344653188
 11
4.1787908772782
 21
9.4414807659745
  0
LINE
  8
UPVA.1$
  6
CONTINUOUS
 62
8
 10
4.2282332407686
 20
9.5504536737338
 11
4.1883183969279
 21
9.5734985195699
  0
LINE
  8
UPVA.1$
  6
CONTINUOUS
 62
8
 10
4.2301387525796
 20
9.5218498320508
 11
4.1864128929979
 21
9.5470949688508
  0
LINE
  8
UPVA.1$
  6
CONTINUOUS
 62
8
 10
4.2320442643906
 20
9.4932459903678
 11
4.184507389068
 21
9.5206914181318
  0
LINE
  8
UPVA.1$
  6
CONTINUOUS
 62
8
 10
4.2225167053355
 20
9.6362651987828
 11
4.1940349087177
 21
9.6527091717271
  0
LINE
  8
UPVA.1$
  6
CONTINUOUS
 62
8
 10
4.2244222171465
 20
9.6076613570998
 11
4.1921294047877
 21
9.6263056210081
  0
LINE
  8
UPVA.1$
  6
CONTINUOUS
 62
8
 10
4.2263277289576
 20
9.5790575154168
 11
4.1902239008578
 21
9.599902070289
  0
LINE
  8
UPVA.1$
  6
CONTINUOUS
 62
8
 10
4.2187056817135
 20
9.6934728821488
 11
4.1978459165775
 21
9.7055162731653
  0
LINE
  8
UPVA.1$
  6
CONTINUOUS
 62
8
 10
4.2206111935245
 20
9.6648690404658
 11
4.1959404126476
 21
9.6791127224462
  0
LINE
  8
UPVA.1$
  6
CONTINUOUS
 62
8
 10
4.2453828470678
 20
9.2930190985868
 11
4.1711688615585
 21
9.3358665630982
  0
LINE
  8
UPVA.1$
  6
CONTINUOUS
 62
8
 10
4.2472883588788
 20
9.2644152569038
 11
4.1692633576286
 21
9.3094630123791
  0
LINE
  8
UPVA.1$
  6
CONTINUOUS
 62
8
 10
4.2491938706898
 20
9.2358114152208
 11
4.1673578536986
 21
9.2830594616601
  0
LINE
  8
UPVA.1$
  6
CONTINUOUS
 62
8
 10
4.6401424295869
 20
9.4548542419579
 11
4.6903150927185
 21
9.4838214425229
  0
LINE
  8
UPVA.1$
  6
CONTINUOUS
 62
8
 10
4.6069107158265
 20
9.001187832542
 11
4.6903150927185
 21
9.0493413719922
  0
LINE
  8
UPVA.1$
  6
CONTINUOUS
 62
8
 10
4.607423231455
 20
9.0014837335781
 11
4.6401424295869
 21
9.4548542419579
  0
LINE
  8
UPVA.1$
  6
CONTINUOUS
 62
8
 10
4.661477073783
 20
9.977515989406
 11
4.6903150927185
 21
9.9941656274013
  0
LINE
  8
UPVA.1$
  6
CONTINUOUS
 62
8
 10
3.7659694380684
 20
9.0429857278376
 11
4.1799051872348
 21
9.4569214770041
  0
LINE
  8
UPVA.1$
  6
CONTINUOUS
 62
8
 10
3.8852142529646
 20
9.0948605265735
 11
4.1746649969556
 21
9.3843112705646
  0
LINE
  8
UPVA.1$
  6
CONTINUOUS
 62
8
 10
4.0446134226532
 20
9.1868896801018
 11
4.1694248066764
 21
9.3117010641251
  0
LINE
  8
UPVA.1$
  6
CONTINUOUS
 62
8
 10
3.1155119431122
 20
9.5285328718826
 11
3.2734770692777
 21
9.6864979980481
  0
LINE
  8
UPVA.1$
  6
CONTINUOUS
 62
8
 10
3.1155119431122
 20
9.4611628557223
 11
3.3528938595649
 21
9.698544772175
  0
LINE
  8
UPVA.1$
  6
CONTINUOUS
 62
8
 10
3.1155119431122
 20
9.393792839562
 11
3.3476536936179
 21
9.6259345900677
  0
LINE
  8
UPVA.1$
  6
CONTINUOUS
 62
8
 10
3.1155119431122
 20
9.3264228234017
 11
3.3424135276708
 21
9.5533244079604
  0
LINE
  8
UPVA.1$
  6
CONTINUOUS
 62
8
 10
3.1155119431122
 20
9.2590528072414
 11
3.3371733373916
 21
9.4807142015209
  0
LINE
  8
UPVA.1$
  6
CONTINUOUS
 62
8
 10
3.1155119431122
 20
9.1916827910811
 11
3.3319331471124
 21
9.4081039950814
  0
LINE
  8
UPVA.1$
  6
CONTINUOUS
 62
8
 10
3.2018815728099
 20
9.2106824046186
 11
3.3266929568332
 21
9.3354937886419
  0
LINE
  8
UPVA.1$
  6
CONTINUOUS
 62
8
 10
4.6342280952177
 20
9.3729028209946
 11
4.6903150927185
 21
9.4289898184953
  0
LINE
  8
UPVA.1$
  6
CONTINUOUS
 62
8
 10
4.6289879049385
 20
9.3002926145551
 11
4.6903150927185
 21
9.361619802335
  0
LINE
  8
UPVA.1$
  6
CONTINUOUS
 62
8
 10
4.6237477146593
 20
9.2276824081156
 11
4.6903150927185
 21
9.2942497861747
  0
LINE
  8
UPVA.1$
  6
CONTINUOUS
 62
8
 10
4.6185075243801
 20
9.155072201676
 11
4.6903150927185
 21
9.2268797700145
  0
LINE
  8
UPVA.1$
  6
CONTINUOUS
 62
8
 10
4.6132673341008
 20
9.0824619952365
 11
4.6903150927185
 21
9.1595097538542
  0
LINE
  8
UPVA.1$
  6
CONTINUOUS
 62
8
 10
4.6080271438216
 20
9.009851788797
 11
4.6903150927185
 21
9.0921397376939
  0
LINE
  8
UPVA.1$
  6
HIDDEN
 62
8
 10
4.6073822302047
 20
9.0009156035889
 11
4.5905233432986
 21
8.7673120141459
  0
LINE
  8
UPVA.1$
  6
HIDDEN
 62
8
 10
4.5905233432986
 20
8.7673120141459
 11
4.6903150927185
 21
8.8249268075364
  0
CIRCLE
  8
UPVA.1$
  6
CONTINUOUS
 62
8
 10
3.6265696544517
 20
9.2902763852348
 40
0.0060976377952756
  0
CIRCLE
  8
UPVA.1$
  6
CONTINUOUS
 62
8
 10
3.4539146234574
 20
9.4629314162291
 40
0.0060976377952756
  0
CIRCLE
  8
UPVA.1$
  6
CONTINUOUS
 62
8
 10
3.4347307311247
 20
9.5835158823204
 40
0.0060976377952756
  0
CIRCLE
  8
UPVA.1$
  6
CONTINUOUS
 62
8
 10
3.5251690806931
 20
9.5615914339402
 40
0.0060976377952756
  0
CIRCLE
  8
UPVA.1$
  6
CONTINUOUS
 62
8
 10
3.5005040762654
 20
9.3396063940903
 40
0.0060976377952756
  0
CIRCLE
  8
UPVA.1$
  6
CONTINUOUS
 62
8
 10
3.6868618874973
 20
9.2382058203318
 40
0.0060976377952756
  0
CIRCLE
  8
UPVA.1$
  6
CONTINUOUS
 62
8
 10
3.5909424258338
 20
9.3670119545656
 40
0.0060976377952756
  0
CIRCLE
  8
UPVA.1$
  6
CONTINUOUS
 62
8
 10
3.7142674479726
 20
9.120361910288
 40
0.0060976377952756
  0
CIRCLE
  8
UPVA.1$
  6
CONTINUOUS
 62
8
 10
3.5991640939764
 20
9.1751730312386
 40
0.0060976377952756
  0
CIRCLE
  8
UPVA.1$
  6
CONTINUOUS
 62
8
 10
3.5580557532635
 20
9.2272435961417
 40
0.0060976377952756
  0
CIRCLE
  8
UPVA.1$
  6
CONTINUOUS
 62
8
 10
3.7389324524004
 20
9.4026391831835
 40
0.0060976377952756
  0
CIRCLE
  8
UPVA.1$
  6
CONTINUOUS
 62
8
 10
3.6430129907369
 20
9.4382664118014
 40
0.0060976377952756
  0
CIRCLE
  8
UPVA.1$
  6
CONTINUOUS
 62
8
 10
4.3199675757055
 20
10.077485747948
 40
0.0059055118110236
  0
CIRCLE
  8
UPVA.1$
  6
CONTINUOUS
 62
8
 10
4.3254114465716
 20
9.8329064826456
 40
0.0039370078740157
  0
CIRCLE
  8
UPVA.1$
  6
CONTINUOUS
 62
8
 10
4.002020780552
 20
9.8185339253351
 40
0.0059055118110236
  0
CIRCLE
  8
UPVA.1$
  6
CONTINUOUS
 62
8
 10
3.7252296721627
 20
10.156292096254
 40
0.0059055118110236
  0
CIRCLE
  8
UPVA.1$
  6
CONTINUOUS
 62
8
 10
3.9519288244082
 20
10.109032866373
 40
0.0039370078740157
  0
CIRCLE
  8
UPVA.1$
  6
CONTINUOUS
 62
8
 10
3.5991640939764
 20
10.26043322606
 40
0.0059055118110236
  0
CIRCLE
  8
UPVA.1$
  6
CONTINUOUS
 62
8
 10
4.5857642710868
 20
9.5259642053223
 40
0.0059055118110236
  0
CIRCLE
  8
UPVA.1$
  6
CONTINUOUS
 62
8
 10
4.5195397576778
 20
9.7374998178109
 40
0.0039370078740157
  0
CIRCLE
  8
UPVA.1$
  6
CONTINUOUS
 62
8
 10
4.6433159480849
 20
9.876755379406
 40
0.0059055118110236
  0
CIRCLE
  8
UPVA.1$
  6
CONTINUOUS
 62
8
 10
3.6621968830696
 20
9.6547703395562
 40
0.0039370078740157
  0
CIRCLE
  8
UPVA.1$
  6
CONTINUOUS
 62
8
 10
3.8211491338262
 20
9.8438687068357
 40
0.0059055118110236
  0
CIRCLE
  8
UPVA.1$
  6
CONTINUOUS
 62
8
 10
4.0705397341514
 20
10.27139545025
 40
0.0059055118110236
  0
CIRCLE
  8
UPVA.1$
  6
CONTINUOUS
 62
8
 10
4.3450952909483
 20
9.3392949728283
 40
0.0060976377952756
  0
CIRCLE
  8
UPVA.1$
  6
CONTINUOUS
 62
8
 10
4.4888901379011
 20
9.232621418327
 40
0.0060976377952756
  0
CIRCLE
  8
UPVA.1$
  6
CONTINUOUS
 62
8
 10
4.5437012588517
 20
9.4450145120105
 40
0.0060976377952756
  0
CIRCLE
  8
UPVA.1$
  6
CONTINUOUS
 62
8
 10
4.3792678959999
 20
9.424460341654
 40
0.0060976377952756
  0
CIRCLE
  8
UPVA.1$
  6
CONTINUOUS
 62
8
 10
4.5519229269943
 20
9.2518053106597
 40
0.0060976377952756
  0
CIRCLE
  8
UPVA.1$
  6
CONTINUOUS
 62
8
 10
4.571106819327
 20
9.1312208445684
 40
0.0060976377952756
  0
CIRCLE
  8
UPVA.1$
  6
CONTINUOUS
 62
8
 10
4.4806684697585
 20
9.1531452929486
 40
0.0060976377952756
  0
CIRCLE
  8
UPVA.1$
  6
CONTINUOUS
 62
8
 10
4.4240714642826
 20
9.1409160806445
 40
0.0060976377952756
  0
CIRCLE
  8
UPVA.1$
  6
CONTINUOUS
 62
8
 10
4.3189756629543
 20
9.4765309065571
 40
0.0060976377952756
  0
CIRCLE
  8
UPVA.1$
  6
CONTINUOUS
 62
8
 10
4.4240714642826
 20
9.2861655511635
 40
0.0060976377952756
  0
CIRCLE
  8
UPVA.1$
  6
CONTINUOUS
 62
8
 10
4.291570102479
 20
9.5943748166008
 40
0.0060976377952756
  0
CIRCLE
  8
UPVA.1$
  6
CONTINUOUS
 62
8
 10
4.2843031058586
 20
9.5465183756788
 40
0.0060976377952756
  0
CIRCLE
  8
UPVA.1$
  6
CONTINUOUS
 62
8
 10
4.4477817971882
 20
9.4874931307472
 40
0.0060976377952756
  0
CIRCLE
  8
UPVA.1$
  6
CONTINUOUS
 62
8
 10
4.2669050980512
 20
9.3120975437053
 40
0.0060976377952756
  0
CIRCLE
  8
UPVA.1$
  6
CONTINUOUS
 62
8
 10
4.3391142268092
 20
9.2149110939278
 40
0.0060976377952756
  0
ENDSEC
  0
EOF
