  0
SECTION
  2
HEADER
  9
$EXTMIN
 10
2.6081261696115
 20
9.1844057006056
  9
$EXTMAX
 10
4.1829293192178
 20
10.759208850212
  9
$LIMMIN
 10
0
 20
0
  9
$LIMMAX
 10
8.2666666666667
 20
11.69
  0
ENDSEC
  0
SECTION
  2
TABLES
  0
TABLE
  2
LTYPE
 70
9
  0
LTYPE
  2
CONTINUOUS
  3
___________________________
 70
64
 72
65
 73
0
 40
0
  0
LTYPE
  2
HIDDEN
  3
_ _ _ _ _ _ _ _ _ _ _ _ _ _ 
 70
64
 72
65
 73
2
 49
0.25
 49
-0.125
 40
0.375
  0
LTYPE
  2
DASHED
  3
__ __ __ __ __ __ __ __ __ 
 70
64
 72
65
 73
2
 49
0.5
 49
-0.25
 40
0.75
  0
LTYPE
  2
CENTER
  3
____ _ ____ _ ____ _ ____ _ 
 70
64
 72
65
 73
4
 49
1.25
 49
-0.25
 49
0.25
 49
-0.25
 40
2
  0
LTYPE
  2
PHANTOM
  3
_____ _ _ _____ _ _ _____ _ _ 
 70
64
 72
65
 73
6
 49
1.25
 49
-0.25
 49
0.25
 49
-0.25
 49
0.25
 49
-0.25
 40
2.5
  0
LTYPE
  2
DOT
  3
...........................
 70
64
 72
65
 73
2
 49
0
 49
-0.25
 40
0.25
  0
LTYPE
  2
DASHDOT
  3
__ . __ . __ . __ . __ . __ . 
 70
64
 72
65
 73
4
 49
0.5
 49
-0.25
 49
0
 49
-0.25
 40
1
  0
LTYPE
  2
DIVIDE
  3
__ . . __ . . __ . . __ . . 
 70
64
 72
65
 73
6
 49
0.5
 49
-0.25
 49
0
 49
-0.25
 49
0
 49
-0.25
 40
1.25
  0
LTYPE
  2
BORDER
  3
__ __ . __ __ . __ __ . __ __ . 
 70
64
 72
65
 73
6
 49
0.5
 49
-0.25
 49
0.5
 49
-0.25
 49
0
 49
-0.25
 40
1.75
  0
ENDTAB
  0
TABLE
  2
LAYER
 70
1
  0
LAYER
  2
ERSR.1
 62
7
  6
CONTINUOUS
 70
0
  0
ENDTAB
  0
TABLE
  2
STYLE
 70
5
  0
STYLE
  2
ptmarker
 70
1
 40
0
 50
0
 71
0
 41
0
 42
0
  3
ptmarks
  0
STYLE
  2
TXT
 70
0
 40
0
 50
0
 71
0
 41
0
 42
0
  3
TXT
  0
STYLE
  2
ITALIC
 70
0
 40
0
 50
0
 71
0
 41
0
 42
0
  3
ITALIC
  0
STYLE
  2
SIMPLEX
 70
0
 40
0
 50
0
 71
0
 41
0
 42
0
  3
SIMPLEX
  0
STYLE
  2
COMPLEX
 70
0
 40
0
 50
0
 71
0
 41
0
 42
0
  3
COMPLEX
  0
ENDTAB
  0
ENDSEC
  0
SECTION
  2
BLOCKS
  0
ENDSEC
  0
SECTION
  2
ENTITIES
  0
LINE
  8
ERSR.1
  6
CONTINUOUS
 62
8
 10
3.3783969944146
 20
10.248362475439
 11
4.1033162978885
 21
10.66689483044
  0
LINE
  8
ERSR.1
  6
CONTINUOUS
 62
8
 10
3.3955277444146
 20
10.238472032315
 11
4.1204470478885
 21
10.657004387317
  0
LINE
  8
ERSR.1
  6
CONTINUOUS
 62
8
 10
3.3955277444146
 20
10.227106869536
 11
4.1829293192178
 21
9.7725003583629
  0
LINE
  8
ERSR.1
  6
CONTINUOUS
 62
8
 10
2.6081261696115
 20
10.681713380709
 11
3.3783969944146
 21
10.23699731266
  0
LINE
  8
ERSR.1
  6
CONTINUOUS
 62
8
 10
3.3955277444146
 20
10.002697420717
 11
3.3955277444146
 21
10.238472032315
  0
LINE
  8
ERSR.1
  6
CONTINUOUS
 62
8
 10
3.3783969944146
 20
10.012587863841
 11
3.3783969944146
 21
10.248362475439
  0
LINE
  8
ERSR.1
  6
CONTINUOUS
 62
8
 10
2.6081261696115
 20
10.45730393189
 11
3.3783969944146
 21
10.012587863841
  0
LINE
  8
ERSR.1
  6
CONTINUOUS
 62
8
 10
2.6081261696115
 20
10.759208850212
 11
4.1829293192178
 21
10.759208850212
  0
LINE
  8
ERSR.1
  6
CONTINUOUS
 62
8
 10
4.1829293192178
 20
10.759208850212
 11
4.1829293192178
 21
9.1844057006056
  0
LINE
  8
ERSR.1
  6
CONTINUOUS
 62
8
 10
2.6081261696115
 20
9.1844057006056
 11
2.6081261696115
 21
10.759208850212
  0
LINE
  8
ERSR.1
  6
CONTINUOUS
 62
8
 10
2.6081261696115
 20
9.1844057006056
 11
4.1829293192178
 21
9.1844057006056
  0
LINE
  8
ERSR.1
  6
CONTINUOUS
 62
8
 10
4.1829293192178
 20
9.4117089561921
 11
2.6081261696115
 21
10.320921978538
  0
LINE
  8
ERSR.1
  6
CONTINUOUS
 62
8
 10
4.1829293192178
 20
9.1844057006056
 11
2.6081261696115
 21
10.093618722951
  0
LINE
  8
ERSR.1
  6
CONTINUOUS
 62
8
 10
2.6278112089815
 20
10.309556815759
 11
2.6278112089815
 21
10.445938769111
  0
LINE
  8
ERSR.1
  6
CONTINUOUS
 62
8
 10
2.6474962483516
 20
10.298191652979
 11
2.6474962483516
 21
10.434573606331
  0
LINE
  8
ERSR.1
  6
CONTINUOUS
 62
8
 10
2.6671812877217
 20
10.2868264902
 11
2.6671812877217
 21
10.423208443552
  0
LINE
  8
ERSR.1
  6
CONTINUOUS
 62
8
 10
2.6868663270918
 20
10.275461327421
 11
2.6868663270918
 21
10.411843280773
  0
LINE
  8
ERSR.1
  6
CONTINUOUS
 62
8
 10
2.7065513664619
 20
10.264096164641
 11
2.7065513664619
 21
10.400478117993
  0
LINE
  8
ERSR.1
  6
CONTINUOUS
 62
8
 10
2.7262364058319
 20
10.252731001862
 11
2.7262364058319
 21
10.389112955214
  0
LINE
  8
ERSR.1
  6
CONTINUOUS
 62
8
 10
2.745921445202
 20
10.241365839083
 11
2.745921445202
 21
10.377747792435
  0
LINE
  8
ERSR.1
  6
CONTINUOUS
 62
8
 10
2.7656064845721
 20
10.230000676303
 11
2.7656064845721
 21
10.366382629655
  0
LINE
  8
ERSR.1
  6
CONTINUOUS
 62
8
 10
2.7852915239422
 20
10.218635513524
 11
2.7852915239422
 21
10.355017466876
  0
LINE
  8
ERSR.1
  6
CONTINUOUS
 62
8
 10
2.8049765633123
 20
10.207270350745
 11
2.8049765633123
 21
10.343652304097
  0
LINE
  8
ERSR.1
  6
CONTINUOUS
 62
8
 10
2.8246616026823
 20
10.195905187965
 11
2.8246616026823
 21
10.332287141317
  0
LINE
  8
ERSR.1
  6
CONTINUOUS
 62
8
 10
2.8443466420524
 20
10.184540025186
 11
2.8443466420524
 21
10.320921978538
  0
LINE
  8
ERSR.1
  6
CONTINUOUS
 62
8
 10
2.8640316814225
 20
10.173174862407
 11
2.8640316814225
 21
10.309556815759
  0
LINE
  8
ERSR.1
  6
CONTINUOUS
 62
8
 10
2.8837167207926
 20
10.161809699627
 11
2.8837167207926
 21
10.298191652979
  0
LINE
  8
ERSR.1
  6
CONTINUOUS
 62
8
 10
2.9034017601626
 20
10.150444536848
 11
2.9034017601626
 21
10.2868264902
  0
LINE
  8
ERSR.1
  6
CONTINUOUS
 62
8
 10
2.9230867995327
 20
10.139079374069
 11
2.9230867995327
 21
10.275461327421
  0
LINE
  8
ERSR.1
  6
CONTINUOUS
 62
8
 10
2.9427718389028
 20
10.127714211289
 11
2.9427718389028
 21
10.264096164641
  0
LINE
  8
ERSR.1
  6
CONTINUOUS
 62
8
 10
2.9624568782729
 20
10.11634904851
 11
2.9624568782729
 21
10.252731001862
  0
LINE
  8
ERSR.1
  6
CONTINUOUS
 62
8
 10
2.982141917643
 20
10.104983885731
 11
2.982141917643
 21
10.241365839083
  0
LINE
  8
ERSR.1
  6
CONTINUOUS
 62
8
 10
3.001826957013
 20
10.093618722951
 11
3.001826957013
 21
10.230000676303
  0
LINE
  8
ERSR.1
  6
CONTINUOUS
 62
8
 10
3.0215119963831
 20
10.082253560172
 11
3.0215119963831
 21
10.218635513524
  0
LINE
  8
ERSR.1
  6
CONTINUOUS
 62
8
 10
3.0411970357532
 20
10.070888397393
 11
3.0411970357532
 21
10.207270350745
  0
LINE
  8
ERSR.1
  6
CONTINUOUS
 62
8
 10
3.0608820751233
 20
10.059523234614
 11
3.0608820751233
 21
10.195905187965
  0
LINE
  8
ERSR.1
  6
CONTINUOUS
 62
8
 10
3.0805671144934
 20
10.048158071834
 11
3.0805671144934
 21
10.184540025186
  0
LINE
  8
ERSR.1
  6
CONTINUOUS
 62
8
 10
3.1002521538634
 20
10.036792909055
 11
3.1002521538634
 21
10.173174862407
  0
LINE
  8
ERSR.1
  6
CONTINUOUS
 62
8
 10
3.1199371932335
 20
10.025427746276
 11
3.1199371932335
 21
10.161809699627
  0
LINE
  8
ERSR.1
  6
CONTINUOUS
 62
8
 10
3.1396222326036
 20
10.014062583496
 11
3.1396222326036
 21
10.150444536848
  0
LINE
  8
ERSR.1
  6
CONTINUOUS
 62
8
 10
3.1593072719737
 20
10.002697420717
 11
3.1593072719737
 21
10.139079374069
  0
LINE
  8
ERSR.1
  6
CONTINUOUS
 62
8
 10
3.1789923113438
 20
9.9913322579376
 11
3.1789923113438
 21
10.127714211289
  0
LINE
  8
ERSR.1
  6
CONTINUOUS
 62
8
 10
3.1986773507138
 20
9.9799670951582
 11
3.1986773507138
 21
10.11634904851
  0
LINE
  8
ERSR.1
  6
CONTINUOUS
 62
8
 10
3.2183623900839
 20
9.9686019323789
 11
3.2183623900839
 21
10.104983885731
  0
LINE
  8
ERSR.1
  6
CONTINUOUS
 62
8
 10
3.238047429454
 20
9.9572367695996
 11
3.238047429454
 21
10.093618722951
  0
LINE
  8
ERSR.1
  6
CONTINUOUS
 62
8
 10
3.2577324688241
 20
9.9458716068203
 11
3.2577324688241
 21
10.082253560172
  0
LINE
  8
ERSR.1
  6
CONTINUOUS
 62
8
 10
3.2774175081941
 20
9.9345064440409
 11
3.2774175081941
 21
10.070888397393
  0
LINE
  8
ERSR.1
  6
CONTINUOUS
 62
8
 10
3.2971025475642
 20
9.9231412812616
 11
3.2971025475642
 21
10.059523234613
  0
LINE
  8
ERSR.1
  6
CONTINUOUS
 62
8
 10
3.3167875869343
 20
9.9117761184823
 11
3.3167875869343
 21
10.048158071834
  0
LINE
  8
ERSR.1
  6
CONTINUOUS
 62
8
 10
3.3364726263044
 20
9.900410955703
 11
3.3364726263044
 21
10.036792909055
  0
LINE
  8
ERSR.1
  6
CONTINUOUS
 62
8
 10
3.3561576656745
 20
9.8890457929236
 11
3.3561576656745
 21
10.025427746276
  0
LINE
  8
ERSR.1
  6
CONTINUOUS
 62
8
 10
3.3758427050445
 20
9.8776806301443
 11
3.3758427050445
 21
10.014062583496
  0
LINE
  8
ERSR.1
  6
CONTINUOUS
 62
8
 10
3.3955277444146
 20
9.866315467365
 11
3.3955277444146
 21
10.002697420717
  0
LINE
  8
ERSR.1
  6
CONTINUOUS
 62
8
 10
3.4152127837847
 20
9.8549503045857
 11
3.4152127837847
 21
9.9913322579376
  0
LINE
  8
ERSR.1
  6
CONTINUOUS
 62
8
 10
3.4348978231548
 20
9.8435851418063
 11
3.4348978231548
 21
9.9799670951582
  0
LINE
  8
ERSR.1
  6
CONTINUOUS
 62
8
 10
3.4545828625249
 20
9.832219979027
 11
3.4545828625249
 21
9.9686019323789
  0
LINE
  8
ERSR.1
  6
CONTINUOUS
 62
8
 10
3.4742679018949
 20
9.8208548162477
 11
3.4742679018949
 21
9.9572367695996
  0
LINE
  8
ERSR.1
  6
CONTINUOUS
 62
8
 10
3.493952941265
 20
9.8094896534684
 11
3.493952941265
 21
9.9458716068203
  0
LINE
  8
ERSR.1
  6
CONTINUOUS
 62
8
 10
3.5136379806351
 20
9.798124490689
 11
3.5136379806351
 21
9.9345064440409
  0
LINE
  8
ERSR.1
  6
CONTINUOUS
 62
8
 10
3.5333230200052
 20
9.7867593279097
 11
3.5333230200052
 21
9.9231412812616
  0
LINE
  8
ERSR.1
  6
CONTINUOUS
 62
8
 10
3.5530080593752
 20
9.7753941651304
 11
3.5530080593752
 21
9.9117761184823
  0
LINE
  8
ERSR.1
  6
CONTINUOUS
 62
8
 10
3.5726930987453
 20
9.7640290023511
 11
3.5726930987453
 21
9.900410955703
  0
LINE
  8
ERSR.1
  6
CONTINUOUS
 62
8
 10
3.5923781381154
 20
9.7526638395718
 11
3.5923781381154
 21
9.8890457929237
  0
LINE
  8
ERSR.1
  6
CONTINUOUS
 62
8
 10
3.6120631774855
 20
9.7412986767924
 11
3.6120631774855
 21
9.8776806301443
  0
LINE
  8
ERSR.1
  6
CONTINUOUS
 62
8
 10
3.6317482168556
 20
9.7299335140131
 11
3.6317482168556
 21
9.866315467365
  0
LINE
  8
ERSR.1
  6
CONTINUOUS
 62
8
 10
3.6514332562256
 20
9.7185683512338
 11
3.6514332562256
 21
9.8549503045857
  0
LINE
  8
ERSR.1
  6
CONTINUOUS
 62
8
 10
3.6711182955957
 20
9.7072031884545
 11
3.6711182955957
 21
9.8435851418064
  0
LINE
  8
ERSR.1
  6
CONTINUOUS
 62
8
 10
3.6908033349658
 20
9.6958380256751
 11
3.6908033349658
 21
9.832219979027
  0
LINE
  8
ERSR.1
  6
CONTINUOUS
 62
8
 10
3.7104883743359
 20
9.6844728628958
 11
3.7104883743359
 21
9.8208548162477
  0
LINE
  8
ERSR.1
  6
CONTINUOUS
 62
8
 10
3.730173413706
 20
9.6731077001165
 11
3.730173413706
 21
9.8094896534684
  0
LINE
  8
ERSR.1
  6
CONTINUOUS
 62
8
 10
3.749858453076
 20
9.6617425373372
 11
3.749858453076
 21
9.7981244906891
  0
LINE
  8
ERSR.1
  6
CONTINUOUS
 62
8
 10
3.7695434924461
 20
9.6503773745578
 11
3.7695434924461
 21
9.7867593279098
  0
LINE
  8
ERSR.1
  6
CONTINUOUS
 62
8
 10
3.7892285318162
 20
9.6390122117785
 11
3.7892285318162
 21
9.7753941651304
  0
LINE
  8
ERSR.1
  6
CONTINUOUS
 62
8
 10
3.8089135711863
 20
9.6276470489992
 11
3.8089135711863
 21
9.7640290023511
  0
LINE
  8
ERSR.1
  6
CONTINUOUS
 62
8
 10
3.8285986105563
 20
9.6162818862199
 11
3.8285986105563
 21
9.7526638395718
  0
LINE
  8
ERSR.1
  6
CONTINUOUS
 62
8
 10
3.8482836499264
 20
9.6049167234406
 11
3.8482836499264
 21
9.7412986767925
  0
LINE
  8
ERSR.1
  6
CONTINUOUS
 62
8
 10
3.8679686892965
 20
9.5935515606613
 11
3.8679686892965
 21
9.7299335140131
  0
LINE
  8
ERSR.1
  6
CONTINUOUS
 62
8
 10
3.8876537286666
 20
9.5821863978819
 11
3.8876537286666
 21
9.7185683512338
  0
LINE
  8
ERSR.1
  6
CONTINUOUS
 62
8
 10
3.9073387680367
 20
9.5708212351026
 11
3.9073387680367
 21
9.7072031884545
  0
LINE
  8
ERSR.1
  6
CONTINUOUS
 62
8
 10
3.9270238074067
 20
9.5594560723233
 11
3.9270238074067
 21
9.6958380256752
  0
LINE
  8
ERSR.1
  6
CONTINUOUS
 62
8
 10
3.9467088467768
 20
9.548090909544
 11
3.9467088467768
 21
9.6844728628958
  0
LINE
  8
ERSR.1
  6
CONTINUOUS
 62
8
 10
3.9663938861469
 20
9.5367257467646
 11
3.9663938861469
 21
9.6731077001165
  0
LINE
  8
ERSR.1
  6
CONTINUOUS
 62
8
 10
3.986078925517
 20
9.5253605839853
 11
3.986078925517
 21
9.6617425373372
  0
LINE
  8
ERSR.1
  6
CONTINUOUS
 62
8
 10
4.0057639648871
 20
9.513995421206
 11
4.0057639648871
 21
9.6503773745579
  0
LINE
  8
ERSR.1
  6
CONTINUOUS
 62
8
 10
4.0254490042571
 20
9.5026302584267
 11
4.0254490042571
 21
9.6390122117785
  0
LINE
  8
ERSR.1
  6
CONTINUOUS
 62
8
 10
4.0451340436272
 20
9.4912650956473
 11
4.0451340436272
 21
9.6276470489992
  0
LINE
  8
ERSR.1
  6
CONTINUOUS
 62
8
 10
4.0648190829973
 20
9.614321252842
 11
4.0648190829973
 21
9.6162818862199
  0
LINE
  8
ERSR.1
  6
CONTINUOUS
 62
8
 10
2.6081261696115
 20
9.3039643280768
 11
3.291986935783
 21
9.6987915255141
  0
LINE
  8
ERSR.1
  6
CONTINUOUS
 62
8
 10
2.6081261696115
 20
9.3948856303113
 11
3.2132467783027
 21
9.7442521766314
  0
LINE
  8
ERSR.1
  6
CONTINUOUS
 62
8
 10
2.6081261696115
 20
9.4858069325459
 11
3.1345066208224
 21
9.7897128277487
  0
LINE
  8
ERSR.1
  6
CONTINUOUS
 62
8
 10
2.6081261696115
 20
9.5767282347805
 11
3.0557664633421
 21
9.835173478866
  0
LINE
  8
ERSR.1
  6
CONTINUOUS
 62
8
 10
2.6081261696115
 20
9.6676495370151
 11
2.9770263058617
 21
9.8806341299833
  0
LINE
  8
ERSR.1
  6
CONTINUOUS
 62
8
 10
2.6081261696115
 20
9.7585708392497
 11
2.8982861483814
 21
9.9260947811006
  0
LINE
  8
ERSR.1
  6
CONTINUOUS
 62
8
 10
2.6081261696115
 20
9.8494921414843
 11
2.8195459909011
 21
9.9715554322179
  0
LINE
  8
ERSR.1
  6
CONTINUOUS
 62
8
 10
2.6081261696115
 20
9.9404134437189
 11
2.7408058334208
 21
10.017016083335
  0
LINE
  8
ERSR.1
  6
CONTINUOUS
 62
8
 10
2.6081261696115
 20
10.031334745953
 11
2.6620656759405
 21
10.062476734452
  0
CIRCLE
  8
ERSR.1
  6
CONTINUOUS
 62
8
 10
2.9913832960096
 20
9.9604923973903
 40
0.0078740157480315
  0
CIRCLE
  8
ERSR.1
  6
CONTINUOUS
 62
8
 10
2.9064301961506
 20
10.037802104364
 40
0.0078740157480315
  0
CIRCLE
  8
ERSR.1
  6
CONTINUOUS
 62
8
 10
3.6037998887614
 20
9.5481865507743
 40
0.0078740157480315
  0
CIRCLE
  8
ERSR.1
  6
CONTINUOUS
 62
8
 10
3.9986145361405
 20
9.4726640890015
 40
0.0078740157480315
  0
CIRCLE
  8
ERSR.1
  6
CONTINUOUS
 62
8
 10
3.8341433971685
 20
9.4693075351449
 40
0.0078740157480315
  0
CIRCLE
  8
ERSR.1
  6
CONTINUOUS
 62
8
 10
3.4305204716011
 20
9.7749900052601
 40
0.0078740157480315
  0
CIRCLE
  8
ERSR.1
  6
CONTINUOUS
 62
8
 10
3.1866267531719
 20
9.8210076879826
 40
0.0078740157480315
  0
CIRCLE
  8
ERSR.1
  6
CONTINUOUS
 62
8
 10
3.7125364594829
 20
10.669948451523
 40
0.0039370078740157
  0
CIRCLE
  8
ERSR.1
  6
CONTINUOUS
 62
8
 10
2.6840113963252
 20
10.134950545667
 40
0.0078740157480315
  0
LINE
  8
ERSR.1
  6
CONTINUOUS
 62
8
 10
3.3955277444146
 20
10.002697420717
 11
4.1829293192178
 21
9.548090909544
  0
LINE
  8
ERSR.1
  6
CONTINUOUS
 62
8
 10
2.6081261696115
 20
9.2130430258422
 11
3.3707270932633
 21
9.6533308743968
  0
CIRCLE
  8
ERSR.1
  6
CONTINUOUS
 62
8
 10
3.7033906235811
 20
10.748992661694
 40
0.0039370078740157
  0
CIRCLE
  8
ERSR.1
  6
CONTINUOUS
 62
8
 10
3.9005919581036
 20
10.175891711634
 40
0.0039370078740157
  0
CIRCLE
  8
ERSR.1
  6
CONTINUOUS
 62
8
 10
3.9095367215234
 20
10.636824279126
 40
0.0039370078740157
  0
CIRCLE
  8
ERSR.1
  6
CONTINUOUS
 62
8
 10
3.0138354991961
 20
10.553547708085
 40
0.0039370078740157
  0
CIRCLE
  8
ERSR.1
  6
CONTINUOUS
 62
8
 10
3.0264367986347
 20
10.537796083787
 40
0.0039370078740157
  0
CIRCLE
  8
ERSR.1
  6
CONTINUOUS
 62
8
 10
3.3043891715196
 20
10.593047399703
 40
0.0039370078740157
  0
CIRCLE
  8
ERSR.1
  6
CONTINUOUS
 62
8
 10
3.3767832181017
 20
10.431630299107
 40
0.0039370078740157
  0
CIRCLE
  8
ERSR.1
  6
CONTINUOUS
 62
8
 10
3.6121713050604
 20
10.615969913551
 40
0.0039370078740157
  0
CIRCLE
  8
ERSR.1
  6
CONTINUOUS
 62
8
 10
3.512841388096
 20
10.693702002987
 40
0.0039370078740157
  0
CIRCLE
  8
ERSR.1
  6
CONTINUOUS
 62
8
 10
3.763931558063
 20
10.619103926775
 40
0.0039370078740157
  0
CIRCLE
  8
ERSR.1
  6
CONTINUOUS
 62
8
 10
4.0430193151717
 20
10.447222677925
 40
0.0039370078740157
  0
CIRCLE
  8
ERSR.1
  6
CONTINUOUS
 62
8
 10
4.0597073069519
 20
10.722430632878
 40
0.0039370078740157
  0
CIRCLE
  8
ERSR.1
  6
CONTINUOUS
 62
8
 10
4.1189266866611
 20
10.736643284008
 40
0.0039370078740157
  0
CIRCLE
  8
ERSR.1
  6
CONTINUOUS
 62
8
 10
3.7094497287305
 20
10.301688051534
 40
0.0039370078740157
  0
CIRCLE
  8
ERSR.1
  6
CONTINUOUS
 62
8
 10
4.1060258123643
 20
10.333810982979
 40
0.0039370078740157
  0
CIRCLE
  8
ERSR.1
  6
CONTINUOUS
 62
8
 10
2.8224406554241
 20
10.736790755065
 40
0.0039370078740157
  0
CIRCLE
  8
ERSR.1
  6
CONTINUOUS
 62
8
 10
2.9585742498622
 20
10.613016658457
 40
0.0039370078740157
  0
CIRCLE
  8
ERSR.1
  6
CONTINUOUS
 62
8
 10
3.0343750558899
 20
10.745668069005
 40
0.0039370078740157
  0
CIRCLE
  8
ERSR.1
  6
CONTINUOUS
 62
8
 10
2.7240655062137
 20
10.648548286282
 40
0.0039370078740157
  0
CIRCLE
  8
ERSR.1
  6
CONTINUOUS
 62
8
 10
3.9194939072614
 20
10.100283915003
 40
0.0039370078740157
  0
LINE
  8
ERSR.1
  6
CONTINUOUS
 62
8
 10
2.745921445202
 20
10.377747792435
 11
2.8881913349039
 21
10.520017682136
  0
LINE
  8
ERSR.1
  6
CONTINUOUS
 62
8
 10
2.8518161860093
 20
10.316609435324
 11
2.9940860757112
 21
10.458879325026
  0
LINE
  8
ERSR.1
  6
CONTINUOUS
 62
8
 10
2.6400267043948
 20
10.438886149545
 11
2.7822965940967
 21
10.581156039247
  0
LINE
  8
ERSR.1
  6
CONTINUOUS
 62
8
 10
2.6081261696115
 20
10.57401871268
 11
2.6764018532894
 21
10.642294396358
  0
LINE
  8
ERSR.1
  6
CONTINUOUS
 62
8
 10
2.9577109268165
 20
10.255471078213
 11
3.0999808165184
 21
10.397740967915
  0
LINE
  8
ERSR.1
  6
CONTINUOUS
 62
8
 10
3.0636056676238
 20
10.194332721102
 11
3.2058755573257
 21
10.336602610804
  0
LINE
  8
ERSR.1
  6
CONTINUOUS
 62
8
 10
3.169500408431
 20
10.133194363991
 11
3.3117702981329
 21
10.275464253693
  0
LINE
  8
ERSR.1
  6
CONTINUOUS
 62
8
 10
3.2753951492383
 20
10.07205600688
 11
3.3783969944146
 21
10.175057852057
  0
LINE
  8
ERSR.1
  6
CONTINUOUS
 62
8
 10
3.3955277444146
 20
10.06955570983
 11
3.4954111772722
 21
10.169439142688
  0
LINE
  8
ERSR.1
  6
CONTINUOUS
 62
8
 10
3.4590360283775
 20
9.9660308958751
 11
3.6013059180794
 21
10.108300785577
  0
LINE
  8
ERSR.1
  6
CONTINUOUS
 62
8
 10
3.5649307691848
 20
9.9048925387643
 11
3.7072006588867
 21
10.047162428466
  0
LINE
  8
ERSR.1
  6
CONTINUOUS
 62
8
 10
3.670825509992
 20
9.8437541816535
 11
3.8130953996939
 21
9.9860240713554
  0
LINE
  8
ERSR.1
  6
CONTINUOUS
 62
8
 10
3.7767202507993
 20
9.7826158245426
 11
3.9189901405012
 21
9.9248857142446
  0
LINE
  8
ERSR.1
  6
CONTINUOUS
 62
8
 10
3.8826149916065
 20
9.7214774674318
 11
4.0248848813084
 21
9.8637473571337
  0
LINE
  8
ERSR.1
  6
CONTINUOUS
 62
8
 10
3.9885097324138
 20
9.660339110321
 11
4.1307796221157
 21
9.8026090000229
  0
LINE
  8
ERSR.1
  6
CONTINUOUS
 62
8
 10
4.094404473221
 20
9.5992007532102
 11
4.1829293192178
 21
9.6877255992069
  0
LINE
  8
ERSR.1
  6
CONTINUOUS
 62
8
 10
2.6081261696115
 20
10.601857562333
 11
2.6587527298216
 21
10.652484122543
  0
LINE
  8
ERSR.1
  6
CONTINUOUS
 62
8
 10
2.6223775809269
 20
10.449075875731
 11
2.7646474706288
 21
10.591345765432
  0
LINE
  8
ERSR.1
  6
CONTINUOUS
 62
8
 10
2.7282723217341
 20
10.38793751862
 11
2.8705422114361
 21
10.530207408322
  0
LINE
  8
ERSR.1
  6
CONTINUOUS
 62
8
 10
2.8341670625414
 20
10.326799161509
 11
2.9764369522433
 21
10.469069051211
  0
LINE
  8
ERSR.1
  6
CONTINUOUS
 62
8
 10
2.9400618033486
 20
10.265660804398
 11
3.0823316930506
 21
10.4079306941
  0
LINE
  8
ERSR.1
  6
CONTINUOUS
 62
8
 10
3.0459565441559
 20
10.204522447287
 11
3.1882264338578
 21
10.346792336989
  0
LINE
  8
ERSR.1
  6
CONTINUOUS
 62
8
 10
3.1518512849631
 20
10.143384090176
 11
3.2941211746651
 21
10.285653979878
  0
LINE
  8
ERSR.1
  6
CONTINUOUS
 62
8
 10
3.2577460257704
 20
10.082245733066
 11
3.3783969944146
 21
10.20289670171
  0
LINE
  8
ERSR.1
  6
CONTINUOUS
 62
8
 10
3.3955277444146
 20
10.097394559483
 11
3.4777620538043
 21
10.179628868873
  0
LINE
  8
ERSR.1
  6
CONTINUOUS
 62
8
 10
3.4413869049096
 20
9.9762206220603
 11
3.5836567946116
 21
10.118490511762
  0
LINE
  8
ERSR.1
  6
CONTINUOUS
 62
8
 10
3.5472816457169
 20
9.9150822649494
 11
3.6895515354188
 21
10.057352154651
  0
LINE
  8
ERSR.1
  6
CONTINUOUS
 62
8
 10
3.6531763865241
 20
9.8539439078386
 11
3.7954462762261
 21
9.9962137975405
  0
LINE
  8
ERSR.1
  6
CONTINUOUS
 62
8
 10
3.7590711273314
 20
9.7928055507278
 11
3.9013410170333
 21
9.9350754404297
  0
LINE
  8
ERSR.1
  6
CONTINUOUS
 62
8
 10
3.8649658681386
 20
9.731667193617
 11
4.0072357578406
 21
9.8739370833189
  0
LINE
  8
ERSR.1
  6
CONTINUOUS
 62
8
 10
3.9708606089459
 20
9.6705288365061
 11
4.1131304986478
 21
9.812798726208
  0
LINE
  8
ERSR.1
  6
CONTINUOUS
 62
8
 10
4.0767553497531
 20
9.6093904793953
 11
4.1829293192178
 21
9.7155644488599
  0
LINE
  8
ERSR.1
  6
CONTINUOUS
 62
8
 10
3.9827938041335
 20
10.759208850212
 11
4.1230013372586
 21
10.67825999322
  0
LINE
  8
ERSR.1
  6
CONTINUOUS
 62
8
 10
3.9434237253934
 20
10.759208850212
 11
4.1033162978885
 21
10.66689483044
  0
LINE
  8
ERSR.1
  6
CONTINUOUS
 62
8
 10
4.0648190829973
 20
9.479899932868
 11
4.0648190829973
 21
9.6162818862199
  0
LINE
  8
ERSR.1
  6
CONTINUOUS
 62
8
 10
4.0845041223674
 20
9.4685347700887
 11
4.0845041223674
 21
9.6049167234406
  0
LINE
  8
ERSR.1
  6
CONTINUOUS
 62
8
 10
4.1041891617374
 20
9.4571696073094
 11
4.1041891617374
 21
9.5935515606613
  0
LINE
  8
ERSR.1
  6
CONTINUOUS
 62
8
 10
4.1238742011075
 20
9.44580444453
 11
4.1238742011075
 21
9.5821863978819
  0
LINE
  8
ERSR.1
  6
CONTINUOUS
 62
8
 10
4.1435592404776
 20
9.4344392817507
 11
4.1435592404776
 21
9.5708212351026
  0
LINE
  8
ERSR.1
  6
CONTINUOUS
 62
8
 10
4.1632442798477
 20
9.4230741189714
 11
4.1632442798477
 21
9.5594560723233
  0
LINE
  8
ERSR.1
  6
CONTINUOUS
 62
8
 10
3.345926442112
 20
9.1844057006056
 11
3.7644278806649
 21
9.4260276188104
  0
LINE
  8
ERSR.1
  6
CONTINUOUS
 62
8
 10
3.1884461271514
 20
9.1844057006056
 11
3.6856877231846
 21
9.4714882699277
  0
LINE
  8
ERSR.1
  6
CONTINUOUS
 62
8
 10
3.0309658121907
 20
9.1844057006056
 11
3.6069475657043
 21
9.5169489210449
  0
LINE
  8
ERSR.1
  6
CONTINUOUS
 62
8
 10
2.8734854972301
 20
9.1844057006056
 11
3.5282074082239
 21
9.5624095721622
  0
LINE
  8
ERSR.1
  6
CONTINUOUS
 62
8
 10
2.7160051822695
 20
9.1844057006056
 11
3.4494672507436
 21
9.6078702232795
  0
LINE
  8
ERSR.1
  6
CONTINUOUS
 62
8
 10
2.6376537286666
 20
10.076570978783
 11
2.6376537286666
 21
10.303874234369
  0
LINE
  8
ERSR.1
  6
CONTINUOUS
 62
8
 10
2.6770238074067
 20
10.053840653224
 11
2.6770238074067
 21
10.28114390881
  0
LINE
  8
ERSR.1
  6
CONTINUOUS
 62
8
 10
2.7163938861469
 20
10.031110327665
 11
2.7163938861469
 21
10.258413583252
  0
LINE
  8
ERSR.1
  6
CONTINUOUS
 62
8
 10
2.7557639648871
 20
10.008380002107
 11
2.7557639648871
 21
10.235683257693
  0
LINE
  8
ERSR.1
  6
CONTINUOUS
 62
8
 10
2.7951340436272
 20
9.9856496765479
 11
2.7951340436272
 21
10.212952932134
  0
LINE
  8
ERSR.1
  6
CONTINUOUS
 62
8
 10
2.8345041223674
 20
9.9629193509893
 11
2.8345041223674
 21
10.190222606576
  0
LINE
  8
ERSR.1
  6
CONTINUOUS
 62
8
 10
2.8738742011075
 20
9.9401890254306
 11
2.8738742011075
 21
10.167492281017
  0
LINE
  8
ERSR.1
  6
CONTINUOUS
 62
8
 10
2.9132442798477
 20
9.917458699872
 11
2.9132442798477
 21
10.144761955458
  0
LINE
  8
ERSR.1
  6
CONTINUOUS
 62
8
 10
2.9526143585878
 20
9.8947283743133
 11
2.9526143585878
 21
10.1220316299
  0
LINE
  8
ERSR.1
  6
CONTINUOUS
 62
8
 10
2.991984437328
 20
9.8719980487547
 11
2.991984437328
 21
10.099301304341
  0
LINE
  8
ERSR.1
  6
CONTINUOUS
 62
8
 10
3.0313545160682
 20
9.849267723196
 11
3.0313545160682
 21
10.076570978782
  0
LINE
  8
ERSR.1
  6
CONTINUOUS
 62
8
 10
3.0707245948083
 20
9.8265373976374
 11
3.0707245948083
 21
10.053840653224
  0
LINE
  8
ERSR.1
  6
CONTINUOUS
 62
8
 10
3.1100946735485
 20
9.8038070720787
 11
3.1100946735485
 21
10.031110327665
  0
LINE
  8
ERSR.1
  6
CONTINUOUS
 62
8
 10
3.1494647522886
 20
9.7810767465201
 11
3.1494647522886
 21
10.008380002107
  0
LINE
  8
ERSR.1
  6
CONTINUOUS
 62
8
 10
3.1888348310288
 20
9.7583464209614
 11
3.1888348310288
 21
9.9856496765479
  0
LINE
  8
ERSR.1
  6
CONTINUOUS
 62
8
 10
3.2282049097689
 20
9.7356160954028
 11
3.2282049097689
 21
9.9629193509893
  0
LINE
  8
ERSR.1
  6
CONTINUOUS
 62
8
 10
3.2675749885091
 20
9.7128857698441
 11
3.2675749885091
 21
9.9401890254306
  0
LINE
  8
ERSR.1
  6
CONTINUOUS
 62
8
 10
3.3069450672493
 20
9.6901554442855
 11
3.3069450672493
 21
9.917458699872
  0
LINE
  8
ERSR.1
  6
CONTINUOUS
 62
8
 10
3.3463151459894
 20
9.6674251187268
 11
3.3463151459894
 21
9.8947283743133
  0
LINE
  8
ERSR.1
  6
CONTINUOUS
 62
8
 10
3.3856852247296
 20
9.6446947931682
 11
3.3856852247296
 21
9.8719980487547
  0
LINE
  8
ERSR.1
  6
CONTINUOUS
 62
8
 10
3.4250553034697
 20
9.6219644676096
 11
3.4250553034697
 21
9.849267723196
  0
LINE
  8
ERSR.1
  6
CONTINUOUS
 62
8
 10
3.4644253822099
 20
9.5992341420509
 11
3.4644253822099
 21
9.8265373976374
  0
LINE
  8
ERSR.1
  6
CONTINUOUS
 62
8
 10
3.50379546095
 20
9.5765038164923
 11
3.50379546095
 21
9.8038070720787
  0
LINE
  8
ERSR.1
  6
CONTINUOUS
 62
8
 10
3.5431655396902
 20
9.5537734909336
 11
3.5431655396902
 21
9.7810767465201
  0
LINE
  8
ERSR.1
  6
CONTINUOUS
 62
8
 10
3.5825356184304
 20
9.531043165375
 11
3.5825356184304
 21
9.7583464209614
  0
LINE
  8
ERSR.1
  6
CONTINUOUS
 62
8
 10
3.6219056971705
 20
9.5083128398163
 11
3.6219056971705
 21
9.7356160954028
  0
LINE
  8
ERSR.1
  6
CONTINUOUS
 62
8
 10
3.6612757759107
 20
9.4855825142577
 11
3.6612757759107
 21
9.7128857698441
  0
LINE
  8
ERSR.1
  6
CONTINUOUS
 62
8
 10
3.7006458546508
 20
9.462852188699
 11
3.7006458546508
 21
9.6901554442855
  0
LINE
  8
ERSR.1
  6
CONTINUOUS
 62
8
 10
3.740015933391
 20
9.4401218631404
 11
3.740015933391
 21
9.6674251187268
  0
LINE
  8
ERSR.1
  6
CONTINUOUS
 62
8
 10
3.7793860121312
 20
9.4173915375817
 11
3.7793860121312
 21
9.6446947931682
  0
LINE
  8
ERSR.1
  6
CONTINUOUS
 62
8
 10
3.8187560908713
 20
9.3946612120231
 11
3.8187560908713
 21
9.6219644676095
  0
LINE
  8
ERSR.1
  6
CONTINUOUS
 62
8
 10
3.8581261696115
 20
9.3719308864644
 11
3.8581261696115
 21
9.5992341420509
  0
LINE
  8
ERSR.1
  6
CONTINUOUS
 62
8
 10
3.8974962483516
 20
9.3492005609058
 11
3.8974962483516
 21
9.5765038164923
  0
LINE
  8
ERSR.1
  6
CONTINUOUS
 62
8
 10
3.9368663270918
 20
9.3264702353472
 11
3.9368663270918
 21
9.5537734909336
  0
LINE
  8
ERSR.1
  6
CONTINUOUS
 62
8
 10
3.9762364058319
 20
9.3037399097885
 11
3.9762364058319
 21
9.531043165375
  0
LINE
  8
ERSR.1
  6
CONTINUOUS
 62
8
 10
4.0156064845721
 20
9.2810095842299
 11
4.0156064845721
 21
9.5083128398163
  0
LINE
  8
ERSR.1
  6
CONTINUOUS
 62
8
 10
4.0549765633123
 20
9.2582792586712
 11
4.0549765633123
 21
9.4855825142577
  0
LINE
  8
ERSR.1
  6
CONTINUOUS
 62
8
 10
4.0943466420524
 20
9.2355489331126
 11
4.0943466420524
 21
9.462852188699
  0
LINE
  8
ERSR.1
  6
CONTINUOUS
 62
8
 10
4.1337167207926
 20
9.2128186075539
 11
4.1337167207926
 21
9.4401218631404
  0
LINE
  8
ERSR.1
  6
CONTINUOUS
 62
8
 10
4.1730867995327
 20
9.1900882819953
 11
4.1730867995327
 21
9.4173915375817
  0
LINE
  8
ERSR.1
  6
CONTINUOUS
 62
8
 10
3.5034067570727
 20
9.1844057006056
 11
3.8431680381452
 21
9.3805669676931
  0
LINE
  8
ERSR.1
  6
CONTINUOUS
 62
8
 10
3.6608870720333
 20
9.1844057006056
 11
3.9219081956255
 21
9.3351063165758
  0
LINE
  8
ERSR.1
  6
CONTINUOUS
 62
8
 10
3.8183673869939
 20
9.1844057006056
 11
4.0006483531058
 21
9.2896456654585
  0
LINE
  8
ERSR.1
  6
CONTINUOUS
 62
8
 10
3.9758477019545
 20
9.1844057006056
 11
4.0793885105861
 21
9.2441850143412
  0
LINE
  8
ERSR.1
  6
CONTINUOUS
 62
8
 10
4.1333280169152
 20
9.1844057006056
 11
4.1581286680665
 21
9.1987243632239
  0
CIRCLE
  8
ERSR.1
  6
CONTINUOUS
 62
8
 10
4.0515676429446
 20
10.551497688724
 40
0.0039370078740157
  0
CIRCLE
  8
ERSR.1
  6
CONTINUOUS
 62
8
 10
4.1107870226538
 20
10.565710339854
 40
0.0039370078740157
  0
LINE
  8
ERSR.1
  6
CONTINUOUS
 62
8
 10
4.1401320872586
 20
10.668369550096
 11
4.1829293192178
 21
10.643660556704
  0
LINE
  8
ERSR.1
  6
CONTINUOUS
 62
8
 10
4.1204470478885
 20
10.657004387317
 11
4.1829293192178
 21
10.620930231145
  0
LINE
  8
ERSR.1
  6
CONTINUOUS
 62
8
 10
4.1230013372586
 20
10.67825999322
 11
4.1829293192178
 21
10.712859429736
  0
LINE
  8
ERSR.1
  6
CONTINUOUS
 62
8
 10
4.1401320872586
 20
10.668369550096
 11
4.1829293192178
 21
10.693078543488
  0
LINE
  8
ERSR.1
  6
CONTINUOUS
 62
8
 10
2.6081261696115
 20
10.693078543488
 11
3.3783969944146
 21
10.248362475439
  0
LINE
  8
ERSR.1
  6
CONTINUOUS
 62
8
 10
3.3955277444146
 20
10.238472032315
 11
4.1829293192178
 21
9.7838655211422
  0
ENDSEC
  0
EOF
