  0
SECTION
  2
HEADER
  9
$EXTMIN
 10
2.6081261696115
 20
9.1844057006056
  9
$EXTMAX
 10
4.1829293192178
 20
10.759208850212
  9
$LIMMIN
 10
0
 20
0
  9
$LIMMAX
 10
8.2666666666667
 20
11.69
  0
ENDSEC
  0
SECTION
  2
TABLES
  0
TABLE
  2
LTYPE
 70
9
  0
LTYPE
  2
CONTINUOUS
  3
___________________________
 70
64
 72
65
 73
0
 40
0
  0
LTYPE
  2
HIDDEN
  3
_ _ _ _ _ _ _ _ _ _ _ _ _ _ 
 70
64
 72
65
 73
2
 49
0.25
 49
-0.125
 40
0.375
  0
LTYPE
  2
DASHED
  3
__ __ __ __ __ __ __ __ __ 
 70
64
 72
65
 73
2
 49
0.5
 49
-0.25
 40
0.75
  0
LTYPE
  2
CENTER
  3
____ _ ____ _ ____ _ ____ _ 
 70
64
 72
65
 73
4
 49
1.25
 49
-0.25
 49
0.25
 49
-0.25
 40
2
  0
LTYPE
  2
PHANTOM
  3
_____ _ _ _____ _ _ _____ _ _ 
 70
64
 72
65
 73
6
 49
1.25
 49
-0.25
 49
0.25
 49
-0.25
 49
0.25
 49
-0.25
 40
2.5
  0
LTYPE
  2
DOT
  3
...........................
 70
64
 72
65
 73
2
 49
0
 49
-0.25
 40
0.25
  0
LTYPE
  2
DASHDOT
  3
__ . __ . __ . __ . __ . __ . 
 70
64
 72
65
 73
4
 49
0.5
 49
-0.25
 49
0
 49
-0.25
 40
1
  0
LTYPE
  2
DIVIDE
  3
__ . . __ . . __ . . __ . . 
 70
64
 72
65
 73
6
 49
0.5
 49
-0.25
 49
0
 49
-0.25
 49
0
 49
-0.25
 40
1.25
  0
LTYPE
  2
BORDER
  3
__ __ . __ __ . __ __ . __ __ . 
 70
64
 72
65
 73
6
 49
0.5
 49
-0.25
 49
0.5
 49
-0.25
 49
0
 49
-0.25
 40
1.75
  0
ENDTAB
  0
TABLE
  2
LAYER
 70
1
  0
LAYER
  2
ERSF.1
 62
7
  6
CONTINUOUS
 70
0
  0
ENDTAB
  0
TABLE
  2
STYLE
 70
5
  0
STYLE
  2
ptmarker
 70
1
 40
0
 50
0
 71
0
 41
0
 42
0
  3
ptmarks
  0
STYLE
  2
TXT
 70
0
 40
0
 50
0
 71
0
 41
0
 42
0
  3
TXT
  0
STYLE
  2
ITALIC
 70
0
 40
0
 50
0
 71
0
 41
0
 42
0
  3
ITALIC
  0
STYLE
  2
SIMPLEX
 70
0
 40
0
 50
0
 71
0
 41
0
 42
0
  3
SIMPLEX
  0
STYLE
  2
COMPLEX
 70
0
 40
0
 50
0
 71
0
 41
0
 42
0
  3
COMPLEX
  0
ENDTAB
  0
ENDSEC
  0
SECTION
  2
BLOCKS
  0
ENDSEC
  0
SECTION
  2
ENTITIES
  0
LINE
  8
ERSF.1
  6
CONTINUOUS
 62
8
 10
2.6081261696115
 20
9.2753270028402
 11
3.3246616026823
 21
9.6890189280076
  0
LINE
  8
ERSF.1
  6
CONTINUOUS
 62
8
 10
4.1829293192178
 20
9.1844057006056
 11
2.6081261696115
 21
9.1844057006056
  0
LINE
  8
ERSF.1
  6
CONTINUOUS
 62
8
 10
2.6081261696115
 20
10.759208850212
 11
4.1829293192178
 21
10.759208850212
  0
LINE
  8
ERSF.1
  6
CONTINUOUS
 62
8
 10
4.1829293192178
 20
10.759208850212
 11
4.1829293192178
 21
9.1844057006056
  0
LINE
  8
ERSF.1
  6
CONTINUOUS
 62
8
 10
4.1829293192178
 20
9.1844057006056
 11
4.1671812877217
 21
9.1934978308291
  0
LINE
  8
ERSF.1
  6
CONTINUOUS
 62
8
 10
2.6081261696115
 20
9.1844057006056
 11
2.6081261696115
 21
10.759208850212
  0
LINE
  8
ERSF.1
  6
CONTINUOUS
 62
8
 10
2.6868663270918
 20
9.1844057006056
 11
3.4427718389028
 21
9.6208279513316
  0
LINE
  8
ERSF.1
  6
CONTINUOUS
 62
8
 10
2.9230867995327
 20
9.1844057006056
 11
3.5608820751233
 21
9.5526369746557
  0
LINE
  8
ERSF.1
  6
CONTINUOUS
 62
8
 10
3.1593072719737
 20
9.1844057006056
 11
3.6789923113437
 21
9.4844459979797
  0
LINE
  8
ERSF.1
  6
CONTINUOUS
 62
8
 10
3.3955277444146
 20
9.1844057006056
 11
3.7971025475642
 21
9.4162550213038
  0
LINE
  8
ERSF.1
  6
CONTINUOUS
 62
8
 10
3.6317482168556
 20
9.1844057006056
 11
3.9152127837847
 21
9.3480640446279
  0
LINE
  8
ERSF.1
  6
CONTINUOUS
 62
8
 10
3.8679686892965
 20
9.1844057006056
 11
4.0333230200052
 21
9.2798730679519
  0
LINE
  8
ERSF.1
  6
CONTINUOUS
 62
8
 10
4.1041891617374
 20
9.1844057006056
 11
4.1514332562256
 21
9.211682091276
  0
LINE
  8
ERSF.1
  6
CONTINUOUS
 62
8
 10
2.6081261696115
 20
9.4117089561921
 11
3.2065513664619
 21
9.7572099046835
  0
LINE
  8
ERSF.1
  6
CONTINUOUS
 62
8
 10
2.6081261696115
 20
9.548090909544
 11
3.0884411302414
 21
9.8254008813594
  0
LINE
  8
ERSF.1
  6
CONTINUOUS
 62
8
 10
2.6081261696115
 20
9.6844728628958
 11
2.9703308940209
 21
9.8935918580354
  0
LINE
  8
ERSF.1
  6
CONTINUOUS
 62
8
 10
2.6081261696115
 20
9.8208548162477
 11
2.8522206578005
 21
9.9617828347113
  0
LINE
  8
ERSF.1
  6
CONTINUOUS
 62
8
 10
2.6081261696115
 20
9.9572367695996
 11
2.73411042158
 21
10.029973811387
  0
LINE
  8
ERSF.1
  6
CONTINUOUS
 62
8
 10
3.2726906002903
 20
9.8053996373515
 11
3.760095474836
 21
10.082256907763
  0
LINE
  8
ERSF.1
  6
CONTINUOUS
 62
8
 10
2.6081261696115
 20
10.093618722951
 11
2.665767965483
 21
10.151260518823
  0
LINE
  8
ERSF.1
  6
CONTINUOUS
 62
8
 10
2.6434244165472
 20
10.073239270581
 11
2.7010662124188
 21
10.130881066453
  0
LINE
  8
ERSF.1
  6
CONTINUOUS
 62
8
 10
2.678722663483
 20
10.052859818211
 11
2.7363644593545
 21
10.110501614082
  0
LINE
  8
ERSF.1
  6
CONTINUOUS
 62
8
 10
2.7140209104187
 20
10.032480365841
 11
2.7716627062903
 21
10.090122161712
  0
LINE
  8
ERSF.1
  6
CONTINUOUS
 62
8
 10
2.7493191573545
 20
10.01210091347
 11
2.806960953226
 21
10.069742709342
  0
LINE
  8
ERSF.1
  6
CONTINUOUS
 62
8
 10
2.7846174042902
 20
9.9917214611001
 11
2.8422592001618
 21
10.049363256972
  0
LINE
  8
ERSF.1
  6
CONTINUOUS
 62
8
 10
2.819915651226
 20
9.9713420087298
 11
2.8775574470975
 21
10.028983804601
  0
LINE
  8
ERSF.1
  6
CONTINUOUS
 62
8
 10
2.8609780777489
 20
9.9567267359467
 11
2.9128556940333
 21
10.008604352231
  0
LINE
  8
ERSF.1
  6
CONTINUOUS
 62
8
 10
2.6081261696115
 20
10.149296422258
 11
2.6304697185473
 21
10.171639971193
  0
LINE
  8
ERSF.1
  6
CONTINUOUS
 62
8
 10
2.9466635470887
 20
9.8981640769343
 11
2.9178426491529
 21
10.00572513235
  0
LINE
  8
ERSF.1
  6
CONTINUOUS
 62
8
 10
2.8905121450975
 20
9.9305831039893
 11
2.948153940969
 21
9.9882248998608
  0
LINE
  8
ERSF.1
  6
CONTINUOUS
 62
8
 10
2.9258103920332
 20
9.910203651619
 11
2.9834521879048
 21
9.9678454474906
  0
LINE
  8
ERSF.1
  6
CONTINUOUS
 62
8
 10
2.961108638969
 20
9.8898241992487
 11
3.0187504348405
 21
9.9474659951203
  0
LINE
  8
ERSF.1
  6
CONTINUOUS
 62
8
 10
2.9964068859047
 20
9.8694447468784
 11
3.0540486817763
 21
9.92708654275
  0
LINE
  8
ERSF.1
  6
CONTINUOUS
 62
8
 10
3.0317051328405
 20
9.8490652945082
 11
3.089346928712
 21
9.9067070903797
  0
LINE
  8
ERSF.1
  6
CONTINUOUS
 62
8
 10
3.0670033797762
 20
9.8286858421379
 11
3.1246451756478
 21
9.8863276380094
  0
LINE
  8
ERSF.1
  6
CONTINUOUS
 62
8
 10
3.1041891617375
 20
9.8101939247931
 11
3.1599434225835
 21
9.8659481856392
  0
LINE
  8
ERSF.1
  6
CONTINUOUS
 62
8
 10
3.1375998736477
 20
9.7879269373973
 11
3.1952416695193
 21
9.8455687332689
  0
LINE
  8
ERSF.1
  6
CONTINUOUS
 62
8
 10
3.1728981205835
 20
9.767547485027
 11
3.230539916455
 21
9.8251892808986
  0
LINE
  8
ERSF.1
  6
CONTINUOUS
 62
8
 10
3.2139605471064
 20
9.7529322122439
 11
3.2648165845423
 21
9.8037882496799
  0
LINE
  8
ERSF.1
  6
CONTINUOUS
 62
8
 10
3.243494614455
 20
9.7267885802865
 11
3.2648165845423
 21
9.7481105503738
  0
LINE
  8
ERSF.1
  6
CONTINUOUS
 62
8
 10
3.3856852247296
 20
9.646268393337
 11
3.4423293980695
 21
9.7029125666769
  0
LINE
  8
ERSF.1
  6
CONTINUOUS
 62
8
 10
3.4199858491337
 20
9.6248913184351
 11
3.4776276450053
 21
9.6825331143067
  0
LINE
  8
ERSF.1
  6
CONTINUOUS
 62
8
 10
3.4585198703989
 20
9.6077476403942
 11
3.512925891941
 21
9.6621536619364
  0
LINE
  8
ERSF.1
  6
CONTINUOUS
 62
8
 10
3.4905823430052
 20
9.5841324136945
 11
3.5482241388768
 21
9.6417742095661
  0
LINE
  8
ERSF.1
  6
CONTINUOUS
 62
8
 10
3.525880589941
 20
9.5637529613243
 11
3.5835223858125
 21
9.6213947571958
  0
LINE
  8
ERSF.1
  6
CONTINUOUS
 62
8
 10
3.5669430164639
 20
9.5491376885412
 11
3.6188206327483
 21
9.6010153048256
  0
LINE
  8
ERSF.1
  6
CONTINUOUS
 62
8
 10
3.5964770838125
 20
9.5229940565837
 11
3.654118879684
 21
9.5806358524553
  0
LINE
  8
ERSF.1
  6
CONTINUOUS
 62
8
 10
3.6317753307482
 20
9.5026146042134
 11
3.6894171266198
 21
9.560256400085
  0
LINE
  8
ERSF.1
  6
CONTINUOUS
 62
8
 10
3.667073577684
 20
9.4822351518432
 11
3.7247153735555
 21
9.5398769477147
  0
LINE
  8
ERSF.1
  6
CONTINUOUS
 62
8
 10
3.7023718246197
 20
9.4618556994729
 11
3.7600136204913
 21
9.5194974953444
  0
LINE
  8
ERSF.1
  6
CONTINUOUS
 62
8
 10
3.7376700715555
 20
9.4414762471026
 11
3.795311867427
 21
9.4991180429742
  0
LINE
  8
ERSF.1
  6
CONTINUOUS
 62
8
 10
3.7729683184912
 20
9.4210967947323
 11
3.8306101143628
 21
9.4787385906039
  0
LINE
  8
ERSF.1
  6
CONTINUOUS
 62
8
 10
3.8128505790603
 20
9.4053013559954
 11
3.8659083612985
 21
9.4583591382336
  0
LINE
  8
ERSF.1
  6
CONTINUOUS
 62
8
 10
3.8435648123627
 20
9.3803378899918
 11
3.9012066082343
 21
9.4379796858633
  0
LINE
  8
ERSF.1
  6
CONTINUOUS
 62
8
 10
3.8788630592985
 20
9.3599584376215
 11
3.93650485517
 21
9.4176002334931
  0
LINE
  8
ERSF.1
  6
CONTINUOUS
 62
8
 10
3.9199254858214
 20
9.3453431648384
 11
3.9718031021058
 21
9.3972207811228
  0
LINE
  8
ERSF.1
  6
CONTINUOUS
 62
8
 10
3.94945955317
 20
9.3191995328809
 11
4.0071013490415
 21
9.3768413287525
  0
LINE
  8
ERSF.1
  6
CONTINUOUS
 62
8
 10
3.9847578001057
 20
9.2988200805107
 11
4.0423995959773
 21
9.3564618763822
  0
LINE
  8
ERSF.1
  6
CONTINUOUS
 62
8
 10
4.0200560470415
 20
9.2784406281404
 11
4.077697842913
 21
9.336082424012
  0
LINE
  8
ERSF.1
  6
CONTINUOUS
 62
8
 10
4.0553542939772
 20
9.2580611757701
 11
4.1129960898488
 21
9.3157029716417
  0
LINE
  8
ERSF.1
  6
CONTINUOUS
 62
8
 10
4.090652540913
 20
9.2376817233998
 11
4.1482943367845
 21
9.2953235192714
  0
LINE
  8
ERSF.1
  6
CONTINUOUS
 62
8
 10
4.1259507878487
 20
9.2173022710296
 11
4.1829293192178
 21
9.2742808023986
  0
LINE
  8
ERSF.1
  6
CONTINUOUS
 62
8
 10
4.1670132143716
 20
9.2026869982464
 11
4.1829293192178
 21
9.2186031030926
  0
LINE
  8
ERSF.1
  6
CONTINUOUS
 62
8
 10
3.3493893552622
 20
9.6656502231757
 11
3.4070311511338
 21
9.7232920190472
  0
LINE
  8
ERSF.1
  6
CONTINUOUS
 62
8
 10
2.8984452450654
 20
9.9260029265873
 11
2.8696243471296
 21
10.033563982003
  0
LINE
  8
ERSF.1
  6
CONTINUOUS
 62
8
 10
2.8486513211407
 20
9.95972207723
 11
2.8214060451063
 21
10.061402831656
  0
LINE
  8
ERSF.1
  6
CONTINUOUS
 62
8
 10
2.994881849112
 20
9.8703252272813
 11
2.9660609511762
 21
9.9778862826973
  0
LINE
  8
ERSF.1
  6
CONTINUOUS
 62
8
 10
2.7055720369722
 20
10.037358325199
 11
2.6767511390364
 21
10.144919380615
  0
LINE
  8
ERSF.1
  6
CONTINUOUS
 62
8
 10
2.7537903389955
 20
10.009519475546
 11
2.7249694410597
 21
10.117080530962
  0
LINE
  8
ERSF.1
  6
CONTINUOUS
 62
8
 10
2.8020086410188
 20
9.9816806258933
 11
2.773187743083
 21
10.089241681309
  0
LINE
  8
ERSF.1
  6
CONTINUOUS
 62
8
 10
2.6573537349489
 20
10.065197174852
 11
2.6285328370132
 21
10.172758230268
  0
LINE
  8
ERSF.1
  6
CONTINUOUS
 62
8
 10
3.0431001511353
 20
9.8424863776282
 11
3.0142792531995
 21
9.9500474330443
  0
LINE
  8
ERSF.1
  6
CONTINUOUS
 62
8
 10
3.0884376406457
 20
9.8253988666404
 11
3.0624975552228
 21
9.9222085833913
  0
LINE
  8
ERSF.1
  6
CONTINUOUS
 62
8
 10
3.1395367551818
 20
9.7868086783222
 11
3.1107158572461
 21
9.8943697337383
  0
LINE
  8
ERSF.1
  6
CONTINUOUS
 62
8
 10
3.1877550572051
 20
9.7589698286692
 11
3.1589341592693
 21
9.8665308840853
  0
LINE
  8
ERSF.1
  6
CONTINUOUS
 62
8
 10
3.2359733592284
 20
9.7311309790162
 11
3.2071524612926
 21
9.8386920344323
  0
LINE
  8
ERSF.1
  6
CONTINUOUS
 62
8
 10
3.2648165845423
 20
9.7756009000432
 11
3.2553707633159
 21
9.8108531847793
  0
LINE
  8
ERSF.1
  6
CONTINUOUS
 62
8
 10
3.4288465673216
 20
9.6197755804041
 11
3.4000256693858
 21
9.7273366358202
  0
LINE
  8
ERSF.1
  6
CONTINUOUS
 62
8
 10
3.4770648693449
 20
9.5919367307511
 11
3.4482439714091
 21
9.6994977861672
  0
LINE
  8
ERSF.1
  6
CONTINUOUS
 62
8
 10
3.5252831713682
 20
9.5640978810981
 11
3.4964622734324
 21
9.6716589365142
  0
LINE
  8
ERSF.1
  6
CONTINUOUS
 62
8
 10
3.5706193835979
 20
9.5470151369867
 11
3.5446805754557
 21
9.6438200868612
  0
LINE
  8
ERSF.1
  6
CONTINUOUS
 62
8
 10
3.6217197754147
 20
9.5084201817921
 11
3.592898877479
 21
9.6159812372082
  0
LINE
  8
ERSF.1
  6
CONTINUOUS
 62
8
 10
3.669938077438
 20
9.4805813321391
 11
3.6411171795022
 21
9.5881423875552
  0
LINE
  8
ERSF.1
  6
CONTINUOUS
 62
8
 10
3.7181563794613
 20
9.452742482486
 11
3.6893354815255
 21
9.5603035379021
  0
LINE
  8
ERSF.1
  6
CONTINUOUS
 62
8
 10
3.7663746814846
 20
9.424903632833
 11
3.7375537835488
 21
9.5324646882491
  0
LINE
  8
ERSF.1
  6
CONTINUOUS
 62
8
 10
3.8117108937143
 20
9.4078208887216
 11
3.7857720855721
 21
9.5046258385961
  0
LINE
  8
ERSF.1
  6
CONTINUOUS
 62
8
 10
3.8628112855312
 20
9.369225933527
 11
3.8339903875954
 21
9.4767869889431
  0
LINE
  8
ERSF.1
  6
CONTINUOUS
 62
8
 10
3.9100406354453
 20
9.3450779033918
 11
3.8822086896187
 21
9.4489481392901
  0
LINE
  8
ERSF.1
  6
CONTINUOUS
 62
8
 10
3.9592478895778
 20
9.313548234221
 11
3.930426991642
 21
9.4211092896371
  0
LINE
  8
ERSF.1
  6
CONTINUOUS
 62
8
 10
4.0074661916011
 20
9.285709384568
 11
3.9786452936653
 21
9.3932704399841
  0
LINE
  8
ERSF.1
  6
CONTINUOUS
 62
8
 10
4.0556844936243
 20
9.257870534915
 11
4.0268635956886
 21
9.3654315903311
  0
LINE
  8
ERSF.1
  6
CONTINUOUS
 62
8
 10
4.1039027956476
 20
9.2300316852619
 11
4.0750818977119
 21
9.337592740678
  0
LINE
  8
ERSF.1
  6
CONTINUOUS
 62
8
 10
4.1498269549503
 20
9.2107546928023
 11
4.1233001997351
 21
9.309753891025
  0
LINE
  8
ERSF.1
  6
CONTINUOUS
 62
8
 10
4.1829293192178
 20
9.2393292908579
 11
4.1715185017584
 21
9.281915041372
  0
LINE
  8
ERSF.1
  6
CONTINUOUS
 62
8
 10
2.7183623900839
 20
9.1844057006056
 11
3.4585198703989
 21
9.6117358211082
  0
LINE
  8
ERSF.1
  6
CONTINUOUS
 62
8
 10
2.6081261696115
 20
9.2571427423933
 11
3.3404096341784
 21
9.6799267977841
  0
LINE
  8
ERSF.1
  6
CONTINUOUS
 62
8
 10
2.6081261696115
 20
9.3935246957452
 11
3.2222993979579
 21
9.74811777446
  0
LINE
  8
ERSF.1
  6
CONTINUOUS
 62
8
 10
2.6081261696115
 20
9.529906649097
 11
3.1041891617375
 21
9.816308751136
  0
LINE
  8
ERSF.1
  6
CONTINUOUS
 62
8
 10
2.6081261696115
 20
9.6662886024489
 11
2.986078925517
 21
9.8844997278119
  0
LINE
  8
ERSF.1
  6
CONTINUOUS
 62
8
 10
2.9545828625249
 20
9.1844057006056
 11
3.5766301066193
 21
9.5435448444322
  0
LINE
  8
ERSF.1
  6
CONTINUOUS
 62
8
 10
3.1908033349658
 20
9.1844057006056
 11
3.6947403428398
 21
9.4753538677563
  0
LINE
  8
ERSF.1
  6
CONTINUOUS
 62
8
 10
3.6632442798477
 20
9.1844057006056
 11
3.9309608152808
 21
9.3389719144044
  0
LINE
  8
ERSF.1
  6
CONTINUOUS
 62
8
 10
2.6081261696115
 20
9.8026705558008
 11
2.8679686892965
 21
9.9526907044879
  0
LINE
  8
ERSF.1
  6
CONTINUOUS
 62
8
 10
2.6081261696115
 20
9.9390525091527
 11
2.749858453076
 21
10.020881681164
  0
LINE
  8
ERSF.1
  6
CONTINUOUS
 62
8
 10
4.1671812877217
 20
9.2025899610525
 11
4.1514332562256
 21
9.211682091276
  0
LINE
  8
ERSF.1
  6
CONTINUOUS
 62
8
 10
3.2144253822099
 20
9.1844057006056
 11
3.6986773507138
 21
9.463988704977
  0
LINE
  8
ERSF.1
  6
CONTINUOUS
 62
8
 10
3.6711182955957
 20
9.479899932868
 11
3.5766301066193
 21
9.5344527142088
  0
LINE
  8
ERSF.1
  6
CONTINUOUS
 62
8
 10
3.6947403428398
 20
9.4753538677563
 11
3.6789923113438
 21
9.4844459979798
  0
LINE
  8
ERSF.1
  6
CONTINUOUS
 62
8
 10
3.4270238074068
 20
9.1844057006056
 11
3.8128505790603
 21
9.4071628910803
  0
LINE
  8
ERSF.1
  6
CONTINUOUS
 62
8
 10
3.4506458546508
 20
9.1844057006056
 11
3.8167875869343
 21
9.395797728301
  0
LINE
  8
ERSF.1
  6
CONTINUOUS
 62
8
 10
3.6868663270918
 20
9.1844057006056
 11
3.9348978231548
 21
9.3276067516251
  0
LINE
  8
ERSF.1
  6
CONTINUOUS
 62
8
 10
2.978204909769
 20
9.1844057006056
 11
3.5805671144934
 21
9.5321796816529
  0
LINE
  8
ERSF.1
  6
CONTINUOUS
 62
8
 10
2.741984437328
 20
9.1844057006056
 11
3.4624568782729
 21
9.6003706583288
  0
LINE
  8
ERSF.1
  6
CONTINUOUS
 62
8
 10
2.6081261696115
 20
9.2435045470581
 11
3.3443466420524
 21
9.6685616350048
  0
LINE
  8
ERSF.1
  6
CONTINUOUS
 62
8
 10
2.6081261696115
 20
9.37988650041
 11
3.2262364058319
 21
9.7367526116807
  0
LINE
  8
ERSF.1
  6
CONTINUOUS
 62
8
 10
2.6081261696115
 20
9.5162684537618
 11
3.1081261696115
 21
9.8049435883567
  0
LINE
  8
ERSF.1
  6
CONTINUOUS
 62
8
 10
2.6081261696115
 20
9.6526504071137
 11
2.990015933391
 21
9.8731345650326
  0
LINE
  8
ERSF.1
  6
CONTINUOUS
 62
8
 10
2.6081261696115
 20
9.7890323604656
 11
2.8719056971705
 21
9.9413255417085
  0
LINE
  8
ERSF.1
  6
CONTINUOUS
 62
8
 10
2.6081261696115
 20
9.9254143138175
 11
2.7537954609501
 21
10.009516518384
  0
LINE
  8
ERSF.1
  6
CONTINUOUS
 62
8
 10
2.7262364058319
 20
10.025427746276
 11
2.6081261696115
 21
10.093618722951
  0
LINE
  8
ERSF.1
  6
CONTINUOUS
 62
8
 10
2.749858453076
 20
10.020881681164
 11
2.73411042158
 21
10.029973811387
  0
LINE
  8
ERSF.1
  6
CONTINUOUS
 62
8
 10
2.8443466420524
 20
9.9572367695996
 11
2.749858453076
 21
10.01178955094
  0
LINE
  8
ERSF.1
  6
CONTINUOUS
 62
8
 10
2.8679686892965
 20
9.9526907044879
 11
2.8522206578005
 21
9.9617828347113
  0
LINE
  8
ERSF.1
  6
CONTINUOUS
 62
8
 10
2.9624568782729
 20
9.8890457929237
 11
2.8679686892965
 21
9.9435985742644
  0
LINE
  8
ERSF.1
  6
CONTINUOUS
 62
8
 10
2.986078925517
 20
9.8844997278119
 11
2.9703308940209
 21
9.8935918580354
  0
LINE
  8
ERSF.1
  6
CONTINUOUS
 62
8
 10
3.0805671144934
 20
9.8208548162477
 11
2.986078925517
 21
9.8754075975885
  0
LINE
  8
ERSF.1
  6
CONTINUOUS
 62
8
 10
3.1041891617375
 20
9.816308751136
 11
3.0884411302414
 21
9.8254008813594
  0
LINE
  8
ERSF.1
  6
CONTINUOUS
 62
8
 10
3.1986773507138
 20
9.7526638395718
 11
3.1041891617375
 21
9.8072166209125
  0
LINE
  8
ERSF.1
  6
CONTINUOUS
 62
8
 10
3.2222993979579
 20
9.74811777446
 11
3.2065513664619
 21
9.7572099046835
  0
LINE
  8
ERSF.1
  6
CONTINUOUS
 62
8
 10
3.3167875869343
 20
9.6844728628958
 11
3.2222993979579
 21
9.7390256442366
  0
LINE
  8
ERSF.1
  6
CONTINUOUS
 62
8
 10
3.3404096341784
 20
9.6799267977841
 11
3.3246616026823
 21
9.6890189280076
  0
LINE
  8
ERSF.1
  6
CONTINUOUS
 62
8
 10
3.4348978231548
 20
9.6162818862199
 11
3.3404096341784
 21
9.6708346675607
  0
LINE
  8
ERSF.1
  6
CONTINUOUS
 62
8
 10
3.4585198703989
 20
9.6117358211082
 11
3.4427718389028
 21
9.6208279513316
  0
LINE
  8
ERSF.1
  6
CONTINUOUS
 62
8
 10
3.5766301066193
 20
9.5435448444322
 11
3.5608820751233
 21
9.5526369746557
  0
LINE
  8
ERSF.1
  6
CONTINUOUS
 62
8
 10
3.5530080593752
 20
9.548090909544
 11
3.4585198703989
 21
9.6026436908847
  0
LINE
  8
ERSF.1
  6
CONTINUOUS
 62
8
 10
3.7892285318162
 20
9.4117089561921
 11
3.6947403428398
 21
9.4662617375328
  0
LINE
  8
ERSF.1
  6
CONTINUOUS
 62
8
 10
3.8128505790603
 20
9.4071628910803
 11
3.7971025475642
 21
9.4162550213038
  0
LINE
  8
ERSF.1
  6
CONTINUOUS
 62
8
 10
3.9073387680367
 20
9.3435179795161
 11
3.8128505790603
 21
9.3980707608569
  0
LINE
  8
ERSF.1
  6
CONTINUOUS
 62
8
 10
3.9309608152808
 20
9.3389719144044
 11
3.9152127837847
 21
9.3480640446279
  0
LINE
  8
ERSF.1
  6
CONTINUOUS
 62
8
 10
3.8994647522886
 20
9.1844057006056
 11
4.0490710515012
 21
9.2707809377285
  0
LINE
  8
ERSF.1
  6
CONTINUOUS
 62
8
 10
3.9230867995327
 20
9.1844057006056
 11
4.0530080593752
 21
9.2594157749491
  0
LINE
  8
ERSF.1
  6
CONTINUOUS
 62
8
 10
4.1356852247296
 20
9.1844057006056
 11
4.1671812877217
 21
9.2025899610525
  0
LINE
  8
ERSF.1
  6
CONTINUOUS
 62
8
 10
4.1593072719737
 20
9.1844057006056
 11
4.1711182955957
 21
9.1912247982732
  0
LINE
  8
ERSF.1
  6
CONTINUOUS
 62
8
 10
4.0254490042571
 20
9.2753270028402
 11
3.9309608152808
 21
9.329879784181
  0
LINE
  8
ERSF.1
  6
CONTINUOUS
 62
8
 10
4.0490710515012
 20
9.2707809377285
 11
4.0333230200052
 21
9.2798730679519
  0
LINE
  8
ERSF.1
  6
CONTINUOUS
 62
8
 10
4.1435592404776
 20
9.2071360261643
 11
4.0490710515012
 21
9.261688807505
  0
LINE
  8
ERSF.1
  6
CONTINUOUS
 62
8
 10
4.1829293192178
 20
9.2753270028402
 11
2.6081261696115
 21
10.184540025186
  0
LINE
  8
ERSF.1
  6
CONTINUOUS
 62
8
 10
3.2726906002903
 20
9.8053996373515
 11
3.2726906002903
 21
9.7099322700052
  0
LINE
  8
ERSF.1
  6
CONTINUOUS
 62
8
 10
3.2805646160384
 20
9.8008535722398
 11
3.2805646160384
 21
9.7053862048935
  0
LINE
  8
ERSF.1
  6
CONTINUOUS
 62
8
 10
3.2648165845423
 20
9.8099457024632
 11
3.2648165845423
 21
9.7144783351169
  0
LINE
  8
ERSF.1
  6
CONTINUOUS
 62
8
 10
2.6372943340786
 20
10.742640242205
 11
2.6534665489948
 21
10.68526014166
  0
LINE
  8
ERSF.1
  6
CONTINUOUS
 62
8
 10
2.6081261696115
 20
10.556953050688
 11
2.6312090773461
 21
10.578944366968
  0
LINE
  8
ERSF.1
  6
CONTINUOUS
 62
8
 10
2.6312090773461
 20
10.578944366968
 11
2.6485041655519
 21
10.604311131833
  0
LINE
  8
ERSF.1
  6
CONTINUOUS
 62
8
 10
2.6485041655519
 20
10.604311131833
 11
2.6581251707951
 21
10.631000546796
  0
LINE
  8
ERSF.1
  6
CONTINUOUS
 62
8
 10
2.6581251707951
 20
10.631000546796
 11
2.6597953142718
 21
10.658244805983
  0
LINE
  8
ERSF.1
  6
CONTINUOUS
 62
8
 10
2.6597953142718
 20
10.658244805983
 11
2.6534665489948
 21
10.68526014166
  0
POLYLINE
  8
ERSF.1
  6
CONTINUOUS
 62
8
 70
1
 66
1
  0
VERTEX
  8
ERSF.1
  6
CONTINUOUS
 62
8
 10
3.2369099537763
 20
10.109128179833
  0
VERTEX
  8
ERSF.1
  6
CONTINUOUS
 62
8
 10
3.2786760168742
 20
10.117840477413
  0
VERTEX
  8
ERSF.1
  6
CONTINUOUS
 62
8
 10
3.3172910667891
 20
10.130502682778
  0
VERTEX
  8
ERSF.1
  6
CONTINUOUS
 62
8
 10
3.3516442188413
 20
10.146750527334
  0
VERTEX
  8
ERSF.1
  6
CONTINUOUS
 62
8
 10
3.3807471953929
 20
10.166116590176
  0
VERTEX
  8
ERSF.1
  6
CONTINUOUS
 62
8
 10
3.4037627567961
 20
10.188043744934
  0
VERTEX
  8
ERSF.1
  6
CONTINUOUS
 62
8
 10
3.4200287872538
 20
10.211901187289
  0
VERTEX
  8
ERSF.1
  6
CONTINUOUS
 62
8
 10
3.429077342685
 20
10.237002582062
  0
VERTEX
  8
ERSF.1
  6
CONTINUOUS
 62
8
 10
3.4306481126248
 20
10.262625807828
  0
VERTEX
  8
ERSF.1
  6
CONTINUOUS
 62
8
 10
3.4246959088818
 20
10.288033731032
  0
VERTEX
  8
ERSF.1
  6
CONTINUOUS
 62
8
 10
3.4113919655206
 20
10.312495411985
  0
VERTEX
  8
ERSF.1
  6
CONTINUOUS
 62
8
 10
3.3911190127692
 20
10.335307132663
  0
VERTEX
  8
ERSF.1
  6
CONTINUOUS
 62
8
 10
3.3644602665675
 20
10.355812641394
  0
VERTEX
  8
ERSF.1
  6
CONTINUOUS
 62
8
 10
3.3321826505063
 20
10.373422032028
  0
VERTEX
  8
ERSF.1
  6
CONTINUOUS
 62
8
 10
3.2952147328318
 20
10.387628714457
  0
VERTEX
  8
ERSF.1
  6
CONTINUOUS
 62
8
 10
3.2546200132282
 20
10.398023988293
  0
VERTEX
  8
ERSF.1
  6
CONTINUOUS
 62
8
 10
3.211566327868
 20
10.404308800435
  0
VERTEX
  8
ERSF.1
  6
CONTINUOUS
 62
8
 10
3.1672922528913
 20
10.40630234828
  0
VERTEX
  8
ERSF.1
  6
CONTINUOUS
 62
8
 10
3.1230714728256
 20
10.403947281087
  0
VERTEX
  8
ERSF.1
  6
CONTINUOUS
 62
8
 10
3.0801761390007
 20
10.39731134985
  0
VERTEX
  8
ERSF.1
  6
CONTINUOUS
 62
8
 10
3.0398402720716
 20
10.38658545823
  0
VERTEX
  8
ERSF.1
  6
CONTINUOUS
 62
8
 10
3.0032242614904
 20
10.372078170599
  0
VERTEX
  8
ERSF.1
  6
CONTINUOUS
 62
8
 10
2.9713814832149
 20
10.35420683521
  0
VERTEX
  8
ERSF.1
  6
CONTINUOUS
 62
8
 10
2.9452279960001
 20
10.333485577843
  0
VERTEX
  8
ERSF.1
  6
CONTINUOUS
 62
8
 10
2.9255161880557
 20
10.310510511346
  0
VERTEX
  8
ERSF.1
  6
CONTINUOUS
 62
8
 10
2.9128131322071
 20
10.285942586551
  0
VERTEX
  8
ERSF.1
  6
CONTINUOUS
 62
8
 10
2.9074842722425
 20
10.260488577924
  0
VERTEX
  8
ERSF.1
  6
CONTINUOUS
 62
8
 10
2.909682909761
 20
10.234880750949
  0
VERTEX
  8
ERSF.1
  6
CONTINUOUS
 62
8
 10
2.9193457939641
 20
10.209855796184
  0
VERTEX
  8
ERSF.1
  6
CONTINUOUS
 62
8
 10
2.9361949412666
 20
10.186133636015
  0
VERTEX
  8
ERSF.1
  6
CONTINUOUS
 62
8
 10
2.9597456323777
 20
10.164396713799
  0
VERTEX
  8
ERSF.1
  6
CONTINUOUS
 62
8
 10
2.9893203567927
 20
10.145270361212
  0
VERTEX
  8
ERSF.1
  6
CONTINUOUS
 62
8
 10
3.0240683035369
 20
10.129304808595
  0
VERTEX
  8
ERSF.1
  6
CONTINUOUS
 62
8
 10
3.0629898374477
 20
10.116959355828
  0
VERTEX
  8
ERSF.1
  6
CONTINUOUS
 62
8
 10
3.104965256859
 20
10.108589159109
  0
VERTEX
  8
ERSF.1
  6
CONTINUOUS
 62
8
 10
3.1487870053786
 20
10.104435013759
  0
VERTEX
  8
ERSF.1
  6
CONTINUOUS
 62
8
 10
3.1931944110876
 20
10.104616426976
  0
VERTEX
  8
ERSF.1
  6
CONTINUOUS
 62
8
 10
3.2369099537763
 20
10.109128179833
  0
SEQEND
  0
LINE
  8
ERSF.1
  6
CONTINUOUS
 62
8
 10
2.9128131322071
 20
10.285942586551
 11
2.8966014819322
 21
10.22843019138
  0
LINE
  8
ERSF.1
  6
CONTINUOUS
 62
8
 10
3.4246959088818
 20
10.288033731032
 11
3.440868123798
 21
10.230653630487
  0
LINE
  8
ERSF.1
  6
CONTINUOUS
 62
8
 10
3.2412020364982
 20
10.04042975893
 11
3.2856103970488
 21
10.049693233231
  0
LINE
  8
ERSF.1
  6
CONTINUOUS
 62
8
 10
3.2856103970488
 20
10.049693233231
 11
3.3266683980216
 21
10.063156503157
  0
LINE
  8
ERSF.1
  6
CONTINUOUS
 62
8
 10
3.3266683980216
 20
10.063156503157
 11
3.3631948754827
 21
10.080432254945
  0
LINE
  8
ERSF.1
  6
CONTINUOUS
 62
8
 10
3.3631948754827
 20
10.080432254945
 11
3.3941390291793
 21
10.101023496669
  0
LINE
  8
ERSF.1
  6
CONTINUOUS
 62
8
 10
3.3941390291793
 20
10.101023496669
 11
3.4186106521492
 21
10.124337855795
  0
LINE
  8
ERSF.1
  6
CONTINUOUS
 62
8
 10
3.4186106521492
 20
10.124337855795
 11
3.4359057403551
 21
10.14970462066
  0
LINE
  8
ERSF.1
  6
CONTINUOUS
 62
8
 10
3.4359057403551
 20
10.14970462066
 11
3.4455267455983
 21
10.176394035623
  0
LINE
  8
ERSF.1
  6
CONTINUOUS
 62
8
 10
3.4455267455983
 20
10.176394035623
 11
3.4471968890749
 21
10.20363829481
  0
LINE
  8
ERSF.1
  6
CONTINUOUS
 62
8
 10
3.4471968890749
 20
10.20363829481
 11
3.440868123798
 21
10.230653630487
  0
LINE
  8
ERSF.1
  6
CONTINUOUS
 62
8
 10
2.8966014819322
 20
10.22843019138
 11
2.8909354957923
 21
10.201365854721
  0
LINE
  8
ERSF.1
  6
CONTINUOUS
 62
8
 10
2.8909354957923
 20
10.201365854721
 11
2.893273228401
 21
10.174137968517
  0
LINE
  8
ERSF.1
  6
CONTINUOUS
 62
8
 10
2.893273228401
 20
10.174137968517
 11
2.9035474274474
 21
10.14752982948
  0
LINE
  8
ERSF.1
  6
CONTINUOUS
 62
8
 10
2.9035474274474
 20
10.14752982948
 11
2.9214625229312
 21
10.122306905323
  0
LINE
  8
ERSF.1
  6
CONTINUOUS
 62
8
 10
2.9214625229312
 20
10.122306905323
 11
2.9465031301732
 21
10.099194813653
  0
LINE
  8
ERSF.1
  6
CONTINUOUS
 62
8
 10
2.9465031301732
 20
10.099194813653
 11
2.9779488764943
 21
10.078858447266
  0
LINE
  8
ERSF.1
  6
CONTINUOUS
 62
8
 10
2.9779488764943
 20
10.078858447266
 11
3.0148951250261
 21
10.061882846397
  0
LINE
  8
ERSF.1
  6
CONTINUOUS
 62
8
 10
3.0148951250261
 20
10.061882846397
 11
3.0562789994662
 21
10.048756368175
  0
LINE
  8
ERSF.1
  6
CONTINUOUS
 62
8
 10
3.0562789994662
 20
10.048756368175
 11
3.1009099610943
 21
10.03985663748
  0
LINE
  8
ERSF.1
  6
CONTINUOUS
 62
8
 10
3.1009099610943
 20
10.03985663748
 11
3.1475040584038
 21
10.03543968336
  0
LINE
  8
ERSF.1
  6
CONTINUOUS
 62
8
 10
3.1475040584038
 20
10.03543968336
 11
3.1947208640487
 21
10.035632573543
  0
LINE
  8
ERSF.1
  6
CONTINUOUS
 62
8
 10
3.1947208640487
 20
10.035632573543
 11
3.2412020364982
 21
10.04042975893
  0
LINE
  8
ERSF.1
  6
CONTINUOUS
 62
8
 10
3.7002147070102
 20
10.285942586551
 11
3.6840030567354
 21
10.22843019138
  0
LINE
  8
ERSF.1
  6
CONTINUOUS
 62
8
 10
4.0286036113013
 20
10.04042975893
 11
4.0730119718519
 21
10.049693233231
  0
LINE
  8
ERSF.1
  6
CONTINUOUS
 62
8
 10
4.0730119718519
 20
10.049693233231
 11
4.1140699728247
 21
10.063156503157
  0
LINE
  8
ERSF.1
  6
CONTINUOUS
 62
8
 10
4.1140699728247
 20
10.063156503157
 11
4.1505964502859
 21
10.080432254945
  0
LINE
  8
ERSF.1
  6
CONTINUOUS
 62
8
 10
4.1505964502859
 20
10.080432254945
 11
4.1829293192178
 21
10.101947592748
  0
LINE
  8
ERSF.1
  6
CONTINUOUS
 62
8
 10
3.6840030567354
 20
10.22843019138
 11
3.6783370705955
 21
10.201365854721
  0
LINE
  8
ERSF.1
  6
CONTINUOUS
 62
8
 10
3.6783370705955
 20
10.201365854721
 11
3.6806748032042
 21
10.174137968517
  0
LINE
  8
ERSF.1
  6
CONTINUOUS
 62
8
 10
3.6806748032042
 20
10.174137968517
 11
3.6909490022506
 21
10.14752982948
  0
LINE
  8
ERSF.1
  6
CONTINUOUS
 62
8
 10
3.6909490022506
 20
10.14752982948
 11
3.7088640977343
 21
10.122306905323
  0
LINE
  8
ERSF.1
  6
CONTINUOUS
 62
8
 10
3.7088640977343
 20
10.122306905323
 11
3.7339047049763
 21
10.099194813653
  0
LINE
  8
ERSF.1
  6
CONTINUOUS
 62
8
 10
3.7339047049763
 20
10.099194813653
 11
3.7653504512974
 21
10.078858447266
  0
LINE
  8
ERSF.1
  6
CONTINUOUS
 62
8
 10
3.7653504512974
 20
10.078858447266
 11
3.8022966998293
 21
10.061882846397
  0
LINE
  8
ERSF.1
  6
CONTINUOUS
 62
8
 10
3.8022966998293
 20
10.061882846397
 11
3.8436805742693
 21
10.048756368175
  0
LINE
  8
ERSF.1
  6
CONTINUOUS
 62
8
 10
3.8436805742693
 20
10.048756368175
 11
3.8883115358974
 21
10.03985663748
  0
LINE
  8
ERSF.1
  6
CONTINUOUS
 62
8
 10
3.8883115358974
 20
10.03985663748
 11
3.9349056332069
 21
10.03543968336
  0
LINE
  8
ERSF.1
  6
CONTINUOUS
 62
8
 10
3.9349056332069
 20
10.03543968336
 11
3.9821224388519
 21
10.035632573543
  0
LINE
  8
ERSF.1
  6
CONTINUOUS
 62
8
 10
3.9821224388519
 20
10.035632573543
 11
4.0286036113013
 21
10.04042975893
  0
LINE
  8
ERSF.1
  6
CONTINUOUS
 62
8
 10
3.7002147070102
 20
10.740549097724
 11
3.6840030567354
 21
10.683036702553
  0
LINE
  8
ERSF.1
  6
CONTINUOUS
 62
8
 10
4.0286036113013
 20
10.495036270103
 11
4.0730119718519
 21
10.504299744404
  0
LINE
  8
ERSF.1
  6
CONTINUOUS
 62
8
 10
4.0730119718519
 20
10.504299744404
 11
4.1140699728247
 21
10.51776301433
  0
LINE
  8
ERSF.1
  6
CONTINUOUS
 62
8
 10
4.1140699728247
 20
10.51776301433
 11
4.1505964502859
 21
10.535038766118
  0
LINE
  8
ERSF.1
  6
CONTINUOUS
 62
8
 10
4.1505964502859
 20
10.535038766118
 11
4.1829293192178
 21
10.55655410392
  0
LINE
  8
ERSF.1
  6
CONTINUOUS
 62
8
 10
3.6840030567354
 20
10.683036702553
 11
3.6783370705955
 21
10.655972365894
  0
LINE
  8
ERSF.1
  6
CONTINUOUS
 62
8
 10
3.6783370705955
 20
10.655972365894
 11
3.6806748032042
 21
10.62874447969
  0
LINE
  8
ERSF.1
  6
CONTINUOUS
 62
8
 10
3.6806748032042
 20
10.62874447969
 11
3.6909490022506
 21
10.602136340653
  0
LINE
  8
ERSF.1
  6
CONTINUOUS
 62
8
 10
3.6909490022506
 20
10.602136340653
 11
3.7088640977343
 21
10.576913416496
  0
LINE
  8
ERSF.1
  6
CONTINUOUS
 62
8
 10
3.7088640977343
 20
10.576913416496
 11
3.7339047049763
 21
10.553801324826
  0
LINE
  8
ERSF.1
  6
CONTINUOUS
 62
8
 10
3.7339047049763
 20
10.553801324826
 11
3.7653504512974
 21
10.533464958439
  0
LINE
  8
ERSF.1
  6
CONTINUOUS
 62
8
 10
3.7653504512974
 20
10.533464958439
 11
3.8022966998293
 21
10.51648935757
  0
LINE
  8
ERSF.1
  6
CONTINUOUS
 62
8
 10
3.8022966998293
 20
10.51648935757
 11
3.8436805742693
 21
10.503362879348
  0
LINE
  8
ERSF.1
  6
CONTINUOUS
 62
8
 10
3.8436805742693
 20
10.503362879348
 11
3.8883115358974
 21
10.494463148653
  0
LINE
  8
ERSF.1
  6
CONTINUOUS
 62
8
 10
3.8883115358974
 20
10.494463148653
 11
3.9349056332069
 21
10.490046194533
  0
LINE
  8
ERSF.1
  6
CONTINUOUS
 62
8
 10
3.9349056332069
 20
10.490046194533
 11
3.9821224388519
 21
10.490239084716
  0
LINE
  8
ERSF.1
  6
CONTINUOUS
 62
8
 10
3.9821224388519
 20
10.490239084716
 11
4.0286036113013
 21
10.495036270103
  0
LINE
  8
ERSF.1
  6
CONTINUOUS
 62
8
 10
2.9128131322071
 20
10.740549097724
 11
2.8966014819322
 21
10.683036702553
  0
LINE
  8
ERSF.1
  6
CONTINUOUS
 62
8
 10
3.4246959088818
 20
10.742640242205
 11
3.440868123798
 21
10.68526014166
  0
LINE
  8
ERSF.1
  6
CONTINUOUS
 62
8
 10
3.2412020364982
 20
10.495036270103
 11
3.2856103970488
 21
10.504299744404
  0
LINE
  8
ERSF.1
  6
CONTINUOUS
 62
8
 10
3.2856103970488
 20
10.504299744404
 11
3.3266683980216
 21
10.51776301433
  0
LINE
  8
ERSF.1
  6
CONTINUOUS
 62
8
 10
3.3266683980216
 20
10.51776301433
 11
3.3631948754827
 21
10.535038766118
  0
LINE
  8
ERSF.1
  6
CONTINUOUS
 62
8
 10
3.3631948754827
 20
10.535038766118
 11
3.3941390291793
 21
10.555630007842
  0
LINE
  8
ERSF.1
  6
CONTINUOUS
 62
8
 10
3.3941390291793
 20
10.555630007842
 11
3.4186106521492
 21
10.578944366968
  0
LINE
  8
ERSF.1
  6
CONTINUOUS
 62
8
 10
3.4186106521492
 20
10.578944366968
 11
3.4359057403551
 21
10.604311131833
  0
LINE
  8
ERSF.1
  6
CONTINUOUS
 62
8
 10
3.4359057403551
 20
10.604311131833
 11
3.4455267455983
 21
10.631000546796
  0
LINE
  8
ERSF.1
  6
CONTINUOUS
 62
8
 10
3.4455267455983
 20
10.631000546796
 11
3.4471968890749
 21
10.658244805983
  0
LINE
  8
ERSF.1
  6
CONTINUOUS
 62
8
 10
3.4471968890749
 20
10.658244805983
 11
3.440868123798
 21
10.68526014166
  0
LINE
  8
ERSF.1
  6
CONTINUOUS
 62
8
 10
2.8966014819322
 20
10.683036702553
 11
2.8909354957923
 21
10.655972365894
  0
LINE
  8
ERSF.1
  6
CONTINUOUS
 62
8
 10
2.8909354957923
 20
10.655972365894
 11
2.893273228401
 21
10.62874447969
  0
LINE
  8
ERSF.1
  6
CONTINUOUS
 62
8
 10
2.893273228401
 20
10.62874447969
 11
2.9035474274474
 21
10.602136340653
  0
LINE
  8
ERSF.1
  6
CONTINUOUS
 62
8
 10
2.9035474274474
 20
10.602136340653
 11
2.9214625229312
 21
10.576913416496
  0
LINE
  8
ERSF.1
  6
CONTINUOUS
 62
8
 10
2.9214625229312
 20
10.576913416496
 11
2.9465031301731
 21
10.553801324826
  0
LINE
  8
ERSF.1
  6
CONTINUOUS
 62
8
 10
2.9465031301731
 20
10.553801324826
 11
2.9779488764943
 21
10.533464958439
  0
LINE
  8
ERSF.1
  6
CONTINUOUS
 62
8
 10
2.9779488764943
 20
10.533464958439
 11
3.0148951250261
 21
10.51648935757
  0
LINE
  8
ERSF.1
  6
CONTINUOUS
 62
8
 10
3.0148951250261
 20
10.51648935757
 11
3.0562789994662
 21
10.503362879348
  0
LINE
  8
ERSF.1
  6
CONTINUOUS
 62
8
 10
3.0562789994662
 20
10.503362879348
 11
3.1009099610943
 21
10.494463148653
  0
LINE
  8
ERSF.1
  6
CONTINUOUS
 62
8
 10
3.1009099610943
 20
10.494463148653
 11
3.1475040584038
 21
10.490046194533
  0
LINE
  8
ERSF.1
  6
CONTINUOUS
 62
8
 10
3.1475040584038
 20
10.490046194533
 11
3.1947208640487
 21
10.490239084716
  0
LINE
  8
ERSF.1
  6
CONTINUOUS
 62
8
 10
3.1947208640487
 20
10.490239084716
 11
3.2412020364982
 21
10.495036270103
  0
LINE
  8
ERSF.1
  6
CONTINUOUS
 62
8
 10
3.7002147070102
 20
9.8313360753784
 11
3.6840030567354
 21
9.7738236802067
  0
LINE
  8
ERSF.1
  6
CONTINUOUS
 62
8
 10
4.0286036113013
 20
9.5858232477572
 11
4.0730119718519
 21
9.5950867220584
  0
LINE
  8
ERSF.1
  6
CONTINUOUS
 62
8
 10
4.0730119718519
 20
9.5950867220584
 11
4.1140699728247
 21
9.6085499919844
  0
LINE
  8
ERSF.1
  6
CONTINUOUS
 62
8
 10
4.1140699728247
 20
9.6085499919844
 11
4.1505964502859
 21
9.6258257437718
  0
LINE
  8
ERSF.1
  6
CONTINUOUS
 62
8
 10
4.1505964502859
 20
9.6258257437718
 11
4.1829293192178
 21
9.6473410815746
  0
LINE
  8
ERSF.1
  6
CONTINUOUS
 62
8
 10
3.6840030567354
 20
9.7738236802067
 11
3.6783370705955
 21
9.7467593435485
  0
LINE
  8
ERSF.1
  6
CONTINUOUS
 62
8
 10
3.6783370705955
 20
9.7467593435485
 11
3.6806748032042
 21
9.7195314573444
  0
LINE
  8
ERSF.1
  6
CONTINUOUS
 62
8
 10
3.6806748032042
 20
9.7195314573444
 11
3.6909490022506
 21
9.6929233183068
  0
LINE
  8
ERSF.1
  6
CONTINUOUS
 62
8
 10
3.6909490022506
 20
9.6929233183068
 11
3.7088640977343
 21
9.6677003941505
  0
LINE
  8
ERSF.1
  6
CONTINUOUS
 62
8
 10
3.7088640977343
 20
9.6677003941505
 11
3.7339047049763
 21
9.6445883024801
  0
LINE
  8
ERSF.1
  6
CONTINUOUS
 62
8
 10
3.7339047049763
 20
9.6445883024801
 11
3.7653504512975
 21
9.624251936093
  0
LINE
  8
ERSF.1
  6
CONTINUOUS
 62
8
 10
3.7653504512975
 20
9.624251936093
 11
3.8022966998293
 21
9.6072763352239
  0
LINE
  8
ERSF.1
  6
CONTINUOUS
 62
8
 10
3.8022966998293
 20
9.6072763352239
 11
3.8436805742693
 21
9.5941498570022
  0
LINE
  8
ERSF.1
  6
CONTINUOUS
 62
8
 10
3.8436805742693
 20
9.5941498570022
 11
3.8883115358974
 21
9.5852501263072
  0
LINE
  8
ERSF.1
  6
CONTINUOUS
 62
8
 10
3.8883115358974
 20
9.5852501263072
 11
3.9349056332069
 21
9.5808331721872
  0
LINE
  8
ERSF.1
  6
CONTINUOUS
 62
8
 10
3.9349056332069
 20
9.5808331721872
 11
3.9821224388519
 21
9.5810260623703
  0
LINE
  8
ERSF.1
  6
CONTINUOUS
 62
8
 10
3.9821224388519
 20
9.5810260623703
 11
4.0286036113013
 21
9.5858232477572
  0
LINE
  8
ERSF.1
  6
CONTINUOUS
 62
8
 10
3.7767219315958
 20
10.145270361212
 11
4.1518618413707
 21
10.355812641394
  0
LINE
  8
ERSF.1
  6
CONTINUOUS
 62
8
 10
3.7767219315958
 20
10.145270361212
 11
3.760095474836
 21
10.082256907763
  0
LINE
  8
ERSF.1
  6
CONTINUOUS
 62
8
 10
3.7692469836082
 20
10.150104505693
 11
4.1437037433328
 21
10.360263377003
  0
LINE
  8
ERSF.1
  6
CONTINUOUS
 62
8
 10
3.7855681375171
 20
10.141205816992
 11
4.1586486814749
 21
10.350592305525
  0
LINE
  8
ERSF.1
  6
CONTINUOUS
 62
8
 10
3.7855681375171
 20
10.141205816992
 11
3.7679157117526
 21
10.077679793429
  0
LINE
  8
ERSF.1
  6
CONTINUOUS
 62
8
 10
3.7692469836082
 20
10.150104505693
 11
3.7526676465527
 21
10.087060579328
  0
LINE
  8
ERSF.1
  6
CONTINUOUS
 62
8
 10
3.2805646160384
 20
9.8008535722398
 11
3.7679157117526
 21
10.077679793429
  0
LINE
  8
ERSF.1
  6
CONTINUOUS
 62
8
 10
3.2648165845423
 20
9.8099457024632
 11
3.7526676465527
 21
10.087060579328
  0
LINE
  8
ERSF.1
  6
CONTINUOUS
 62
8
 10
3.3806282652983
 20
9.6476144300571
 11
3.3518073673625
 21
9.7551754854732
  0
LINE
  8
ERSF.1
  6
CONTINUOUS
 62
8
 10
3.2841916612517
 20
9.7032921293632
 11
3.2805646160384
 21
9.7168284463807
  0
LINE
  8
ERSF.1
  6
CONTINUOUS
 62
8
 10
3.3295278734814
 20
9.6862093852518
 11
3.3035890653392
 21
9.7830143351263
  0
LINE
  8
ERSF.1
  6
CONTINUOUS
 62
8
 10
3.3140911083265
 20
9.6860296755459
 11
3.371732904198
 21
9.7436714714175
  0
LINE
  8
ERSF.1
  6
CONTINUOUS
 62
8
 10
3.2787928613907
 20
9.7064091279162
 11
3.3364346572623
 21
9.7640509237878
  0
LINE
  8
ERSF.1
  6
CONTINUOUS
 62
8
 10
3.2805646160384
 20
9.7638585818699
 11
3.3011364103265
 21
9.784430376158
  0
LINE
  8
ERSF.1
  6
CONTINUOUS
 62
8
 10
4.0243115285795
 20
9.6545216686596
 11
4.0660775916773
 21
9.66323396624
  0
LINE
  8
ERSF.1
  6
CONTINUOUS
 62
8
 10
4.0660775916773
 20
9.66323396624
 11
4.1046926415922
 21
9.6758961716054
  0
LINE
  8
ERSF.1
  6
CONTINUOUS
 62
8
 10
4.1046926415922
 20
9.6758961716054
 11
4.1390457936445
 21
9.6921440161614
  0
LINE
  8
ERSF.1
  6
CONTINUOUS
 62
8
 10
4.1390457936445
 20
9.6921440161614
 11
4.168148770196
 21
9.7115100790027
  0
LINE
  8
ERSF.1
  6
CONTINUOUS
 62
8
 10
4.168148770196
 20
9.7115100790027
 11
4.1829293192178
 21
9.7255916553819
  0
LINE
  8
ERSF.1
  6
CONTINUOUS
 62
8
 10
4.1829293192178
 20
9.8773094910681
 11
4.1518618413707
 21
9.9012061302215
  0
LINE
  8
ERSF.1
  6
CONTINUOUS
 62
8
 10
4.1518618413707
 20
9.9012061302215
 11
4.1195842253094
 21
9.9188155208552
  0
LINE
  8
ERSF.1
  6
CONTINUOUS
 62
8
 10
4.1195842253094
 20
9.9188155208552
 11
4.0826163076349
 21
9.9330222032839
  0
LINE
  8
ERSF.1
  6
CONTINUOUS
 62
8
 10
4.0826163076349
 20
9.9330222032839
 11
4.0420215880314
 21
9.9434174771201
  0
LINE
  8
ERSF.1
  6
CONTINUOUS
 62
8
 10
4.0420215880314
 20
9.9434174771201
 11
3.9989679026711
 21
9.9497022892621
  0
LINE
  8
ERSF.1
  6
CONTINUOUS
 62
8
 10
3.9989679026711
 20
9.9497022892621
 11
3.9546938276944
 21
9.9516958371074
  0
LINE
  8
ERSF.1
  6
CONTINUOUS
 62
8
 10
3.9546938276944
 20
9.9516958371074
 11
3.9104730476287
 21
9.949340769914
  0
LINE
  8
ERSF.1
  6
CONTINUOUS
 62
8
 10
3.9104730476287
 20
9.949340769914
 11
3.8675777138039
 21
9.9427048386774
  0
LINE
  8
ERSF.1
  6
CONTINUOUS
 62
8
 10
3.8675777138039
 20
9.9427048386774
 11
3.8272418468747
 21
9.931978947057
  0
LINE
  8
ERSF.1
  6
CONTINUOUS
 62
8
 10
3.8272418468747
 20
9.931978947057
 11
3.7906258362935
 21
9.9174716594264
  0
LINE
  8
ERSF.1
  6
CONTINUOUS
 62
8
 10
3.7906258362935
 20
9.9174716594264
 11
3.758783058018
 21
9.8996003240373
  0
LINE
  8
ERSF.1
  6
CONTINUOUS
 62
8
 10
3.758783058018
 20
9.8996003240373
 11
3.7326295708033
 21
9.8788790666704
  0
LINE
  8
ERSF.1
  6
CONTINUOUS
 62
8
 10
3.7326295708033
 20
9.8788790666704
 11
3.7129177628589
 21
9.8559040001733
  0
LINE
  8
ERSF.1
  6
CONTINUOUS
 62
8
 10
3.7129177628589
 20
9.8559040001733
 11
3.7002147070102
 21
9.8313360753784
  0
LINE
  8
ERSF.1
  6
CONTINUOUS
 62
8
 10
3.7002147070102
 20
9.8313360753784
 11
3.6948858470456
 21
9.8058820667514
  0
LINE
  8
ERSF.1
  6
CONTINUOUS
 62
8
 10
3.6948858470456
 20
9.8058820667514
 11
3.6970844845641
 21
9.7802742397764
  0
LINE
  8
ERSF.1
  6
CONTINUOUS
 62
8
 10
3.6970844845641
 20
9.7802742397764
 11
3.7067473687672
 21
9.7552492850116
  0
LINE
  8
ERSF.1
  6
CONTINUOUS
 62
8
 10
3.7067473687672
 20
9.7552492850116
 11
3.7235965160697
 21
9.7315271248425
  0
LINE
  8
ERSF.1
  6
CONTINUOUS
 62
8
 10
3.7235965160697
 20
9.7315271248425
 11
3.7471472071808
 21
9.7097902026266
  0
LINE
  8
ERSF.1
  6
CONTINUOUS
 62
8
 10
3.7471472071808
 20
9.7097902026266
 11
3.7767219315958
 21
9.6906638500395
  0
LINE
  8
ERSF.1
  6
CONTINUOUS
 62
8
 10
3.7767219315958
 20
9.6906638500395
 11
3.81146987834
 21
9.6746982974221
  0
LINE
  8
ERSF.1
  6
CONTINUOUS
 62
8
 10
3.81146987834
 20
9.6746982974221
 11
3.8503914122509
 21
9.6623528446546
  0
LINE
  8
ERSF.1
  6
CONTINUOUS
 62
8
 10
3.8503914122509
 20
9.6623528446546
 11
3.8923668316621
 21
9.6539826479359
  0
LINE
  8
ERSF.1
  6
CONTINUOUS
 62
8
 10
3.8923668316621
 20
9.6539826479359
 11
3.9361885801817
 21
9.6498285025861
  0
LINE
  8
ERSF.1
  6
CONTINUOUS
 62
8
 10
3.9361885801817
 20
9.6498285025861
 11
3.9805959858908
 21
9.6500099158033
  0
LINE
  8
ERSF.1
  6
CONTINUOUS
 62
8
 10
3.9805959858908
 20
9.6500099158033
 11
4.0243115285795
 21
9.6545216686596
  0
LINE
  8
ERSF.1
  6
CONTINUOUS
 62
8
 10
4.0243115285795
 20
10.109128179833
 11
4.0660775916773
 21
10.117840477413
  0
LINE
  8
ERSF.1
  6
CONTINUOUS
 62
8
 10
4.0660775916773
 20
10.117840477413
 11
4.1046926415922
 21
10.130502682778
  0
LINE
  8
ERSF.1
  6
CONTINUOUS
 62
8
 10
4.1046926415922
 20
10.130502682778
 11
4.1390457936444
 21
10.146750527334
  0
LINE
  8
ERSF.1
  6
CONTINUOUS
 62
8
 10
4.1390457936444
 20
10.146750527334
 11
4.168148770196
 21
10.166116590176
  0
LINE
  8
ERSF.1
  6
CONTINUOUS
 62
8
 10
4.168148770196
 20
10.166116590176
 11
4.1829293192178
 21
10.180198166555
  0
LINE
  8
ERSF.1
  6
CONTINUOUS
 62
8
 10
4.1829293192178
 20
10.331916002241
 11
4.1518618413707
 21
10.355812641394
  0
LINE
  8
ERSF.1
  6
CONTINUOUS
 62
8
 10
4.1518618413707
 20
10.355812641394
 11
4.1195842253094
 21
10.373422032028
  0
LINE
  8
ERSF.1
  6
CONTINUOUS
 62
8
 10
4.1195842253094
 20
10.373422032028
 11
4.0826163076349
 21
10.387628714457
  0
LINE
  8
ERSF.1
  6
CONTINUOUS
 62
8
 10
4.0826163076349
 20
10.387628714457
 11
4.0420215880313
 21
10.398023988293
  0
LINE
  8
ERSF.1
  6
CONTINUOUS
 62
8
 10
4.0420215880313
 20
10.398023988293
 11
3.9989679026711
 21
10.404308800435
  0
LINE
  8
ERSF.1
  6
CONTINUOUS
 62
8
 10
3.9989679026711
 20
10.404308800435
 11
3.9546938276944
 21
10.40630234828
  0
LINE
  8
ERSF.1
  6
CONTINUOUS
 62
8
 10
3.9546938276944
 20
10.40630234828
 11
3.9104730476287
 21
10.403947281087
  0
LINE
  8
ERSF.1
  6
CONTINUOUS
 62
8
 10
3.9104730476287
 20
10.403947281087
 11
3.8675777138039
 21
10.39731134985
  0
LINE
  8
ERSF.1
  6
CONTINUOUS
 62
8
 10
3.8675777138039
 20
10.39731134985
 11
3.8272418468747
 21
10.38658545823
  0
LINE
  8
ERSF.1
  6
CONTINUOUS
 62
8
 10
3.8272418468747
 20
10.38658545823
 11
3.7906258362935
 21
10.372078170599
  0
LINE
  8
ERSF.1
  6
CONTINUOUS
 62
8
 10
3.7906258362935
 20
10.372078170599
 11
3.758783058018
 21
10.35420683521
  0
LINE
  8
ERSF.1
  6
CONTINUOUS
 62
8
 10
3.758783058018
 20
10.35420683521
 11
3.7326295708033
 21
10.333485577843
  0
LINE
  8
ERSF.1
  6
CONTINUOUS
 62
8
 10
3.7326295708033
 20
10.333485577843
 11
3.7129177628589
 21
10.310510511346
  0
LINE
  8
ERSF.1
  6
CONTINUOUS
 62
8
 10
3.7129177628589
 20
10.310510511346
 11
3.7002147070102
 21
10.285942586551
  0
LINE
  8
ERSF.1
  6
CONTINUOUS
 62
8
 10
3.7002147070102
 20
10.285942586551
 11
3.6948858470456
 21
10.260488577924
  0
LINE
  8
ERSF.1
  6
CONTINUOUS
 62
8
 10
3.6948858470456
 20
10.260488577924
 11
3.6970844845641
 21
10.234880750949
  0
LINE
  8
ERSF.1
  6
CONTINUOUS
 62
8
 10
3.6970844845641
 20
10.234880750949
 11
3.7067473687672
 21
10.209855796184
  0
LINE
  8
ERSF.1
  6
CONTINUOUS
 62
8
 10
3.7067473687672
 20
10.209855796184
 11
3.7235965160697
 21
10.186133636015
  0
LINE
  8
ERSF.1
  6
CONTINUOUS
 62
8
 10
3.7235965160697
 20
10.186133636015
 11
3.7471472071808
 21
10.164396713799
  0
LINE
  8
ERSF.1
  6
CONTINUOUS
 62
8
 10
3.7471472071808
 20
10.164396713799
 11
3.7767219315958
 21
10.145270361212
  0
LINE
  8
ERSF.1
  6
CONTINUOUS
 62
8
 10
3.7767219315958
 20
10.145270361212
 11
3.81146987834
 21
10.129304808595
  0
LINE
  8
ERSF.1
  6
CONTINUOUS
 62
8
 10
3.81146987834
 20
10.129304808595
 11
3.8503914122509
 21
10.116959355828
  0
LINE
  8
ERSF.1
  6
CONTINUOUS
 62
8
 10
3.8503914122509
 20
10.116959355828
 11
3.8923668316621
 21
10.108589159109
  0
LINE
  8
ERSF.1
  6
CONTINUOUS
 62
8
 10
3.8923668316621
 20
10.108589159109
 11
3.9361885801817
 21
10.104435013759
  0
LINE
  8
ERSF.1
  6
CONTINUOUS
 62
8
 10
3.9361885801817
 20
10.104435013759
 11
3.9805959858908
 21
10.104616426976
  0
LINE
  8
ERSF.1
  6
CONTINUOUS
 62
8
 10
3.9805959858908
 20
10.104616426976
 11
4.0243115285795
 21
10.109128179833
  0
LINE
  8
ERSF.1
  6
CONTINUOUS
 62
8
 10
4.0243115285795
 20
10.563734691006
 11
4.0660775916773
 21
10.572446988586
  0
LINE
  8
ERSF.1
  6
CONTINUOUS
 62
8
 10
4.0660775916773
 20
10.572446988586
 11
4.1046926415922
 21
10.585109193951
  0
LINE
  8
ERSF.1
  6
CONTINUOUS
 62
8
 10
4.1046926415922
 20
10.585109193951
 11
4.1390457936444
 21
10.601357038507
  0
LINE
  8
ERSF.1
  6
CONTINUOUS
 62
8
 10
4.1390457936444
 20
10.601357038507
 11
4.168148770196
 21
10.620723101349
  0
LINE
  8
ERSF.1
  6
CONTINUOUS
 62
8
 10
3.7098628917857
 20
10.759208850212
 11
3.7002147070102
 21
10.740549097724
  0
LINE
  8
ERSF.1
  6
CONTINUOUS
 62
8
 10
3.7002147070102
 20
10.740549097724
 11
3.6948858470456
 21
10.715095089097
  0
LINE
  8
ERSF.1
  6
CONTINUOUS
 62
8
 10
3.6948858470456
 20
10.715095089097
 11
3.6970844845641
 21
10.689487262122
  0
LINE
  8
ERSF.1
  6
CONTINUOUS
 62
8
 10
3.6970844845641
 20
10.689487262122
 11
3.7067473687672
 21
10.664462307357
  0
LINE
  8
ERSF.1
  6
CONTINUOUS
 62
8
 10
3.7067473687672
 20
10.664462307357
 11
3.7235965160697
 21
10.640740147188
  0
LINE
  8
ERSF.1
  6
CONTINUOUS
 62
8
 10
3.7235965160697
 20
10.640740147188
 11
3.7471472071808
 21
10.619003224972
  0
LINE
  8
ERSF.1
  6
CONTINUOUS
 62
8
 10
3.7471472071808
 20
10.619003224972
 11
3.7767219315958
 21
10.599876872385
  0
LINE
  8
ERSF.1
  6
CONTINUOUS
 62
8
 10
3.7767219315958
 20
10.599876872385
 11
3.81146987834
 21
10.583911319768
  0
LINE
  8
ERSF.1
  6
CONTINUOUS
 62
8
 10
3.81146987834
 20
10.583911319768
 11
3.8503914122509
 21
10.571565867
  0
LINE
  8
ERSF.1
  6
CONTINUOUS
 62
8
 10
3.8503914122509
 20
10.571565867
 11
3.8923668316621
 21
10.563195670282
  0
LINE
  8
ERSF.1
  6
CONTINUOUS
 62
8
 10
3.8923668316621
 20
10.563195670282
 11
3.9361885801817
 21
10.559041524932
  0
LINE
  8
ERSF.1
  6
CONTINUOUS
 62
8
 10
3.9361885801817
 20
10.559041524932
 11
3.9805959858908
 21
10.559222938149
  0
LINE
  8
ERSF.1
  6
CONTINUOUS
 62
8
 10
3.9805959858908
 20
10.559222938149
 11
4.0243115285795
 21
10.563734691006
  0
LINE
  8
ERSF.1
  6
CONTINUOUS
 62
8
 10
4.168148770196
 20
10.620723101349
 11
4.1829293192178
 21
10.634804677728
  0
LINE
  8
ERSF.1
  6
CONTINUOUS
 62
8
 10
3.2369099537763
 20
10.563734691006
 11
3.2786760168742
 21
10.572446988586
  0
LINE
  8
ERSF.1
  6
CONTINUOUS
 62
8
 10
3.2786760168742
 20
10.572446988586
 11
3.3172910667891
 21
10.585109193951
  0
LINE
  8
ERSF.1
  6
CONTINUOUS
 62
8
 10
3.3172910667891
 20
10.585109193951
 11
3.3516442188413
 21
10.601357038507
  0
LINE
  8
ERSF.1
  6
CONTINUOUS
 62
8
 10
3.3516442188413
 20
10.601357038507
 11
3.3807471953929
 21
10.620723101349
  0
LINE
  8
ERSF.1
  6
CONTINUOUS
 62
8
 10
3.3807471953929
 20
10.620723101349
 11
3.4037627567961
 21
10.642650256107
  0
LINE
  8
ERSF.1
  6
CONTINUOUS
 62
8
 10
3.4037627567961
 20
10.642650256107
 11
3.4200287872537
 21
10.666507698462
  0
LINE
  8
ERSF.1
  6
CONTINUOUS
 62
8
 10
3.4200287872537
 20
10.666507698462
 11
3.429077342685
 21
10.691609093235
  0
LINE
  8
ERSF.1
  6
CONTINUOUS
 62
8
 10
3.429077342685
 20
10.691609093235
 11
3.4306481126248
 21
10.717232319001
  0
LINE
  8
ERSF.1
  6
CONTINUOUS
 62
8
 10
3.4306481126248
 20
10.717232319001
 11
3.4246959088818
 21
10.742640242205
  0
LINE
  8
ERSF.1
  6
CONTINUOUS
 62
8
 10
3.4246959088818
 20
10.742640242205
 11
3.4156847610821
 21
10.759208850212
  0
LINE
  8
ERSF.1
  6
CONTINUOUS
 62
8
 10
2.9224613169826
 20
10.759208850212
 11
2.9128131322071
 21
10.740549097724
  0
LINE
  8
ERSF.1
  6
CONTINUOUS
 62
8
 10
2.9128131322071
 20
10.740549097724
 11
2.9074842722425
 21
10.715095089097
  0
LINE
  8
ERSF.1
  6
CONTINUOUS
 62
8
 10
2.9074842722425
 20
10.715095089097
 11
2.909682909761
 21
10.689487262122
  0
LINE
  8
ERSF.1
  6
CONTINUOUS
 62
8
 10
2.909682909761
 20
10.689487262122
 11
2.9193457939641
 21
10.664462307357
  0
LINE
  8
ERSF.1
  6
CONTINUOUS
 62
8
 10
2.9193457939641
 20
10.664462307357
 11
2.9361949412666
 21
10.640740147188
  0
LINE
  8
ERSF.1
  6
CONTINUOUS
 62
8
 10
2.9361949412666
 20
10.640740147188
 11
2.9597456323776
 21
10.619003224972
  0
LINE
  8
ERSF.1
  6
CONTINUOUS
 62
8
 10
2.9597456323776
 20
10.619003224972
 11
2.9893203567927
 21
10.599876872385
  0
LINE
  8
ERSF.1
  6
CONTINUOUS
 62
8
 10
2.9893203567927
 20
10.599876872385
 11
3.0240683035369
 21
10.583911319768
  0
LINE
  8
ERSF.1
  6
CONTINUOUS
 62
8
 10
3.0240683035369
 20
10.583911319768
 11
3.0629898374477
 21
10.571565867
  0
LINE
  8
ERSF.1
  6
CONTINUOUS
 62
8
 10
3.0629898374477
 20
10.571565867
 11
3.104965256859
 21
10.563195670282
  0
LINE
  8
ERSF.1
  6
CONTINUOUS
 62
8
 10
3.104965256859
 20
10.563195670282
 11
3.1487870053786
 21
10.559041524932
  0
LINE
  8
ERSF.1
  6
CONTINUOUS
 62
8
 10
3.1487870053786
 20
10.559041524932
 11
3.1931944110876
 21
10.559222938149
  0
LINE
  8
ERSF.1
  6
CONTINUOUS
 62
8
 10
3.1931944110876
 20
10.559222938149
 11
3.2369099537763
 21
10.563734691006
  0
LINE
  8
ERSF.1
  6
CONTINUOUS
 62
8
 10
2.6081261696115
 20
10.630571935357
 11
2.6326272124506
 21
10.666507698462
  0
LINE
  8
ERSF.1
  6
CONTINUOUS
 62
8
 10
2.6326272124506
 20
10.666507698462
 11
2.6416757678818
 21
10.691609093235
  0
LINE
  8
ERSF.1
  6
CONTINUOUS
 62
8
 10
2.6416757678818
 20
10.691609093235
 11
2.6432465378216
 21
10.717232319001
  0
LINE
  8
ERSF.1
  6
CONTINUOUS
 62
8
 10
2.6432465378216
 20
10.717232319001
 11
2.6372943340786
 21
10.742640242205
  0
LINE
  8
ERSF.1
  6
CONTINUOUS
 62
8
 10
2.6372943340786
 20
10.742640242205
 11
2.6282831862789
 21
10.759208850212
  0
LINE
  8
ERSF.1
  6
CONTINUOUS
 62
8
 10
4.1829293192178
 20
9.2798730679519
 11
2.6081261696115
 21
10.189086090298
  0
LINE
  8
ERSF.1
  6
CONTINUOUS
 62
8
 10
2.749858453076
 20
10.020881681164
 11
2.749858453076
 21
10.01178955094
  0
LINE
  8
ERSF.1
  6
CONTINUOUS
 62
8
 10
2.8679686892965
 20
9.9526907044879
 11
2.8679686892965
 21
9.9435985742644
  0
LINE
  8
ERSF.1
  6
CONTINUOUS
 62
8
 10
2.986078925517
 20
9.8844997278119
 11
2.986078925517
 21
9.8754075975885
  0
LINE
  8
ERSF.1
  6
CONTINUOUS
 62
8
 10
3.1041891617375
 20
9.816308751136
 11
3.1041891617375
 21
9.8072166209125
  0
LINE
  8
ERSF.1
  6
CONTINUOUS
 62
8
 10
3.2222993979579
 20
9.74811777446
 11
3.2222993979579
 21
9.7390256442366
  0
LINE
  8
ERSF.1
  6
CONTINUOUS
 62
8
 10
3.3404096341784
 20
9.6799267977841
 11
3.3404096341784
 21
9.6708346675607
  0
LINE
  8
ERSF.1
  6
CONTINUOUS
 62
8
 10
3.4585198703989
 20
9.6117358211082
 11
3.4585198703989
 21
9.6026436908847
  0
LINE
  8
ERSF.1
  6
CONTINUOUS
 62
8
 10
3.5766301066193
 20
9.5435448444322
 11
3.5766301066193
 21
9.5344527142088
  0
LINE
  8
ERSF.1
  6
CONTINUOUS
 62
8
 10
3.6947403428398
 20
9.4753538677563
 11
3.6947403428398
 21
9.4662617375328
  0
LINE
  8
ERSF.1
  6
CONTINUOUS
 62
8
 10
3.8128505790603
 20
9.4071628910803
 11
3.8128505790603
 21
9.3980707608569
  0
LINE
  8
ERSF.1
  6
CONTINUOUS
 62
8
 10
3.9309608152808
 20
9.3389719144044
 11
3.9309608152808
 21
9.329879784181
  0
LINE
  8
ERSF.1
  6
CONTINUOUS
 62
8
 10
4.0490710515012
 20
9.2707809377285
 11
4.0490710515012
 21
9.261688807505
  0
LINE
  8
ERSF.1
  6
CONTINUOUS
 62
8
 10
4.1671812877217
 20
9.2025899610525
 11
4.1671812877217
 21
9.1934978308291
  0
ENDSEC
  0
EOF
