  0
SECTION
  2
HEADER
  9
$EXTMIN
 10
3.2366005424607
 20
8.7306192721024
  9
$EXTMAX
 10
4.811403692067
 20
10.305422421709
  9
$LIMMIN
 10
0
 20
0
  9
$LIMMAX
 10
8.27
 20
11.69
  0
ENDSEC
  0
SECTION
  2
TABLES
  0
TABLE
  2
LTYPE
 70
9
  0
LTYPE
  2
CONTINUOUS
  3
___________________________
 70
64
 72
65
 73
0
 40
0
  0
LTYPE
  2
HIDDEN
  3
_ _ _ _ _ _ _ _ _ _ _ _ _ _ 
 70
64
 72
65
 73
2
 49
0.25
 49
-0.125
 40
0.375
  0
LTYPE
  2
DASHED
  3
__ __ __ __ __ __ __ __ __ 
 70
64
 72
65
 73
2
 49
0.5
 49
-0.25
 40
0.75
  0
LTYPE
  2
CENTER
  3
____ _ ____ _ ____ _ ____ _ 
 70
64
 72
65
 73
4
 49
1.25
 49
-0.25
 49
0.25
 49
-0.25
 40
2
  0
LTYPE
  2
PHANTOM
  3
_____ _ _ _____ _ _ _____ _ _ 
 70
64
 72
65
 73
6
 49
1.25
 49
-0.25
 49
0.25
 49
-0.25
 49
0.25
 49
-0.25
 40
2.5
  0
LTYPE
  2
DOT
  3
...........................
 70
64
 72
65
 73
2
 49
0
 49
-0.25
 40
0.25
  0
LTYPE
  2
DASHDOT
  3
__ . __ . __ . __ . __ . __ . 
 70
64
 72
65
 73
4
 49
0.5
 49
-0.25
 49
0
 49
-0.25
 40
1
  0
LTYPE
  2
DIVIDE
  3
__ . . __ . . __ . . __ . . 
 70
64
 72
65
 73
6
 49
0.5
 49
-0.25
 49
0
 49
-0.25
 49
0
 49
-0.25
 40
1.25
  0
LTYPE
  2
BORDER
  3
__ __ . __ __ . __ __ . __ __ . 
 70
64
 72
65
 73
6
 49
0.5
 49
-0.25
 49
0.5
 49
-0.25
 49
0
 49
-0.25
 40
1.75
  0
ENDTAB
  0
TABLE
  2
LAYER
 70
1
  0
LAYER
  2
ERPA.1
 62
7
  6
CONTINUOUS
 70
0
  0
ENDTAB
  0
TABLE
  2
STYLE
 70
5
  0
STYLE
  2
ptmarker
 70
1
 40
0
 50
0
 71
0
 41
0
 42
0
  3
ptmarks
  0
STYLE
  2
TXT
 70
0
 40
0
 50
0
 71
0
 41
0
 42
0
  3
TXT
  0
STYLE
  2
ITALIC
 70
0
 40
0
 50
0
 71
0
 41
0
 42
0
  3
ITALIC
  0
STYLE
  2
SIMPLEX
 70
0
 40
0
 50
0
 71
0
 41
0
 42
0
  3
SIMPLEX
  0
STYLE
  2
COMPLEX
 70
0
 40
0
 50
0
 71
0
 41
0
 42
0
  3
COMPLEX
  0
ENDTAB
  0
ENDSEC
  0
SECTION
  2
BLOCKS
  0
ENDSEC
  0
SECTION
  2
ENTITIES
  0
LINE
  8
ERPA.1
  6
CONTINUOUS
 62
8
 10
4.811403692067
 20
10.305422421709
 11
3.2366005424607
 21
10.305422421709
  0
LINE
  8
ERPA.1
  6
CONTINUOUS
 62
8
 10
4.811403692067
 20
8.7306192721024
 11
4.811403692067
 21
10.305422421709
  0
LINE
  8
ERPA.1
  6
CONTINUOUS
 62
8
 10
3.2366005424607
 20
8.7306192721024
 11
4.811403692067
 21
8.7306192721024
  0
LINE
  8
ERPA.1
  6
CONTINUOUS
 62
8
 10
3.2366005424607
 20
10.305422421709
 11
3.2366005424607
 21
8.7306192721024
  0
LINE
  8
ERPA.1
  6
CONTINUOUS
 62
8
 10
3.2366005424607
 20
10.285457421709
 11
3.595996227154
 21
10.077960226405
  0
LINE
  8
ERPA.1
  6
CONTINUOUS
 62
8
 10
3.595996227154
 20
9.3043164764054
 11
3.595996227154
 21
10.077960226405
  0
LINE
  8
ERPA.1
  6
CONTINUOUS
 62
8
 10
3.2366005424607
 20
9.5118136717087
 11
3.595996227154
 21
9.3043164764054
  0
LINE
  8
ERPA.1
  6
CONTINUOUS
 62
8
 10
3.2366005424607
 20
9.4918486717087
 11
3.595996227154
 21
9.2843514764054
  0
LINE
  8
ERPA.1
  6
CONTINUOUS
 62
8
 10
4.2720788383534
 20
8.894014998835
 11
4.5550885387939
 21
8.7306192721024
  0
LINE
  8
ERPA.1
  6
CONTINUOUS
 62
8
 10
4.3133343792423
 20
8.9178338964728
 11
4.6375996205718
 21
8.7306192721024
  0
LINE
  8
ERPA.1
  6
CONTINUOUS
 62
8
 10
4.2720788383534
 20
8.894014998835
 11
4.2720788383534
 21
9.687623748835
  0
LINE
  8
ERPA.1
  6
CONTINUOUS
 62
8
 10
4.3133343792423
 20
8.9178338964728
 11
4.3133343792423
 21
10.305422421709
  0
LINE
  8
ERPA.1
  6
CONTINUOUS
 62
8
 10
4.2920438383534
 20
8.7306192721024
 11
4.2920438383534
 21
8.8886653932081
  0
LINE
  8
ERPA.1
  6
CONTINUOUS
 62
8
 10
4.2720788383534
 20
8.7306192721024
 11
4.2720788383534
 21
8.894014998835
  0
LINE
  8
ERPA.1
  6
CONTINUOUS
 62
8
 10
3.595996227154
 20
8.7306192721024
 11
3.595996227154
 21
9.2843514764054
  0
LINE
  8
ERPA.1
  6
CONTINUOUS
 62
8
 10
3.6150513452642
 20
9.273349998835
 11
4.2720788383534
 21
8.894014998835
  0
LINE
  8
ERPA.1
  6
CONTINUOUS
 62
8
 10
3.6150513452642
 20
9.293314998835
 11
4.2720788383534
 21
8.913979998835
  0
LINE
  8
ERPA.1
  6
CONTINUOUS
 62
8
 10
3.6150513452642
 20
9.273349998835
 11
3.6150513452642
 21
8.7306192721024
  0
LINE
  8
ERPA.1
  6
CONTINUOUS
 62
8
 10
3.6150513452642
 20
10.066958748835
 11
3.6150513452642
 21
9.293314998835
  0
LINE
  8
ERPA.1
  6
CONTINUOUS
 62
8
 10
3.6150513452642
 20
10.066958748835
 11
3.6563068861532
 21
10.090777646473
  0
LINE
  8
ERPA.1
  6
CONTINUOUS
 62
8
 10
4.2720788383534
 20
8.894014998835
 11
4.3133343792423
 21
8.9178338964728
  0
LINE
  8
ERPA.1
  6
CONTINUOUS
 62
8
 10
4.2920438383534
 20
8.8886653932081
 11
4.3332993792423
 21
8.9124842908459
  0
LINE
  8
ERPA.1
  6
CONTINUOUS
 62
8
 10
4.3371532768801
 20
8.9040820495098
 11
4.3371532768801
 21
10.305422421709
  0
LINE
  8
ERPA.1
  6
CONTINUOUS
 62
8
 10
4.4086099697935
 20
8.8628265086209
 11
4.4086099697935
 21
10.305422421709
  0
LINE
  8
ERPA.1
  6
CONTINUOUS
 62
8
 10
4.4324288674313
 20
8.8490746616579
 11
4.4324288674313
 21
10.305422421709
  0
LINE
  8
ERPA.1
  6
CONTINUOUS
 62
8
 10
4.5038855603447
 20
8.807819120769
 11
4.5038855603447
 21
10.305422421709
  0
LINE
  8
ERPA.1
  6
CONTINUOUS
 62
8
 10
4.5277044579825
 20
8.794067273806
 11
4.5277044579825
 21
10.305422421709
  0
LINE
  8
ERPA.1
  6
CONTINUOUS
 62
8
 10
4.5991611508959
 20
8.7528117329171
 11
4.5991611508959
 21
10.305422421709
  0
LINE
  8
ERPA.1
  6
CONTINUOUS
 62
8
 10
4.6229800485336
 20
8.7390598859541
 11
4.6229800485337
 21
10.305422421709
  0
LINE
  8
ERPA.1
  6
CONTINUOUS
 62
8
 10
4.694436741447
 20
8.7306192721024
 11
4.694436741447
 21
10.305422421709
  0
LINE
  8
ERPA.1
  6
CONTINUOUS
 62
8
 10
4.7182556390848
 20
8.7306192721024
 11
4.7182556390848
 21
10.305422421709
  0
LINE
  8
ERPA.1
  6
CONTINUOUS
 62
8
 10
4.7897123319982
 20
8.7306192721024
 11
4.7897123319982
 21
10.305422421709
  0
LINE
  8
ERPA.1
  6
CONTINUOUS
 62
8
 10
4.3466808359352
 20
8.8985813107247
 11
4.3466808359352
 21
10.305422421709
  0
LINE
  8
ERPA.1
  6
CONTINUOUS
 62
8
 10
4.4419564264864
 20
8.8435739228727
 11
4.4419564264864
 21
10.305422421709
  0
LINE
  8
ERPA.1
  6
CONTINUOUS
 62
8
 10
4.5372320170376
 20
8.7885665350208
 11
4.5372320170376
 21
10.305422421709
  0
LINE
  8
ERPA.1
  6
CONTINUOUS
 62
8
 10
4.6325076075888
 20
8.7335591471689
 11
4.6325076075888
 21
10.305422421709
  0
LINE
  8
ERPA.1
  6
CONTINUOUS
 62
8
 10
4.7277831981399
 20
8.7306192721024
 11
4.72778319814
 21
10.305422421709
  0
LINE
  8
ERPA.1
  6
CONTINUOUS
 62
8
 10
3.595996227154
 20
10.077960226405
 11
4.2720788383534
 21
9.687623748835
  0
LINE
  8
ERPA.1
  6
CONTINUOUS
 62
8
 10
4.2720788383534
 20
8.913979998835
 11
4.3133343792423
 21
8.9377988964728
  0
LINE
  8
ERPA.1
  6
CONTINUOUS
 62
8
 10
3.6372517680429
 20
10.101779124043
 11
4.3133343792423
 21
9.7114426464728
  0
LINE
  8
ERPA.1
  6
CONTINUOUS
 62
8
 10
4.2720788383534
 20
9.687623748835
 11
4.3133343792423
 21
9.7114426464728
  0
LINE
  8
ERPA.1
  6
CONTINUOUS
 62
8
 10
3.2366005424607
 20
10.305422421709
 11
3.595996227154
 21
10.097925226405
  0
LINE
  8
ERPA.1
  6
CONTINUOUS
 62
8
 10
3.595996227154
 20
10.077960226405
 11
3.595996227154
 21
10.305422421709
  0
LINE
  8
ERPA.1
  6
CONTINUOUS
 62
8
 10
3.595996227154
 20
10.097925226405
 11
3.6372517680429
 21
10.121744124043
  0
LINE
  8
ERPA.1
  6
CONTINUOUS
 62
8
 10
3.6372517680429
 20
10.101779124043
 11
3.6372517680429
 21
10.305422421709
  0
LINE
  8
ERPA.1
  6
CONTINUOUS
 62
8
 10
3.595996227154
 20
10.077960226405
 11
3.6372517680429
 21
10.101779124043
  0
LINE
  8
ERPA.1
  6
CONTINUOUS
 62
8
 10
3.9322320170376
 20
9.9314721978805
 11
3.9322320170376
 21
10.305422421709
  0
LINE
  8
ERPA.1
  6
CONTINUOUS
 62
8
 10
3.9560509146754
 20
9.9177203509176
 11
3.9560509146754
 21
10.305422421709
  0
LINE
  8
ERPA.1
  6
CONTINUOUS
 62
8
 10
4.0275076075888
 20
9.8764648100286
 11
4.0275076075888
 21
10.305422421709
  0
LINE
  8
ERPA.1
  6
CONTINUOUS
 62
8
 10
4.0513265052266
 20
9.8627129630656
 11
4.0513265052266
 21
10.305422421709
  0
LINE
  8
ERPA.1
  6
CONTINUOUS
 62
8
 10
4.12278319814
 20
9.8214574221767
 11
4.12278319814
 21
10.305422421709
  0
LINE
  8
ERPA.1
  6
CONTINUOUS
 62
8
 10
4.1466020957777
 20
9.8077055752137
 11
4.1466020957778
 21
10.305422421709
  0
LINE
  8
ERPA.1
  6
CONTINUOUS
 62
8
 10
4.2180587886911
 20
9.7664500343248
 11
4.2180587886911
 21
10.305422421709
  0
LINE
  8
ERPA.1
  6
CONTINUOUS
 62
8
 10
4.2418776863289
 20
9.7526981873618
 11
4.2418776863289
 21
10.305422421709
  0
LINE
  8
ERPA.1
  6
CONTINUOUS
 62
8
 10
3.9655784737305
 20
9.9122196121324
 11
3.9655784737305
 21
10.305422421709
  0
LINE
  8
ERPA.1
  6
CONTINUOUS
 62
8
 10
4.0608540642817
 20
9.8572122242804
 11
4.0608540642817
 21
10.305422421709
  0
LINE
  8
ERPA.1
  6
CONTINUOUS
 62
8
 10
4.1561296548329
 20
9.8022048364285
 11
4.1561296548329
 21
10.305422421709
  0
LINE
  8
ERPA.1
  6
CONTINUOUS
 62
8
 10
4.251405245384
 20
9.7471974485766
 11
4.2514052453841
 21
10.305422421709
  0
LINE
  8
ERPA.1
  6
CONTINUOUS
 62
8
 10
3.6464052453841
 20
10.096494361436
 11
3.6464052453841
 21
10.305422421709
  0
LINE
  8
ERPA.1
  6
CONTINUOUS
 62
8
 10
3.6702241430218
 20
10.082742514473
 11
3.6702241430218
 21
10.305422421709
  0
LINE
  8
ERPA.1
  6
CONTINUOUS
 62
8
 10
3.7416808359352
 20
10.041486973584
 11
3.7416808359352
 21
10.305422421709
  0
LINE
  8
ERPA.1
  6
CONTINUOUS
 62
8
 10
3.765499733573
 20
10.027735126621
 11
3.765499733573
 21
10.305422421709
  0
LINE
  8
ERPA.1
  6
CONTINUOUS
 62
8
 10
3.8369564264864
 20
9.9864795857325
 11
3.8369564264864
 21
10.305422421709
  0
LINE
  8
ERPA.1
  6
CONTINUOUS
 62
8
 10
3.8607753241242
 20
9.9727277387695
 11
3.8607753241242
 21
10.305422421709
  0
LINE
  8
ERPA.1
  6
CONTINUOUS
 62
8
 10
3.679751702077
 20
10.077241775688
 11
3.679751702077
 21
10.305422421709
  0
LINE
  8
ERPA.1
  6
CONTINUOUS
 62
8
 10
3.7750272926281
 20
10.022234387836
 11
3.7750272926281
 21
10.305422421709
  0
LINE
  8
ERPA.1
  6
CONTINUOUS
 62
8
 10
3.8703028831793
 20
9.9672269999843
 11
3.8703028831793
 21
10.305422421709
  0
ENDSEC
  0
EOF
