  0
SECTION
  2
HEADER
  9
$EXTMIN
 10
1.1870231234204
 20
9.2072087810703
  9
$EXTMAX
 10
2.7618262730267
 20
10.782011930677
  9
$LIMMIN
 10
0
 20
0
  9
$LIMMAX
 10
8.2666666666667
 20
11.69
  0
ENDSEC
  0
SECTION
  2
TABLES
  0
TABLE
  2
LTYPE
 70
9
  0
LTYPE
  2
CONTINUOUS
  3
___________________________
 70
64
 72
65
 73
0
 40
0
  0
LTYPE
  2
HIDDEN
  3
_ _ _ _ _ _ _ _ _ _ _ _ _ _ 
 70
64
 72
65
 73
2
 49
0.25
 49
-0.125
 40
0.375
  0
LTYPE
  2
DASHED
  3
__ __ __ __ __ __ __ __ __ 
 70
64
 72
65
 73
2
 49
0.5
 49
-0.25
 40
0.75
  0
LTYPE
  2
CENTER
  3
____ _ ____ _ ____ _ ____ _ 
 70
64
 72
65
 73
4
 49
1.25
 49
-0.25
 49
0.25
 49
-0.25
 40
2
  0
LTYPE
  2
PHANTOM
  3
_____ _ _ _____ _ _ _____ _ _ 
 70
64
 72
65
 73
6
 49
1.25
 49
-0.25
 49
0.25
 49
-0.25
 49
0.25
 49
-0.25
 40
2.5
  0
LTYPE
  2
DOT
  3
...........................
 70
64
 72
65
 73
2
 49
0
 49
-0.25
 40
0.25
  0
LTYPE
  2
DASHDOT
  3
__ . __ . __ . __ . __ . __ . 
 70
64
 72
65
 73
4
 49
0.5
 49
-0.25
 49
0
 49
-0.25
 40
1
  0
LTYPE
  2
DIVIDE
  3
__ . . __ . . __ . . __ . . 
 70
64
 72
65
 73
6
 49
0.5
 49
-0.25
 49
0
 49
-0.25
 49
0
 49
-0.25
 40
1.25
  0
LTYPE
  2
BORDER
  3
__ __ . __ __ . __ __ . __ __ . 
 70
64
 72
65
 73
6
 49
0.5
 49
-0.25
 49
0.5
 49
-0.25
 49
0
 49
-0.25
 40
1.75
  0
ENDTAB
  0
TABLE
  2
LAYER
 70
1
  0
LAYER
  2
Q-T-Chapa
 62
7
  6
CONTINUOUS
 70
0
  0
ENDTAB
  0
TABLE
  2
STYLE
 70
5
  0
STYLE
  2
ptmarker
 70
1
 40
0
 50
0
 71
0
 41
0
 42
0
  3
ptmarks
  0
STYLE
  2
TXT
 70
0
 40
0
 50
0
 71
0
 41
0
 42
0
  3
TXT
  0
STYLE
  2
ITALIC
 70
0
 40
0
 50
0
 71
0
 41
0
 42
0
  3
ITALIC
  0
STYLE
  2
SIMPLEX
 70
0
 40
0
 50
0
 71
0
 41
0
 42
0
  3
SIMPLEX
  0
STYLE
  2
COMPLEX
 70
0
 40
0
 50
0
 71
0
 41
0
 42
0
  3
COMPLEX
  0
ENDTAB
  0
ENDSEC
  0
SECTION
  2
BLOCKS
  0
ENDSEC
  0
SECTION
  2
ENTITIES
  0
LINE
  8
Q-T-Chapa
  6
CONTINUOUS
 62
8
 10
2.2138288643443
 20
10.137444252152
 11
2.2138288643443
 21
10.117867224402
  0
LINE
  8
Q-T-Chapa
  6
CONTINUOUS
 62
8
 10
2.2292348045325
 20
10.137444252152
 11
2.2292348045325
 21
10.117867224402
  0
LINE
  8
Q-T-Chapa
  6
CONTINUOUS
 62
8
 10
2.1920012699968
 20
10.102956085496
 11
2.1592254421741
 21
10.074414067301
  0
LINE
  8
Q-T-Chapa
  6
CONTINUOUS
 62
8
 10
2.2510623973188
 20
10.102571853694
 11
2.2866952381821
 21
10.072723923305
  0
LINE
  8
Q-T-Chapa
  6
CONTINUOUS
 62
8
 10
2.2906224684494
 20
10.065573791176
 11
2.2896335345657
 21
10.069201034189
  0
LINE
  8
Q-T-Chapa
  6
CONTINUOUS
 62
8
 10
2.2896335345657
 20
10.069201034189
 11
2.2866952381821
 21
10.072723923305
  0
LINE
  8
Q-T-Chapa
  6
CONTINUOUS
 62
8
 10
2.1592254421741
 20
10.074414067301
 11
2.1553407870177
 21
10.070981644875
  0
LINE
  8
Q-T-Chapa
  6
CONTINUOUS
 62
8
 10
2.1553407870177
 20
10.070981644875
 11
2.1533701272023
 21
10.067393643625
  0
LINE
  8
Q-T-Chapa
  6
CONTINUOUS
 62
8
 10
2.1533701272023
 20
10.067393643625
 11
2.1533701550226
 21
10.063753283815
  0
LINE
  8
Q-T-Chapa
  6
CONTINUOUS
 62
8
 10
2.1533701550226
 20
10.063753283815
 11
2.1553408696783
 21
10.060165291968
  0
LINE
  8
Q-T-Chapa
  6
CONTINUOUS
 62
8
 10
2.1553408696783
 20
10.060165291968
 11
2.159225577297
 21
10.056732888078
  0
LINE
  8
Q-T-Chapa
  6
CONTINUOUS
 62
8
 10
2.159225577297
 20
10.056732888078
 11
2.1649125219132
 21
10.053554816155
  0
LINE
  8
Q-T-Chapa
  6
CONTINUOUS
 62
8
 10
2.1649125219132
 20
10.053554816155
 11
2.1722381004845
 21
10.050722503541
  0
LINE
  8
Q-T-Chapa
  6
CONTINUOUS
 62
8
 10
2.1722381004845
 20
10.050722503541
 11
2.1809915694531
 21
10.048317430714
  0
LINE
  8
Q-T-Chapa
  6
CONTINUOUS
 62
8
 10
2.1809915694531
 20
10.048317430714
 11
2.1909211074542
 21
10.046408787241
  0
LINE
  8
Q-T-Chapa
  6
CONTINUOUS
 62
8
 10
2.1909211074542
 20
10.046408787241
 11
2.2017410597581
 21
10.045051481318
  0
LINE
  8
Q-T-Chapa
  6
CONTINUOUS
 62
8
 10
2.2017410597581
 20
10.045051481318
 11
2.2131401560369
 21
10.044284560167
  0
LINE
  8
Q-T-Chapa
  6
CONTINUOUS
 62
8
 10
2.2131401560369
 20
10.044284560167
 11
2.2247904650449
 21
10.044130086712
  0
LINE
  8
Q-T-Chapa
  6
CONTINUOUS
 62
8
 10
2.2247904650449
 20
10.044130086712
 11
2.2363568286037
 21
10.044592504873
  0
LINE
  8
Q-T-Chapa
  6
CONTINUOUS
 62
8
 10
2.2363568286037
 20
10.044592504873
 11
2.2475065034924
 21
10.045658511722
  0
LINE
  8
Q-T-Chapa
  6
CONTINUOUS
 62
8
 10
2.2475065034924
 20
10.045658511722
 11
2.2579187338647
 21
10.047297440182
  0
LINE
  8
Q-T-Chapa
  6
CONTINUOUS
 62
8
 10
2.2579187338647
 20
10.047297440182
 11
2.2672939788103
 21
10.049462141267
  0
LINE
  8
Q-T-Chapa
  6
CONTINUOUS
 62
8
 10
2.2672939788103
 20
10.049462141267
 11
2.2753625296016
 21
10.052090340466
  0
LINE
  8
Q-T-Chapa
  6
CONTINUOUS
 62
8
 10
2.2753625296016
 20
10.052090340466
 11
2.2818922687226
 21
10.055106429274
  0
LINE
  8
Q-T-Chapa
  6
CONTINUOUS
 62
8
 10
2.2818922687226
 20
10.055106429274
 11
2.2866953474675
 21
10.058423640307
  0
LINE
  8
Q-T-Chapa
  6
CONTINUOUS
 62
8
 10
2.2866953474675
 20
10.058423640307
 11
2.2896335900059
 21
10.061946543444
  0
LINE
  8
Q-T-Chapa
  6
CONTINUOUS
 62
8
 10
2.2896335900059
 20
10.061946543444
 11
2.2906224684494
 21
10.065573791176
  0
LINE
  8
Q-T-Chapa
  6
CONTINUOUS
 62
8
 10
2.1920012580254
 20
10.102150576228
 11
2.1920012699968
 21
10.100584090761
  0
LINE
  8
Q-T-Chapa
  6
CONTINUOUS
 62
8
 10
2.1920012699968
 20
10.100584090761
 11
2.1928492894312
 21
10.099040139785
  0
LINE
  8
Q-T-Chapa
  6
CONTINUOUS
 62
8
 10
2.1928492894312
 20
10.099040139785
 11
2.1945209203534
 21
10.097563139958
  0
LINE
  8
Q-T-Chapa
  6
CONTINUOUS
 62
8
 10
2.1945209203534
 20
10.097563139958
 11
2.1969680729854
 21
10.096195581876
  0
LINE
  8
Q-T-Chapa
  6
CONTINUOUS
 62
8
 10
2.1969680729854
 20
10.096195581876
 11
2.2001203472015
 21
10.094976807695
  0
LINE
  8
Q-T-Chapa
  6
CONTINUOUS
 62
8
 10
2.2001203472015
 20
10.094976807695
 11
2.2038870578117
 21
10.09394187933
  0
LINE
  8
Q-T-Chapa
  6
CONTINUOUS
 62
8
 10
2.2038870578117
 20
10.09394187933
 11
2.2081598434099
 21
10.093120569784
  0
LINE
  8
Q-T-Chapa
  6
CONTINUOUS
 62
8
 10
2.2081598434099
 20
10.093120569784
 11
2.2128157837339
 21
10.092536506638
  0
LINE
  8
Q-T-Chapa
  6
CONTINUOUS
 62
8
 10
2.2128157837339
 20
10.092536506638
 11
2.2177209358575
 21
10.092206492326
  0
LINE
  8
Q-T-Chapa
  6
CONTINUOUS
 62
8
 10
2.2177209358575
 20
10.092206492326
 11
2.222734187485
 21
10.092140020759
  0
LINE
  8
Q-T-Chapa
  6
CONTINUOUS
 62
8
 10
2.222734187485
 20
10.092140020759
 11
2.2277113164946
 21
10.092339004202
  0
LINE
  8
Q-T-Chapa
  6
CONTINUOUS
 62
8
 10
2.2277113164946
 20
10.092339004202
 11
2.2325091399467
 21
10.092797718264
  0
LINE
  8
Q-T-Chapa
  6
CONTINUOUS
 62
8
 10
2.2325091399467
 20
10.092797718264
 11
2.2369896331957
 21
10.093502966577
  0
LINE
  8
Q-T-Chapa
  6
CONTINUOUS
 62
8
 10
2.2369896331957
 20
10.093502966577
 11
2.2410239006086
 21
10.094434460431
  0
LINE
  8
Q-T-Chapa
  6
CONTINUOUS
 62
8
 10
2.2410239006086
 20
10.094434460431
 11
2.2444958836572
 21
10.095565402443
  0
LINE
  8
Q-T-Chapa
  6
CONTINUOUS
 62
8
 10
2.2444958836572
 20
10.095565402443
 11
2.2473056997104
 21
10.096863257471
  0
LINE
  8
Q-T-Chapa
  6
CONTINUOUS
 62
8
 10
2.2473056997104
 20
10.096863257471
 11
2.2493725154762
 21
10.098290688589
  0
LINE
  8
Q-T-Chapa
  6
CONTINUOUS
 62
8
 10
2.2493725154762
 20
10.098290688589
 11
2.2506368724282
 21
10.099806631202
  0
LINE
  8
Q-T-Chapa
  6
CONTINUOUS
 62
8
 10
2.2506368724282
 20
10.099806631202
 11
2.2510623973188
 21
10.101367474402
  0
LINE
  8
Q-T-Chapa
  6
CONTINUOUS
 62
8
 10
2.2138288659059
 20
10.117662880855
 11
2.2140500695292
 21
10.117260145332
  0
LINE
  8
Q-T-Chapa
  6
CONTINUOUS
 62
8
 10
2.2140500695292
 20
10.117260145332
 11
2.2144861100276
 21
10.116874873839
  0
LINE
  8
Q-T-Chapa
  6
CONTINUOUS
 62
8
 10
2.2144861100276
 20
10.116874873839
 11
2.2151244433099
 21
10.116518149936
  0
LINE
  8
Q-T-Chapa
  6
CONTINUOUS
 62
8
 10
2.2151244433099
 20
10.116518149936
 11
2.2159467056897
 21
10.116200235919
  0
LINE
  8
Q-T-Chapa
  6
CONTINUOUS
 62
8
 10
2.2159467056897
 20
10.116200235919
 11
2.2169292421755
 21
10.115930277596
  0
LINE
  8
Q-T-Chapa
  6
CONTINUOUS
 62
8
 10
2.2169292421755
 20
10.115930277596
 11
2.2180437869814
 21
10.115716041176
  0
LINE
  8
Q-T-Chapa
  6
CONTINUOUS
 62
8
 10
2.2180437869814
 20
10.115716041176
 11
2.2192582766827
 21
10.115563689852
  0
LINE
  8
Q-T-Chapa
  6
CONTINUOUS
 62
8
 10
2.2192582766827
 20
10.115563689852
 11
2.2205377726219
 21
10.115477606493
  0
LINE
  8
Q-T-Chapa
  6
CONTINUOUS
 62
8
 10
2.2205377726219
 20
10.115477606493
 11
2.2218454660303
 21
10.11546026756
  0
LINE
  8
Q-T-Chapa
  6
CONTINUOUS
 62
8
 10
2.2218454660303
 20
10.11546026756
 11
2.2231437369495
 21
10.115512171864
  0
LINE
  8
Q-T-Chapa
  6
CONTINUOUS
 62
8
 10
2.2231437369495
 20
10.115512171864
 11
2.224395236489
 21
10.115631826213
  0
LINE
  8
Q-T-Chapa
  6
CONTINUOUS
 62
8
 10
2.224395236489
 20
10.115631826213
 11
2.2255639612855
 21
10.115815788367
  0
LINE
  8
Q-T-Chapa
  6
CONTINUOUS
 62
8
 10
2.2255639612855
 20
10.115815788367
 11
2.2266162892546
 21
10.116058766071
  0
LINE
  8
Q-T-Chapa
  6
CONTINUOUS
 62
8
 10
2.2266162892546
 20
10.116058766071
 11
2.2275219468366
 21
10.1163537693
  0
LINE
  8
Q-T-Chapa
  6
CONTINUOUS
 62
8
 10
2.2275219468366
 20
10.1163537693
 11
2.2282548799117
 21
10.116692311346
  0
LINE
  8
Q-T-Chapa
  6
CONTINUOUS
 62
8
 10
2.2282548799117
 20
10.116692311346
 11
2.2287940033298
 21
10.117064652972
  0
LINE
  8
Q-T-Chapa
  6
CONTINUOUS
 62
8
 10
2.2287940033298
 20
10.117064652972
 11
2.2291238074918
 21
10.117460082588
  0
LINE
  8
Q-T-Chapa
  6
CONTINUOUS
 62
8
 10
2.2291238074918
 20
10.117460082588
 11
2.2292348045325
 21
10.117867224402
  0
LINE
  8
Q-T-Chapa
  6
CONTINUOUS
 62
8
 10
2.2138288627832
 20
10.118071494439
 11
2.2138288659059
 21
10.117662880855
  0
LINE
  8
Q-T-Chapa
  6
CONTINUOUS
 62
8
 10
2.2292348045325
 20
10.137444252152
 11
2.2291238012689
 21
10.137851393437
  0
LINE
  8
Q-T-Chapa
  6
CONTINUOUS
 62
8
 10
2.2291238012689
 20
10.137851393437
 11
2.228793991063
 21
10.138246821479
  0
LINE
  8
Q-T-Chapa
  6
CONTINUOUS
 62
8
 10
2.2140500602509
 20
10.138051258767
 11
2.2138288627832
 21
10.137648522189
  0
LINE
  8
Q-T-Chapa
  6
CONTINUOUS
 62
8
 10
2.2138288659059
 20
10.137239908605
 11
2.2140500695292
 21
10.136837173082
  0
LINE
  8
Q-T-Chapa
  6
CONTINUOUS
 62
8
 10
2.2140500695292
 20
10.136837173082
 11
2.2144861100276
 21
10.136451901589
  0
LINE
  8
Q-T-Chapa
  6
CONTINUOUS
 62
8
 10
2.2144861100276
 20
10.136451901589
 11
2.2151244433099
 21
10.136095177686
  0
LINE
  8
Q-T-Chapa
  6
CONTINUOUS
 62
8
 10
2.2151244433099
 20
10.136095177686
 11
2.2159467056897
 21
10.135777263669
  0
LINE
  8
Q-T-Chapa
  6
CONTINUOUS
 62
8
 10
2.2159467056897
 20
10.135777263669
 11
2.2169292421755
 21
10.135507305346
  0
LINE
  8
Q-T-Chapa
  6
CONTINUOUS
 62
8
 10
2.2169292421755
 20
10.135507305346
 11
2.2180437869814
 21
10.135293068926
  0
LINE
  8
Q-T-Chapa
  6
CONTINUOUS
 62
8
 10
2.2180437869814
 20
10.135293068926
 11
2.2192582766827
 21
10.135140717602
  0
LINE
  8
Q-T-Chapa
  6
CONTINUOUS
 62
8
 10
2.2192582766827
 20
10.135140717602
 11
2.2205377726219
 21
10.135054634243
  0
LINE
  8
Q-T-Chapa
  6
CONTINUOUS
 62
8
 10
2.2205377726219
 20
10.135054634243
 11
2.2218454660303
 21
10.13503729531
  0
LINE
  8
Q-T-Chapa
  6
CONTINUOUS
 62
8
 10
2.2218454660303
 20
10.13503729531
 11
2.2231437369495
 21
10.135089199614
  0
LINE
  8
Q-T-Chapa
  6
CONTINUOUS
 62
8
 10
2.2231437369495
 20
10.135089199614
 11
2.224395236489
 21
10.135208853962
  0
LINE
  8
Q-T-Chapa
  6
CONTINUOUS
 62
8
 10
2.224395236489
 20
10.135208853962
 11
2.2255639612855
 21
10.135392816117
  0
LINE
  8
Q-T-Chapa
  6
CONTINUOUS
 62
8
 10
2.2255639612855
 20
10.135392816117
 11
2.2266162892546
 21
10.135635793821
  0
LINE
  8
Q-T-Chapa
  6
CONTINUOUS
 62
8
 10
2.2266162892546
 20
10.135635793821
 11
2.2275219468366
 21
10.13593079705
  0
LINE
  8
Q-T-Chapa
  6
CONTINUOUS
 62
8
 10
2.2275219468366
 20
10.13593079705
 11
2.2282548799117
 21
10.136269339096
  0
LINE
  8
Q-T-Chapa
  6
CONTINUOUS
 62
8
 10
2.2282548799117
 20
10.136269339096
 11
2.2287940033298
 21
10.136641680722
  0
LINE
  8
Q-T-Chapa
  6
CONTINUOUS
 62
8
 10
2.2287940033298
 20
10.136641680722
 11
2.2291238074918
 21
10.137037110338
  0
LINE
  8
Q-T-Chapa
  6
CONTINUOUS
 62
8
 10
2.2291238074918
 20
10.137037110338
 11
2.2292348045325
 21
10.137444252152
  0
LINE
  8
Q-T-Chapa
  6
CONTINUOUS
 62
8
 10
2.2151244433099
 20
10.138793326619
 11
2.2159467056897
 21
10.139111240636
  0
LINE
  8
Q-T-Chapa
  6
CONTINUOUS
 62
8
 10
2.2159467056897
 20
10.139111240636
 11
2.2169292421755
 21
10.139381198959
  0
LINE
  8
Q-T-Chapa
  6
CONTINUOUS
 62
8
 10
2.2169292421755
 20
10.139381198959
 11
2.2180437869814
 21
10.139595435379
  0
LINE
  8
Q-T-Chapa
  6
CONTINUOUS
 62
8
 10
2.2180437869814
 20
10.139595435379
 11
2.2192582766827
 21
10.139747786703
  0
LINE
  8
Q-T-Chapa
  6
CONTINUOUS
 62
8
 10
2.2192582766827
 20
10.139747786703
 11
2.2205377726219
 21
10.139833870062
  0
LINE
  8
Q-T-Chapa
  6
CONTINUOUS
 62
8
 10
2.2205377726219
 20
10.139833870062
 11
2.2218454660303
 21
10.139851208994
  0
LINE
  8
Q-T-Chapa
  6
CONTINUOUS
 62
8
 10
2.2218454660303
 20
10.139851208994
 11
2.2231437369495
 21
10.13979930469
  0
LINE
  8
Q-T-Chapa
  6
CONTINUOUS
 62
8
 10
2.2231437369495
 20
10.13979930469
 11
2.224395236489
 21
10.139679650342
  0
LINE
  8
Q-T-Chapa
  6
CONTINUOUS
 62
8
 10
2.224395236489
 20
10.139679650342
 11
2.2255639612855
 21
10.139495688188
  0
LINE
  8
Q-T-Chapa
  6
CONTINUOUS
 62
8
 10
2.2255639612855
 20
10.139495688188
 11
2.2266162892546
 21
10.139252710483
  0
LINE
  8
Q-T-Chapa
  6
CONTINUOUS
 62
8
 10
2.2266162892546
 20
10.139252710483
 11
2.2275219468366
 21
10.138957707255
  0
LINE
  8
Q-T-Chapa
  6
CONTINUOUS
 62
8
 10
2.2275219468366
 20
10.138957707255
 11
2.2282548799117
 21
10.138619165209
  0
LINE
  8
Q-T-Chapa
  6
CONTINUOUS
 62
8
 10
2.2138288627832
 20
10.137648522189
 11
2.2138288659059
 21
10.137239908605
  0
LINE
  8
Q-T-Chapa
  6
CONTINUOUS
 62
8
 10
2.2144860948607
 20
10.138436532341
 11
2.2140500602509
 21
10.138051258767
  0
LINE
  8
Q-T-Chapa
  6
CONTINUOUS
 62
8
 10
2.2144861100276
 20
10.138436602716
 11
2.2151244433099
 21
10.138793326619
  0
LINE
  8
Q-T-Chapa
  6
CONTINUOUS
 62
8
 10
2.2282548799117
 20
10.138619165209
 11
2.2287940033298
 21
10.138246823582
  0
LINE
  8
Q-T-Chapa
  6
CONTINUOUS
 62
8
 10
2.1920012699968
 20
10.117867224402
 11
2.2074755871183
 21
10.125958824935
  0
LINE
  8
Q-T-Chapa
  6
CONTINUOUS
 62
8
 10
2.2074755871183
 20
10.125958824935
 11
2.2138288643443
 21
10.125958824935
  0
LINE
  8
Q-T-Chapa
  6
CONTINUOUS
 62
8
 10
2.235546896895
 20
10.125958824935
 11
2.2510623973188
 21
10.117867224402
  0
LINE
  8
Q-T-Chapa
  6
CONTINUOUS
 62
8
 10
2.2510623973188
 20
10.117867224402
 11
2.235546896895
 21
10.109751846679
  0
LINE
  8
Q-T-Chapa
  6
CONTINUOUS
 62
8
 10
2.235546896895
 20
10.109751846679
 11
2.2074755871183
 21
10.109751846679
  0
LINE
  8
Q-T-Chapa
  6
CONTINUOUS
 62
8
 10
2.2074755871183
 20
10.109751846679
 11
2.1920012699968
 21
10.117867224402
  0
LINE
  8
Q-T-Chapa
  6
CONTINUOUS
 62
8
 10
2.2510623973188
 20
10.117867224402
 11
2.2510623973188
 21
10.101367474402
  0
LINE
  8
Q-T-Chapa
  6
CONTINUOUS
 62
8
 10
2.2074755871183
 20
10.093252096679
 11
2.1920012699968
 21
10.101367474402
  0
LINE
  8
Q-T-Chapa
  6
CONTINUOUS
 62
8
 10
2.235546896895
 20
10.093252096679
 11
2.2074755871183
 21
10.093252096679
  0
LINE
  8
Q-T-Chapa
  6
CONTINUOUS
 62
8
 10
2.2510623973188
 20
10.101367474402
 11
2.235546896895
 21
10.093252096679
  0
LINE
  8
Q-T-Chapa
  6
CONTINUOUS
 62
8
 10
2.1920012699968
 20
10.117867224402
 11
2.1920012699968
 21
10.101367474402
  0
LINE
  8
Q-T-Chapa
  6
CONTINUOUS
 62
8
 10
2.2074755871183
 20
10.109751846679
 11
2.2074755871183
 21
10.093252096679
  0
LINE
  8
Q-T-Chapa
  6
CONTINUOUS
 62
8
 10
2.235546896895
 20
10.109751846679
 11
2.235546896895
 21
10.093252096679
  0
LINE
  8
Q-T-Chapa
  6
CONTINUOUS
 62
8
 10
2.2292348045325
 20
10.125958824935
 11
2.235546896895
 21
10.125958824935
  0
LINE
  8
Q-T-Chapa
  6
CONTINUOUS
 62
8
 10
1.2949643783608
 20
10.129707956951
 11
1.2286112439737
 21
10.353641956951
  0
LINE
  8
Q-T-Chapa
  6
CONTINUOUS
 62
8
 10
1.2286112439737
 20
10.353641956951
 11
1.1870231234204
 21
10.377652869548
  0
LINE
  8
Q-T-Chapa
  6
CONTINUOUS
 62
8
 10
1.346857070616
 20
10.099747697109
 11
1.2949643783608
 21
10.129707956951
  0
LINE
  8
Q-T-Chapa
  6
CONTINUOUS
 62
8
 10
1.7032137333509
 20
9.8940050819511
 11
1.6368605989637
 21
10.117939081951
  0
LINE
  8
Q-T-Chapa
  6
CONTINUOUS
 62
8
 10
1.6368605989637
 20
10.117939081951
 11
1.499089164109
 21
10.197481456951
  0
LINE
  8
Q-T-Chapa
  6
CONTINUOUS
 62
8
 10
1.7551064256061
 20
9.8640448221085
 11
1.7032137333509
 21
9.8940050819511
  0
LINE
  8
Q-T-Chapa
  6
CONTINUOUS
 62
8
 10
1.9013472922958
 20
9.9484770258584
 11
1.9073385190991
 21
9.9617785819511
  0
LINE
  8
Q-T-Chapa
  6
CONTINUOUS
 62
8
 10
2.1114630883409
 20
9.6583022069511
 11
2.0451099539538
 21
9.8822362069511
  0
LINE
  8
Q-T-Chapa
  6
CONTINUOUS
 62
8
 10
2.0451099539538
 20
9.8822362069511
 11
1.9073385190991
 21
9.9617785819511
  0
LINE
  8
Q-T-Chapa
  6
CONTINUOUS
 62
8
 10
2.1594187727221
 20
9.6306149796644
 11
2.1114630883409
 21
9.6583022069511
  0
LINE
  8
Q-T-Chapa
  6
CONTINUOUS
 62
8
 10
2.3155878740892
 20
9.7260757069511
 11
2.7618262730267
 21
9.9837115667004
  0
LINE
  8
Q-T-Chapa
  6
CONTINUOUS
 62
8
 10
2.1114630883409
 20
9.6583022069511
 11
2.7618262730267
 21
10.0337895667
  0
LINE
  8
Q-T-Chapa
  6
CONTINUOUS
 62
8
 10
2.0451099539538
 20
9.8822362069511
 11
2.7618262730267
 21
10.2960325667
  0
LINE
  8
Q-T-Chapa
  6
CONTINUOUS
 62
8
 10
1.9073385190991
 20
9.9617785819511
 11
2.7618262730267
 21
10.4551173167
  0
LINE
  8
Q-T-Chapa
  6
CONTINUOUS
 62
8
 10
1.7032137333509
 20
9.8940050819511
 11
2.7618262730267
 21
10.5051953167
  0
LINE
  8
Q-T-Chapa
  6
CONTINUOUS
 62
8
 10
1.6368605989637
 20
10.117939081951
 11
2.7618262730267
 21
10.7674383167
  0
LINE
  8
Q-T-Chapa
  6
CONTINUOUS
 62
8
 10
1.499089164109
 20
10.197481456951
 11
2.5115256431739
 21
10.782011930677
  0
LINE
  8
Q-T-Chapa
  6
CONTINUOUS
 62
8
 10
1.2949643783608
 20
10.129707956951
 11
2.4247880028325
 21
10.782011930677
  0
LINE
  8
Q-T-Chapa
  6
CONTINUOUS
 62
8
 10
1.2286112439737
 20
10.353641956951
 11
1.9705698029032
 21
10.782011930677
  0
LINE
  8
Q-T-Chapa
  6
CONTINUOUS
 62
8
 10
1.1870231234204
 20
10.488715794355
 11
1.6950269331938
 21
10.782011930677
  0
LINE
  8
Q-T-Chapa
  6
CONTINUOUS
 62
8
 10
1.2949643783608
 20
10.119865437266
 11
1.2267179841106
 21
10.350188965931
  0
LINE
  8
Q-T-Chapa
  6
CONTINUOUS
 62
8
 10
1.2286112439737
 20
10.343799437266
 11
1.1870231234204
 21
10.367810349863
  0
LINE
  8
Q-T-Chapa
  6
CONTINUOUS
 62
8
 10
1.3383331985316
 20
10.094826437266
 11
1.2949643783608
 21
10.119865437266
  0
LINE
  8
Q-T-Chapa
  6
CONTINUOUS
 62
8
 10
1.7032137333509
 20
9.884162562266
 11
1.6349673391007
 21
10.114486090931
  0
LINE
  8
Q-T-Chapa
  6
CONTINUOUS
 62
8
 10
1.6368605989637
 20
10.108096562266
 11
1.499089164109
 21
10.187638937266
  0
LINE
  8
Q-T-Chapa
  6
CONTINUOUS
 62
8
 10
1.7465825535216
 20
9.859123562266
 11
1.7032137333509
 21
9.884162562266
  0
LINE
  8
Q-T-Chapa
  6
CONTINUOUS
 62
8
 10
2.1114630883409
 20
9.648459687266
 11
2.0432166940907
 21
9.8787832159309
  0
LINE
  8
Q-T-Chapa
  6
CONTINUOUS
 62
8
 10
2.0451099539538
 20
9.872393687266
 11
1.9073385190991
 21
9.951936062266
  0
LINE
  8
Q-T-Chapa
  6
CONTINUOUS
 62
8
 10
2.1508949006376
 20
9.6256937198219
 11
2.1114630883409
 21
9.648459687266
  0
LINE
  8
Q-T-Chapa
  6
CONTINUOUS
 62
8
 10
1.1870231234204
 20
10.31978852467
 11
1.2286112439737
 21
10.343799437266
  0
LINE
  8
Q-T-Chapa
  6
CONTINUOUS
 62
8
 10
1.1870231234204
 20
10.057545524669
 11
1.2949643783608
 21
10.119865437266
  0
LINE
  8
Q-T-Chapa
  6
CONTINUOUS
 62
8
 10
1.1870231234204
 20
10.00746752467
 11
1.499089164109
 21
10.187638937266
  0
LINE
  8
Q-T-Chapa
  6
CONTINUOUS
 62
8
 10
1.1870231234204
 20
9.8483827746695
 11
1.6368605989637
 21
10.108096562266
  0
LINE
  8
Q-T-Chapa
  6
CONTINUOUS
 62
8
 10
1.1870231234204
 20
9.5861397746695
 11
1.7032137333509
 21
9.884162562266
  0
LINE
  8
Q-T-Chapa
  6
CONTINUOUS
 62
8
 10
1.1870231234204
 20
9.5360617746695
 11
1.9073385190991
 21
9.951936062266
  0
LINE
  8
Q-T-Chapa
  6
CONTINUOUS
 62
8
 10
1.1870231234204
 20
9.3769770246695
 11
2.0451099539538
 21
9.872393687266
  0
LINE
  8
Q-T-Chapa
  6
CONTINUOUS
 62
8
 10
1.3521777715836
 20
9.2100861052444
 11
2.1114630883409
 21
9.648459687266
  0
LINE
  8
Q-T-Chapa
  6
CONTINUOUS
 62
8
 10
1.4339317402655
 20
9.2072087810703
 11
2.6644059283158
 21
9.917623384772
  0
LINE
  8
Q-T-Chapa
  6
CONTINUOUS
 62
8
 10
1.4930979373058
 20
10.184179900858
 11
1.499089164109
 21
10.197481456951
  0
LINE
  8
Q-T-Chapa
  6
CONTINUOUS
 62
8
 10
2.5980525774223
 20
9.770307509772
 11
2.6644059283158
 21
9.917623384772
  0
LINE
  8
Q-T-Chapa
  6
CONTINUOUS
 62
8
 10
1.6227369696335
 20
9.2072087810703
 11
2.5980525774223
 21
9.770307509772
  0
LINE
  8
Q-T-Chapa
  6
CONTINUOUS
 62
8
 10
2.4525117855638
 20
9.5726278666212
 11
2.6001495808394
 21
9.6578665874661
  0
LINE
  8
Q-T-Chapa
  6
CONTINUOUS
 62
8
 10
2.4525117855638
 20
9.5726278666212
 11
2.3540865887134
 21
9.6294536805178
  0
LINE
  8
Q-T-Chapa
  6
CONTINUOUS
 62
8
 10
2.6001495808394
 20
9.6578665874661
 11
2.501724383989
 21
9.7146924013627
  0
LINE
  8
Q-T-Chapa
  6
CONTINUOUS
 62
8
 10
2.4525117855638
 20
9.5726278666212
 11
2.5037858537726
 21
9.2818381757711
  0
LINE
  8
Q-T-Chapa
  6
CONTINUOUS
 62
8
 10
2.6001495808394
 20
9.6578665874661
 11
2.6514236490481
 21
9.367076896616
  0
LINE
  8
Q-T-Chapa
  6
CONTINUOUS
 62
8
 10
2.5037858537726
 20
9.2818381757711
 11
2.6514236490481
 21
9.367076896616
  0
LINE
  8
Q-T-Chapa
  6
CONTINUOUS
 62
8
 10
2.5037858537726
 20
9.2818381757711
 11
2.127892363383
 21
9.4988603836341
  0
LINE
  8
Q-T-Chapa
  6
CONTINUOUS
 62
8
 10
2.6296441703865
 20
9.3772328343066
 11
2.4930481029239
 21
9.4560966106264
  0
LINE
  8
Q-T-Chapa
  6
CONTINUOUS
 62
8
 10
1.1870231234204
 20
9.2072087810703
 11
1.1870231234204
 21
10.782011930677
  0
LINE
  8
Q-T-Chapa
  6
CONTINUOUS
 62
8
 10
1.1870231234204
 20
10.782011930677
 11
2.7618262730267
 21
10.782011930677
  0
LINE
  8
Q-T-Chapa
  6
CONTINUOUS
 62
8
 10
2.7618262730267
 20
10.782011930677
 11
2.7618262730267
 21
9.2072087810703
  0
LINE
  8
Q-T-Chapa
  6
CONTINUOUS
 62
8
 10
2.7618262730267
 20
9.2072087810703
 11
1.1870231234204
 21
9.2072087810703
  0
LINE
  8
Q-T-Chapa
  6
CONTINUOUS
 62
8
 10
1.6348920950267
 20
10.114529533117
 11
1.5008909371261
 21
10.191895137703
  0
LINE
  8
Q-T-Chapa
  6
CONTINUOUS
 62
8
 10
2.0431414500168
 20
9.8788266581173
 11
1.9091402921161
 21
9.9561922627029
  0
LINE
  8
Q-T-Chapa
  6
CONTINUOUS
 62
8
 10
1.4989976710854
 20
10.187691760788
 11
1.5008909371261
 21
10.191895137703
  0
LINE
  8
Q-T-Chapa
  6
CONTINUOUS
 62
8
 10
1.2266427400367
 20
10.350232408117
 11
1.1870231234204
 21
10.373106804436
  0
LINE
  8
Q-T-Chapa
  6
CONTINUOUS
 62
8
 10
1.342920062742
 20
10.097474664553
 11
1.2929958744238
 21
10.126298408117
  0
LINE
  8
Q-T-Chapa
  6
CONTINUOUS
 62
8
 10
1.7511694177321
 20
9.8617717895527
 11
1.7012452294139
 21
9.8905955331173
  0
LINE
  8
Q-T-Chapa
  6
CONTINUOUS
 62
8
 10
1.9071827178069
 20
9.951846110348
 11
1.9091402921161
 21
9.9561922627029
  0
LINE
  8
Q-T-Chapa
  6
CONTINUOUS
 62
8
 10
2.1554817648481
 20
9.6283419471085
 11
2.1094945844039
 21
9.6548926581173
  0
LINE
  8
Q-T-Chapa
  6
CONTINUOUS
 62
8
 10
2.3175563780262
 20
9.7226661581173
 11
2.7618262730267
 21
9.9791655015887
  0
LINE
  8
Q-T-Chapa
  6
CONTINUOUS
 62
8
 10
1.4319632363285
 20
9.2106183299041
 11
2.6624374243788
 21
9.9210329336058
  0
LINE
  8
Q-T-Chapa
  6
CONTINUOUS
 62
8
 10
2.6644059283158
 20
9.917623384772
 11
2.6624374243788
 21
9.9210329336058
  0
LINE
  8
Q-T-Chapa
  6
CONTINUOUS
 62
8
 10
2.6040438042256
 20
9.7836090658647
 11
2.7618262730267
 21
9.8747048167004
  0
LINE
  8
Q-T-Chapa
  6
CONTINUOUS
 62
8
 10
2.3175563780262
 20
9.7226661581173
 11
2.3155878740892
 21
9.7260757069511
  0
LINE
  8
Q-T-Chapa
  6
CONTINUOUS
 62
8
 10
2.312363876412
 20
9.718917876451
 11
2.3155878740892
 21
9.7260757069511
  0
LINE
  8
Q-T-Chapa
  6
CONTINUOUS
 62
8
 10
2.4568676812961
 20
9.5705966790831
 11
2.5066866902064
 21
9.2880590395788
  0
LINE
  8
Q-T-Chapa
  6
CONTINUOUS
 62
8
 10
2.4612235770285
 20
9.568565491545
 11
2.5095875266403
 21
9.2942799033865
  0
LINE
  8
Q-T-Chapa
  6
CONTINUOUS
 62
8
 10
2.4655794727608
 20
9.5665343040069
 11
2.5124883630742
 21
9.3005007671942
  0
LINE
  8
Q-T-Chapa
  6
CONTINUOUS
 62
8
 10
2.4699353684931
 20
9.5645031164687
 11
2.515389199508
 21
9.3067216310019
  0
LINE
  8
Q-T-Chapa
  6
CONTINUOUS
 62
8
 10
2.4699353684931
 20
9.5645031164687
 11
2.5885462351039
 21
9.6329831322353
  0
LINE
  8
Q-T-Chapa
  6
CONTINUOUS
 62
8
 10
2.4655794727608
 20
9.5665343040069
 11
2.5914470715378
 21
9.639203996043
  0
LINE
  8
Q-T-Chapa
  6
CONTINUOUS
 62
8
 10
2.4612235770285
 20
9.568565491545
 11
2.5943479079717
 21
9.6454248598507
  0
LINE
  8
Q-T-Chapa
  6
CONTINUOUS
 62
8
 10
2.4568676812961
 20
9.5705966790831
 11
2.5972487444055
 21
9.6516457236584
  0
LINE
  8
Q-T-Chapa
  6
CONTINUOUS
 62
8
 10
2.5066866902064
 20
9.2880590395788
 11
2.6470677533158
 21
9.3691080841542
  0
LINE
  8
Q-T-Chapa
  6
CONTINUOUS
 62
8
 10
2.5095875266403
 20
9.2942799033865
 11
2.6427118575835
 21
9.3711392716923
  0
LINE
  8
Q-T-Chapa
  6
CONTINUOUS
 62
8
 10
2.5124883630742
 20
9.3005007671942
 11
2.6383559618512
 21
9.3731704592304
  0
LINE
  8
Q-T-Chapa
  6
CONTINUOUS
 62
8
 10
2.515389199508
 20
9.3067216310019
 11
2.6340000661188
 21
9.3752016467685
  0
LINE
  8
Q-T-Chapa
  6
CONTINUOUS
 62
8
 10
2.5972487444055
 20
9.6516457236584
 11
2.6470677533158
 21
9.3691080841542
  0
LINE
  8
Q-T-Chapa
  6
CONTINUOUS
 62
8
 10
2.5943479079717
 20
9.6454248598507
 11
2.6427118575835
 21
9.3711392716923
  0
LINE
  8
Q-T-Chapa
  6
CONTINUOUS
 62
8
 10
2.5914470715378
 20
9.639203996043
 11
2.6383559618512
 21
9.3731704592304
  0
LINE
  8
Q-T-Chapa
  6
CONTINUOUS
 62
8
 10
2.5885462351039
 20
9.6329831322353
 11
2.6340000661188
 21
9.3752016467685
  0
LINE
  8
Q-T-Chapa
  6
CONTINUOUS
 62
8
 10
2.5856453986701
 20
9.6267622684276
 11
2.6296441703865
 21
9.3772328343066
  0
LINE
  8
Q-T-Chapa
  6
CONTINUOUS
 62
8
 10
2.5182900359419
 20
9.3129424948096
 11
2.6296441703865
 21
9.3772328343066
  0
LINE
  8
Q-T-Chapa
  6
CONTINUOUS
 62
8
 10
2.4742912642254
 20
9.5624719289306
 11
2.5182900359419
 21
9.3129424948096
  0
LINE
  8
Q-T-Chapa
  6
CONTINUOUS
 62
8
 10
2.4742912642254
 20
9.5624719289306
 11
2.5856453986701
 21
9.6267622684276
  0
ENDSEC
  0
EOF
