  0
SECTION
  2
HEADER
  9
$EXTMIN
 10
3.6419371951035
 20
7.0683939770914
  9
$EXTMAX
 10
5.2167403447098
 20
8.6431971266977
  9
$LIMMIN
 10
0
 20
0
  9
$LIMMAX
 10
8.2666666666667
 20
11.69
  0
ENDSEC
  0
SECTION
  2
TABLES
  0
TABLE
  2
LTYPE
 70
9
  0
LTYPE
  2
CONTINUOUS
  3
___________________________
 70
64
 72
65
 73
0
 40
0
  0
LTYPE
  2
HIDDEN
  3
_ _ _ _ _ _ _ _ _ _ _ _ _ _ 
 70
64
 72
65
 73
2
 49
0.25
 49
-0.125
 40
0.375
  0
LTYPE
  2
DASHED
  3
__ __ __ __ __ __ __ __ __ 
 70
64
 72
65
 73
2
 49
0.5
 49
-0.25
 40
0.75
  0
LTYPE
  2
CENTER
  3
____ _ ____ _ ____ _ ____ _ 
 70
64
 72
65
 73
4
 49
1.25
 49
-0.25
 49
0.25
 49
-0.25
 40
2
  0
LTYPE
  2
PHANTOM
  3
_____ _ _ _____ _ _ _____ _ _ 
 70
64
 72
65
 73
6
 49
1.25
 49
-0.25
 49
0.25
 49
-0.25
 49
0.25
 49
-0.25
 40
2.5
  0
LTYPE
  2
DOT
  3
...........................
 70
64
 72
65
 73
2
 49
0
 49
-0.25
 40
0.25
  0
LTYPE
  2
DASHDOT
  3
__ . __ . __ . __ . __ . __ . 
 70
64
 72
65
 73
4
 49
0.5
 49
-0.25
 49
0
 49
-0.25
 40
1
  0
LTYPE
  2
DIVIDE
  3
__ . . __ . . __ . . __ . . 
 70
64
 72
65
 73
6
 49
0.5
 49
-0.25
 49
0
 49
-0.25
 49
0
 49
-0.25
 40
1.25
  0
LTYPE
  2
BORDER
  3
__ __ . __ __ . __ __ . __ __ . 
 70
64
 72
65
 73
6
 49
0.5
 49
-0.25
 49
0.5
 49
-0.25
 49
0
 49
-0.25
 40
1.75
  0
ENDTAB
  0
TABLE
  2
LAYER
 70
1
  0
LAYER
  2
QTFib-h
 62
7
  6
CONTINUOUS
 70
0
  0
ENDTAB
  0
TABLE
  2
STYLE
 70
5
  0
STYLE
  2
ptmarker
 70
1
 40
0
 50
0
 71
0
 41
0
 42
0
  3
ptmarks
  0
STYLE
  2
TXT
 70
0
 40
0
 50
0
 71
0
 41
0
 42
0
  3
TXT
  0
STYLE
  2
ITALIC
 70
0
 40
0
 50
0
 71
0
 41
0
 42
0
  3
ITALIC
  0
STYLE
  2
SIMPLEX
 70
0
 40
0
 50
0
 71
0
 41
0
 42
0
  3
SIMPLEX
  0
STYLE
  2
COMPLEX
 70
0
 40
0
 50
0
 71
0
 41
0
 42
0
  3
COMPLEX
  0
ENDTAB
  0
ENDSEC
  0
SECTION
  2
BLOCKS
  0
ENDSEC
  0
SECTION
  2
ENTITIES
  0
LINE
  8
QTFib-h
  6
CONTINUOUS
 62
8
 10
3.6458742029775
 20
7.4696714471311
 11
4.5550171534029
 21
7.9945653742911
  0
LINE
  8
QTFib-h
  6
CONTINUOUS
 62
8
 10
3.6419371951035
 20
8.0060071328836
 11
4.0885683206481
 21
8.2638697334452
  0
ARC
  8
QTFib-h
  6
CONTINUOUS
 62
8
 10
4.4852059214869
 20
7.7674975806726
 40
0.27655977625197
 50
22.601961301709
 51
52.264772
  0
ARC
  8
QTFib-h
  6
CONTINUOUS
 62
8
 10
4.4852059214869
 20
7.7674975806726
 40
0.28049678412598
 50
22.601961301709
 51
52.264772
  0
ARC
  8
QTFib-h
  6
CONTINUOUS
 62
8
 10
4.5979824284745
 20
7.9099583814216
 40
0.094891296251969
 50
53.22485
 51
116.92245303553
  0
ARC
  8
QTFib-h
  6
CONTINUOUS
 62
8
 10
4.5979824284745
 20
7.9099583814216
 40
0.098828304125984
 50
53.22485
 51
136.50833787067
  0
ARC
  8
QTFib-h
  6
CONTINUOUS
 62
8
 10
3.6650847629648
 20
8.44856709973
 40
0.094891296251969
 50
53.22485
 51
104.11906585645
  0
ARC
  8
QTFib-h
  6
CONTINUOUS
 62
8
 10
3.6650847629648
 20
8.44856709973
 40
0.098828304125984
 50
53.22485
 51
103.54565038703
  0
ARC
  8
QTFib-h
  6
CONTINUOUS
 62
8
 10
4.1085755433453
 20
8.469592077081
 40
0.30895689574803
 50
204.16916801589
 51
242.97505619743
  0
ARC
  8
QTFib-h
  6
CONTINUOUS
 62
8
 10
4.1085755433453
 20
8.469592077081
 40
0.30501988787402
 50
204.16916801589
 51
243.45617668357
  0
ARC
  8
QTFib-h
  6
CONTINUOUS
 62
8
 10
3.5523085702765
 20
8.3061063618059
 40
0.27655977625197
 50
8.1275981642227
 51
52.264772
  0
ARC
  8
QTFib-h
  6
CONTINUOUS
 62
8
 10
3.5523085702765
 20
8.3061063618059
 40
0.28049678412598
 50
8.1275981642227
 51
52.264772
  0
ARC
  8
QTFib-h
  6
CONTINUOUS
 62
8
 10
4.5750243761001
 20
8.2002877179268
 40
0.30895689574803
 50
204.16916801589
 51
242.97505619744
  0
ARC
  8
QTFib-h
  6
CONTINUOUS
 62
8
 10
4.5750243761001
 20
8.2002877179268
 40
0.30501988787402
 50
204.16916801589
 51
243.45617668357
  0
ARC
  8
QTFib-h
  6
CONTINUOUS
 62
8
 10
4.0187574030313
 20
8.0368020026517
 40
0.27655977625197
 50
8.1275981642227
 51
52.264772
  0
ARC
  8
QTFib-h
  6
CONTINUOUS
 62
8
 10
4.0187574030313
 20
8.0368020026517
 40
0.28049678412598
 50
8.1275981642227
 51
52.264772
  0
ARC
  8
QTFib-h
  6
CONTINUOUS
 62
8
 10
4.1315335957196
 20
8.1792627405758
 40
0.094891296251969
 50
53.22485
 51
116.92245303554
  0
ARC
  8
QTFib-h
  6
CONTINUOUS
 62
8
 10
4.1315335957196
 20
8.1792627405758
 40
0.098828304125984
 50
53.22485
 51
136.50833787067
  0
LINE
  8
QTFib-h
  6
CONTINUOUS
 62
8
 10
5.1135394700696
 20
7.2685998013834
 11
5.0087981298954
 21
7.3290722423283
  0
LINE
  8
QTFib-h
  6
DIMSTYLE
 62
8
 10
5.1164907300183
 20
7.271551061332
 11
5.011749389844
 21
7.3320235022769
  0
LINE
  8
QTFib-h
  6
DIMSTYLE
 62
8
 10
5.1124592339552
 20
7.2645683053204
 11
5.007717893781
 21
7.3250407462653
  0
LINE
  8
QTFib-h
  6
CONTINUOUS
 62
8
 10
5.1245537221442
 20
7.271551061332
 11
5.01981238197
 21
7.3320235022769
  0
LINE
  8
QTFib-h
  6
CONTINUOUS
 62
8
 10
5.1164907300182
 20
7.2575855493088
 11
5.011749389844
 21
7.3180579902537
  0
CIRCLE
  8
QTFib-h
  6
CONTINUOUS
 62
8
 10
5.1205222260812
 20
7.2645683053204
 40
0.008062992125994
  0
LINE
  8
QTFib-h
  6
CONTINUOUS
 62
8
 10
5.01981238197
 20
7.3320235022769
 11
5.0185385916296
 21
7.3326174804676
  0
LINE
  8
QTFib-h
  6
CONTINUOUS
 62
8
 10
5.0185385916296
 20
7.3326174804676
 11
5.0171810097963
 21
7.3329812434235
  0
LINE
  8
QTFib-h
  6
CONTINUOUS
 62
8
 10
5.0171810097963
 20
7.3329812434235
 11
5.015780885907
 21
7.3331037383913
  0
LINE
  8
QTFib-h
  6
CONTINUOUS
 62
8
 10
5.015780885907
 20
7.3331037383913
 11
5.0143807620178
 21
7.3329812434235
  0
LINE
  8
QTFib-h
  6
CONTINUOUS
 62
8
 10
5.0143807620178
 20
7.3329812434235
 11
5.0130231801845
 21
7.3326174804676
  0
LINE
  8
QTFib-h
  6
CONTINUOUS
 62
8
 10
5.0130231801845
 20
7.3326174804676
 11
5.011749389844
 21
7.3320235022769
  0
LINE
  8
QTFib-h
  6
CONTINUOUS
 62
8
 10
5.011749389844
 20
7.3320235022769
 11
5.0105980944714
 21
7.3312173565783
  0
LINE
  8
QTFib-h
  6
CONTINUOUS
 62
8
 10
5.0105980944714
 20
7.3312173565783
 11
5.009604275594
 21
7.3302235377009
  0
LINE
  8
QTFib-h
  6
CONTINUOUS
 62
8
 10
5.009604275594
 20
7.3302235377009
 11
5.0087981298954
 21
7.3290722423283
  0
LINE
  8
QTFib-h
  6
CONTINUOUS
 62
8
 10
5.0087981298954
 20
7.3290722423283
 11
5.0082041517048
 21
7.3277984519879
  0
LINE
  8
QTFib-h
  6
CONTINUOUS
 62
8
 10
5.0082041517048
 20
7.3277984519879
 11
5.0078403887489
 21
7.3264408701545
  0
LINE
  8
QTFib-h
  6
CONTINUOUS
 62
8
 10
5.0078403887489
 20
7.3264408701545
 11
5.007717893781
 21
7.3250407462653
  0
LINE
  8
QTFib-h
  6
CONTINUOUS
 62
8
 10
5.007717893781
 20
7.3250407462653
 11
5.0078403887489
 21
7.3236406223761
  0
LINE
  8
QTFib-h
  6
CONTINUOUS
 62
8
 10
5.0078403887489
 20
7.3236406223761
 11
5.0082041517048
 21
7.3222830405428
  0
LINE
  8
QTFib-h
  6
CONTINUOUS
 62
8
 10
5.0082041517048
 20
7.3222830405428
 11
5.0087981298954
 21
7.3210092502023
  0
LINE
  8
QTFib-h
  6
CONTINUOUS
 62
8
 10
5.0087981298954
 20
7.3210092502023
 11
5.009604275594
 21
7.3198579548297
  0
LINE
  8
QTFib-h
  6
CONTINUOUS
 62
8
 10
5.009604275594
 20
7.3198579548297
 11
5.0105980944714
 21
7.3188641359523
  0
LINE
  8
QTFib-h
  6
CONTINUOUS
 62
8
 10
5.0105980944714
 20
7.3188641359523
 11
5.011749389844
 21
7.3180579902537
  0
LINE
  8
QTFib-h
  6
CONTINUOUS
 62
8
 10
5.0112530050557
 20
7.2095446832731
 11
4.9065116648815
 21
7.2700171242181
  0
LINE
  8
QTFib-h
  6
DIMSTYLE
 62
8
 10
5.0142042650043
 20
7.2124959432218
 11
4.9094629248301
 21
7.2729683841667
  0
LINE
  8
QTFib-h
  6
DIMSTYLE
 62
8
 10
5.0101727689413
 20
7.2055131872102
 11
4.9054314287671
 21
7.2659856281551
  0
LINE
  8
QTFib-h
  6
CONTINUOUS
 62
8
 10
5.0222672571303
 20
7.2124959432218
 11
4.9175259169561
 21
7.2729683841667
  0
LINE
  8
QTFib-h
  6
CONTINUOUS
 62
8
 10
5.0142042650043
 20
7.1985304311985
 11
4.9094629248301
 21
7.2590028721435
  0
CIRCLE
  8
QTFib-h
  6
CONTINUOUS
 62
8
 10
5.0182357610673
 20
7.2055131872101
 40
0.008062992125994
  0
LINE
  8
QTFib-h
  6
CONTINUOUS
 62
8
 10
4.9175259169561
 20
7.2729683841667
 11
4.9162521266157
 21
7.2735623623573
  0
LINE
  8
QTFib-h
  6
CONTINUOUS
 62
8
 10
4.9162521266157
 20
7.2735623623573
 11
4.9148945447823
 21
7.2739261253132
  0
LINE
  8
QTFib-h
  6
CONTINUOUS
 62
8
 10
4.9148945447823
 20
7.2739261253132
 11
4.9134944208931
 21
7.2740486202811
  0
LINE
  8
QTFib-h
  6
CONTINUOUS
 62
8
 10
4.9134944208931
 20
7.2740486202811
 11
4.9120942970039
 21
7.2739261253132
  0
LINE
  8
QTFib-h
  6
CONTINUOUS
 62
8
 10
4.9120942970039
 20
7.2739261253132
 11
4.9107367151706
 21
7.2735623623573
  0
LINE
  8
QTFib-h
  6
CONTINUOUS
 62
8
 10
4.9107367151706
 20
7.2735623623573
 11
4.9094629248301
 21
7.2729683841667
  0
LINE
  8
QTFib-h
  6
CONTINUOUS
 62
8
 10
4.9094629248301
 20
7.2729683841667
 11
4.9083116294575
 21
7.2721622384681
  0
LINE
  8
QTFib-h
  6
CONTINUOUS
 62
8
 10
4.9083116294575
 20
7.2721622384681
 11
4.9073178105801
 21
7.2711684195907
  0
LINE
  8
QTFib-h
  6
CONTINUOUS
 62
8
 10
4.9073178105801
 20
7.2711684195907
 11
4.9065116648815
 21
7.2700171242181
  0
LINE
  8
QTFib-h
  6
CONTINUOUS
 62
8
 10
4.9065116648815
 20
7.2700171242181
 11
4.9059176866909
 21
7.2687433338777
  0
LINE
  8
QTFib-h
  6
CONTINUOUS
 62
8
 10
4.9059176866909
 20
7.2687433338777
 11
4.905553923735
 21
7.2673857520443
  0
LINE
  8
QTFib-h
  6
CONTINUOUS
 62
8
 10
4.905553923735
 20
7.2673857520443
 11
4.9054314287671
 21
7.2659856281551
  0
LINE
  8
QTFib-h
  6
CONTINUOUS
 62
8
 10
4.9054314287671
 20
7.2659856281551
 11
4.905553923735
 21
7.2645855042659
  0
LINE
  8
QTFib-h
  6
CONTINUOUS
 62
8
 10
4.905553923735
 20
7.2645855042659
 11
4.9059176866909
 21
7.2632279224325
  0
LINE
  8
QTFib-h
  6
CONTINUOUS
 62
8
 10
4.9059176866909
 20
7.2632279224325
 11
4.9065116648815
 21
7.2619541320921
  0
LINE
  8
QTFib-h
  6
CONTINUOUS
 62
8
 10
4.9065116648815
 20
7.2619541320921
 11
4.9073178105801
 21
7.2608028367195
  0
LINE
  8
QTFib-h
  6
CONTINUOUS
 62
8
 10
4.9073178105801
 20
7.2608028367195
 11
4.9083116294575
 21
7.2598090178421
  0
LINE
  8
QTFib-h
  6
CONTINUOUS
 62
8
 10
4.9083116294575
 20
7.2598090178421
 11
4.9094629248301
 21
7.2590028721435
  0
ARC
  8
QTFib-h
  6
CONTINUOUS
 62
8
 10
4.0187574030313
 20
8.0368020026517
 40
0.284433792
 50
8.1275981642227
 51
52.264772
  0
ARC
  8
QTFib-h
  6
CONTINUOUS
 62
8
 10
4.0187574030313
 20
8.0368020026517
 40
0.30108288
 50
8.5867387870532
 51
52.264772
  0
LINE
  8
QTFib-h
  6
CONTINUOUS
 62
8
 10
3.7079442391867
 20
7.0683939770914
 11
5.1627676204988
 21
7.9083366479153
  0
ARC
  8
QTFib-h
  6
CONTINUOUS
 62
8
 10
4.4852059214869
 20
7.7674975806726
 40
0.284433792
 50
22.601961301709
 51
52.264772
  0
ARC
  8
QTFib-h
  6
CONTINUOUS
 62
8
 10
4.4852059214869
 20
7.7674975806726
 40
0.30108288
 50
22.601961301709
 51
52.264772
  0
ARC
  8
QTFib-h
  6
CONTINUOUS
 62
8
 10
4.5979824284745
 20
7.9099583814216
 40
0.1194144
 50
53.22485
 51
157.48689114289
  0
ARC
  8
QTFib-h
  6
CONTINUOUS
 62
8
 10
4.5979824284745
 20
7.9099583814216
 40
0.102765312
 50
53.22485
 51
142.77280900391
  0
ARC
  8
QTFib-h
  6
CONTINUOUS
 62
8
 10
4.8636139025488
 20
7.8743079296644
 40
0.30108288
 50
6.4894982445973
 51
41.122023490174
  0
LINE
  8
QTFib-h
  6
CONTINUOUS
 62
8
 10
4.0847718725143
 20
8.2891405676829
 11
4.6980158214809
 21
8.6431971266977
  0
ARC
  8
QTFib-h
  6
CONTINUOUS
 62
8
 10
4.5750243761001
 20
8.2002877179268
 40
0.284433792
 50
204.62830863872
 51
246.24218681516
  0
ARC
  8
QTFib-h
  6
CONTINUOUS
 62
8
 10
4.5750243761001
 20
8.2002877179268
 40
0.30108288
 50
204.16916801589
 51
243.95267115699
  0
LINE
  8
QTFib-h
  6
CONTINUOUS
 62
8
 10
4.5512207052691
 20
8.0198362085287
 11
4.7842326051929
 21
8.1543656916741
  0
LINE
  8
QTFib-h
  6
CONTINUOUS
 62
8
 10
5.2167403447098
 20
7.0683939770914
 11
3.6419371951035
 21
7.0683939770914
  0
LINE
  8
QTFib-h
  6
CONTINUOUS
 62
8
 10
5.2167403447098
 20
8.6431971266977
 11
5.2167403447098
 21
7.0683939770914
  0
LINE
  8
QTFib-h
  6
CONTINUOUS
 62
8
 10
3.6419371951035
 20
8.6431971266977
 11
5.2167403447098
 21
8.6431971266977
  0
LINE
  8
QTFib-h
  6
CONTINUOUS
 62
8
 10
3.6419371951035
 20
7.0683939770914
 11
3.6419371951035
 21
8.6431971266977
  0
ARC
  8
QTFib-h
  6
CONTINUOUS
 62
8
 10
4.1315335957196
 20
8.1792627405758
 40
0.1194144
 50
53.22485
 51
157.48689114289
  0
ARC
  8
QTFib-h
  6
CONTINUOUS
 62
8
 10
4.1315335957196
 20
8.1792627405758
 40
0.102765312
 50
53.22485
 51
142.77280900391
  0
LINE
  8
QTFib-h
  6
CONTINUOUS
 62
8
 10
4.8622462429247
 20
8.2174665600539
 11
4.868709825504
 21
8.2174665600539
  0
LINE
  8
QTFib-h
  6
CONTINUOUS
 62
8
 10
4.868709825504
 20
8.2008706143196
 11
4.868709825504
 21
8.1839748703196
  0
LINE
  8
QTFib-h
  6
CONTINUOUS
 62
8
 10
4.8399648042927
 20
8.2008706143196
 11
4.8399648042927
 21
8.1839748703196
  0
LINE
  8
QTFib-h
  6
CONTINUOUS
 62
8
 10
4.8241191035602
 20
8.2091807611084
 11
4.8241191035602
 21
8.1922850171084
  0
LINE
  8
QTFib-h
  6
CONTINUOUS
 62
8
 10
4.884597697938
 20
8.1922850171084
 11
4.868709825504
 21
8.1839748703196
  0
LINE
  8
QTFib-h
  6
CONTINUOUS
 62
8
 10
4.868709825504
 20
8.1839748703196
 11
4.8399648042927
 21
8.1839748703196
  0
LINE
  8
QTFib-h
  6
CONTINUOUS
 62
8
 10
4.8399648042927
 20
8.1839748703196
 11
4.8241191035602
 21
8.1922850171084
  0
LINE
  8
QTFib-h
  6
CONTINUOUS
 62
8
 10
4.884597697938
 20
8.2091807611084
 11
4.884597697938
 21
8.1922850171084
  0
LINE
  8
QTFib-h
  6
CONTINUOUS
 62
8
 10
4.8399648042927
 20
8.2008706143196
 11
4.8241191035602
 21
8.2091807611084
  0
LINE
  8
QTFib-h
  6
CONTINUOUS
 62
8
 10
4.868709825504
 20
8.2008706143196
 11
4.8399648042927
 21
8.2008706143196
  0
LINE
  8
QTFib-h
  6
CONTINUOUS
 62
8
 10
4.884597697938
 20
8.2091807611084
 11
4.868709825504
 21
8.2008706143196
  0
LINE
  8
QTFib-h
  6
CONTINUOUS
 62
8
 10
4.868709825504
 20
8.2174665600539
 11
4.884597697938
 21
8.2091807611084
  0
LINE
  8
QTFib-h
  6
CONTINUOUS
 62
8
 10
4.8399648042927
 20
8.2174665600539
 11
4.846470560172
 21
8.2174665600539
  0
LINE
  8
QTFib-h
  6
CONTINUOUS
 62
8
 10
4.8241191035602
 20
8.2091807611084
 11
4.8399648042927
 21
8.2174665600539
  0
LINE
  8
QTFib-h
  6
CONTINUOUS
 62
8
 10
4.861242800113
 20
8.2304307484939
 11
4.8617948624932
 21
8.2300494706686
  0
LINE
  8
QTFib-h
  6
CONTINUOUS
 62
8
 10
4.8471435797518
 20
8.230243804501
 11
4.8477972330328
 21
8.2306090897782
  0
LINE
  8
QTFib-h
  6
CONTINUOUS
 62
8
 10
4.8471435642208
 20
8.2302437324373
 11
4.8466970647804
 21
8.2298492122982
  0
LINE
  8
QTFib-h
  6
CONTINUOUS
 62
8
 10
4.8464705585735
 20
8.2294368100422
 11
4.8464705617711
 21
8.2290183897313
  0
LINE
  8
QTFib-h
  6
CONTINUOUS
 62
8
 10
4.8604922766441
 20
8.2307774155495
 11
4.861242800113
 21
8.2304307484939
  0
LINE
  8
QTFib-h
  6
CONTINUOUS
 62
8
 10
4.8595648832802
 20
8.2310794988553
 11
4.8604922766441
 21
8.2307774155495
  0
LINE
  8
QTFib-h
  6
CONTINUOUS
 62
8
 10
4.8584872994398
 20
8.2313283080247
 11
4.8595648832802
 21
8.2310794988553
  0
LINE
  8
QTFib-h
  6
CONTINUOUS
 62
8
 10
4.8572905252482
 20
8.2315166852708
 11
4.8584872994398
 21
8.2313283080247
  0
LINE
  8
QTFib-h
  6
CONTINUOUS
 62
8
 10
4.8560089897198
 20
8.2316392113233
 11
4.8572905252482
 21
8.2315166852708
  0
LINE
  8
QTFib-h
  6
CONTINUOUS
 62
8
 10
4.8546795602985
 20
8.2316923613306
 11
4.8560089897198
 21
8.2316392113233
  0
LINE
  8
QTFib-h
  6
CONTINUOUS
 62
8
 10
4.8533404822483
 20
8.231674606264
 11
4.8546795602985
 21
8.2316923613306
  0
LINE
  8
QTFib-h
  6
CONTINUOUS
 62
8
 10
4.8520302784066
 20
8.2315864569042
 11
4.8533404822483
 21
8.231674606264
  0
LINE
  8
QTFib-h
  6
CONTINUOUS
 62
8
 10
4.8507866409525
 20
8.2314304491479
 11
4.8520302784066
 21
8.2315864569042
  0
LINE
  8
QTFib-h
  6
CONTINUOUS
 62
8
 10
4.8496453470712
 20
8.2312110710543
 11
4.8507866409525
 21
8.2314304491479
  0
LINE
  8
QTFib-h
  6
CONTINUOUS
 62
8
 10
4.8486392297097
 20
8.2309346337315
 11
4.8496453470712
 21
8.2312110710543
  0
LINE
  8
QTFib-h
  6
CONTINUOUS
 62
8
 10
4.8477972330328
 20
8.2306090897782
 11
4.8486392297097
 21
8.2309346337315
  0
LINE
  8
QTFib-h
  6
CONTINUOUS
 62
8
 10
4.8621325819551
 20
8.2288107243063
 11
4.8622462429247
 21
8.2292276375243
  0
LINE
  8
QTFib-h
  6
CONTINUOUS
 62
8
 10
4.8617948624932
 20
8.22840580438
 11
4.8621325819551
 21
8.2288107243063
  0
LINE
  8
QTFib-h
  6
CONTINUOUS
 62
8
 10
4.861242800113
 20
8.2280245265547
 11
4.8617948624932
 21
8.22840580438
  0
LINE
  8
QTFib-h
  6
CONTINUOUS
 62
8
 10
4.8604922766441
 20
8.2276778594992
 11
4.861242800113
 21
8.2280245265547
  0
LINE
  8
QTFib-h
  6
CONTINUOUS
 62
8
 10
4.8595648832802
 20
8.2273757761933
 11
4.8604922766441
 21
8.2276778594992
  0
LINE
  8
QTFib-h
  6
CONTINUOUS
 62
8
 10
4.8584872994398
 20
8.227126967024
 11
4.8595648832802
 21
8.2273757761933
  0
LINE
  8
QTFib-h
  6
CONTINUOUS
 62
8
 10
4.8572905252482
 20
8.2269385897778
 11
4.8584872994398
 21
8.227126967024
  0
LINE
  8
QTFib-h
  6
CONTINUOUS
 62
8
 10
4.8560089897198
 20
8.2268160637254
 11
4.8572905252482
 21
8.2269385897778
  0
LINE
  8
QTFib-h
  6
CONTINUOUS
 62
8
 10
4.8546795602985
 20
8.226762913718
 11
4.8560089897198
 21
8.2268160637254
  0
LINE
  8
QTFib-h
  6
CONTINUOUS
 62
8
 10
4.8533404822483
 20
8.2267806687847
 11
4.8546795602985
 21
8.226762913718
  0
LINE
  8
QTFib-h
  6
CONTINUOUS
 62
8
 10
4.8520302784066
 20
8.2268688181444
 11
4.8533404822483
 21
8.2267806687847
  0
LINE
  8
QTFib-h
  6
CONTINUOUS
 62
8
 10
4.8507866409525
 20
8.2270248259007
 11
4.8520302784066
 21
8.2268688181444
  0
LINE
  8
QTFib-h
  6
CONTINUOUS
 62
8
 10
4.8496453470712
 20
8.2272442039944
 11
4.8507866409525
 21
8.2270248259007
  0
LINE
  8
QTFib-h
  6
CONTINUOUS
 62
8
 10
4.8486392297097
 20
8.2275206413171
 11
4.8496453470712
 21
8.2272442039944
  0
LINE
  8
QTFib-h
  6
CONTINUOUS
 62
8
 10
4.8477972330328
 20
8.2278461852705
 11
4.8486392297097
 21
8.2275206413171
  0
LINE
  8
QTFib-h
  6
CONTINUOUS
 62
8
 10
4.8471435797518
 20
8.2282114705476
 11
4.8477972330328
 21
8.2278461852705
  0
LINE
  8
QTFib-h
  6
CONTINUOUS
 62
8
 10
4.8466970742814
 20
8.2286059885562
 11
4.8471435797518
 21
8.2282114705476
  0
LINE
  8
QTFib-h
  6
CONTINUOUS
 62
8
 10
4.8464705617711
 20
8.2290183897313
 11
4.8466970742814
 21
8.2286059885562
  0
LINE
  8
QTFib-h
  6
CONTINUOUS
 62
8
 10
4.8466970647804
 20
8.2298492122982
 11
4.8464705585735
 21
8.2294368100422
  0
LINE
  8
QTFib-h
  6
CONTINUOUS
 62
8
 10
4.8621325755829
 20
8.2296445502
 11
4.861794849932
 21
8.2300494685148
  0
LINE
  8
QTFib-h
  6
CONTINUOUS
 62
8
 10
4.8622462429247
 20
8.2292276375243
 11
4.8621325755829
 21
8.2296445502
  0
LINE
  8
QTFib-h
  6
CONTINUOUS
 62
8
 10
4.8464705585735
 20
8.2093899336263
 11
4.8464705617711
 21
8.2089715133154
  0
LINE
  8
QTFib-h
  6
CONTINUOUS
 62
8
 10
4.8621325819551
 20
8.2087638478903
 11
4.8622462429247
 21
8.2091807611084
  0
LINE
  8
QTFib-h
  6
CONTINUOUS
 62
8
 10
4.8617948624932
 20
8.2083589279641
 11
4.8621325819551
 21
8.2087638478903
  0
LINE
  8
QTFib-h
  6
CONTINUOUS
 62
8
 10
4.861242800113
 20
8.2079776501388
 11
4.8617948624932
 21
8.2083589279641
  0
LINE
  8
QTFib-h
  6
CONTINUOUS
 62
8
 10
4.8604922766441
 20
8.2076309830832
 11
4.861242800113
 21
8.2079776501388
  0
LINE
  8
QTFib-h
  6
CONTINUOUS
 62
8
 10
4.8595648832802
 20
8.2073288997774
 11
4.8604922766441
 21
8.2076309830832
  0
LINE
  8
QTFib-h
  6
CONTINUOUS
 62
8
 10
4.8584872994398
 20
8.207080090608
 11
4.8595648832802
 21
8.2073288997774
  0
LINE
  8
QTFib-h
  6
CONTINUOUS
 62
8
 10
4.8572905252482
 20
8.2068917133619
 11
4.8584872994398
 21
8.207080090608
  0
LINE
  8
QTFib-h
  6
CONTINUOUS
 62
8
 10
4.8560089897198
 20
8.2067691873094
 11
4.8572905252482
 21
8.2068917133619
  0
LINE
  8
QTFib-h
  6
CONTINUOUS
 62
8
 10
4.8546795602985
 20
8.2067160373021
 11
4.8560089897198
 21
8.2067691873094
  0
LINE
  8
QTFib-h
  6
CONTINUOUS
 62
8
 10
4.8533404822483
 20
8.2067337923687
 11
4.8546795602985
 21
8.2067160373021
  0
LINE
  8
QTFib-h
  6
CONTINUOUS
 62
8
 10
4.8520302784066
 20
8.2068219417285
 11
4.8533404822483
 21
8.2067337923687
  0
LINE
  8
QTFib-h
  6
CONTINUOUS
 62
8
 10
4.8507866409525
 20
8.2069779494848
 11
4.8520302784066
 21
8.2068219417285
  0
LINE
  8
QTFib-h
  6
CONTINUOUS
 62
8
 10
4.8496453470712
 20
8.2071973275784
 11
4.8507866409525
 21
8.2069779494848
  0
LINE
  8
QTFib-h
  6
CONTINUOUS
 62
8
 10
4.8486392297097
 20
8.2074737649012
 11
4.8496453470712
 21
8.2071973275784
  0
LINE
  8
QTFib-h
  6
CONTINUOUS
 62
8
 10
4.8477972330328
 20
8.2077993088545
 11
4.8486392297097
 21
8.2074737649012
  0
LINE
  8
QTFib-h
  6
CONTINUOUS
 62
8
 10
4.8471435797518
 20
8.2081645941317
 11
4.8477972330328
 21
8.2077993088545
  0
LINE
  8
QTFib-h
  6
CONTINUOUS
 62
8
 10
4.8466970742814
 20
8.2085591121402
 11
4.8471435797518
 21
8.2081645941317
  0
LINE
  8
QTFib-h
  6
CONTINUOUS
 62
8
 10
4.8464705617711
 20
8.2089715133154
 11
4.8466970742814
 21
8.2085591121402
  0
LINE
  8
QTFib-h
  6
CONTINUOUS
 62
8
 10
4.88416196045
 20
8.1906867136716
 11
4.884597697938
 21
8.1922850171084
  0
LINE
  8
QTFib-h
  6
CONTINUOUS
 62
8
 10
4.8828672589311
 20
8.1891343884354
 11
4.88416196045
 21
8.1906867136716
  0
LINE
  8
QTFib-h
  6
CONTINUOUS
 62
8
 10
4.8807508395869
 20
8.1876726989706
 11
4.8828672589311
 21
8.1891343884354
  0
LINE
  8
QTFib-h
  6
CONTINUOUS
 62
8
 10
4.8778735879484
 20
8.1863436954217
 11
4.8807508395869
 21
8.1876726989706
  0
LINE
  8
QTFib-h
  6
CONTINUOUS
 62
8
 10
4.8743182773067
 20
8.1851856108012
 11
4.8778735879484
 21
8.1863436954217
  0
LINE
  8
QTFib-h
  6
CONTINUOUS
 62
8
 10
4.8701871874759
 20
8.1842317610952
 11
4.8743182773067
 21
8.1851856108012
  0
LINE
  8
QTFib-h
  6
CONTINUOUS
 62
8
 10
4.8655991623889
 20
8.1835095868228
 11
4.8701871874759
 21
8.1842317610952
  0
LINE
  8
QTFib-h
  6
CONTINUOUS
 62
8
 10
4.860686191174
 20
8.1830398636232
 11
4.8655991623889
 21
8.1835095868228
  0
LINE
  8
QTFib-h
  6
CONTINUOUS
 62
8
 10
4.8555896110681
 20
8.1828361045775
 11
4.860686191174
 21
8.1830398636232
  0
LINE
  8
QTFib-h
  6
CONTINUOUS
 62
8
 10
4.8504560414016
 20
8.1829041714625
 11
4.8555896110681
 21
8.1828361045775
  0
LINE
  8
QTFib-h
  6
CONTINUOUS
 62
8
 10
4.845433165627
 20
8.1832421061179
 11
4.8504560414016
 21
8.1829041714625
  0
LINE
  8
QTFib-h
  6
CONTINUOUS
 62
8
 10
4.8406654827352
 20
8.1838401867789
 11
4.845433165627
 21
8.1832421061179
  0
LINE
  8
QTFib-h
  6
CONTINUOUS
 62
8
 10
4.8362901502827
 20
8.1846812077537
 11
4.8406654827352
 21
8.1838401867789
  0
LINE
  8
QTFib-h
  6
CONTINUOUS
 62
8
 10
4.8324330386178
 20
8.1857409744003
 11
4.8362901502827
 21
8.1846812077537
  0
LINE
  8
QTFib-h
  6
CONTINUOUS
 62
8
 10
4.8292051098206
 20
8.1869889991616
 11
4.8324330386178
 21
8.1857409744003
  0
LINE
  8
QTFib-h
  6
CONTINUOUS
 62
8
 10
4.8266992255254
 20
8.1883893786376
 11
4.8292051098206
 21
8.1869889991616
  0
LINE
  8
QTFib-h
  6
CONTINUOUS
 62
8
 10
4.824987475461
 20
8.1899018264604
 11
4.8266992255254
 21
8.1883893786376
  0
LINE
  8
QTFib-h
  6
CONTINUOUS
 62
8
 10
4.8241191035602
 20
8.1914828322599
 11
4.824987475461
 21
8.1899018264604
  0
LINE
  8
QTFib-h
  6
CONTINUOUS
 62
8
 10
4.8241190913015
 20
8.1930869133777
 11
4.8241191035602
 21
8.1914828322599
  0
LINE
  8
QTFib-h
  6
CONTINUOUS
 62
8
 10
4.9240945992495
 20
8.1519179838072
 11
4.9251072107756
 21
8.1556322854843
  0
LINE
  8
QTFib-h
  6
CONTINUOUS
 62
8
 10
4.9210858388902
 20
8.1483105309949
 11
4.9240945992495
 21
8.1519179838072
  0
LINE
  8
QTFib-h
  6
CONTINUOUS
 62
8
 10
4.9161674862554
 20
8.1449137068967
 11
4.9210858388902
 21
8.1483105309949
  0
LINE
  8
QTFib-h
  6
CONTINUOUS
 62
8
 10
4.9094810333955
 20
8.1418252319572
 11
4.9161674862554
 21
8.1449137068967
  0
LINE
  8
QTFib-h
  6
CONTINUOUS
 62
8
 10
4.9012188373853
 20
8.1391339559774
 11
4.9094810333955
 21
8.1418252319572
  0
LINE
  8
QTFib-h
  6
CONTINUOUS
 62
8
 10
4.891618586561
 20
8.1369173020671
 11
4.9012188373853
 21
8.1391339559774
  0
LINE
  8
QTFib-h
  6
CONTINUOUS
 62
8
 10
4.8809564626597
 20
8.1352390393236
 11
4.891618586561
 21
8.1369173020671
  0
LINE
  8
QTFib-h
  6
CONTINUOUS
 62
8
 10
4.8695391955736
 20
8.1341474483103
 11
4.8809564626597
 21
8.1352390393236
  0
LINE
  8
QTFib-h
  6
CONTINUOUS
 62
8
 10
4.8576952392895
 20
8.1336739321133
 11
4.8695391955736
 21
8.1341474483103
  0
LINE
  8
QTFib-h
  6
CONTINUOUS
 62
8
 10
4.8457653228652
 20
8.1338321129314
 11
4.8576952392895
 21
8.1336739321133
  0
LINE
  8
QTFib-h
  6
CONTINUOUS
 62
8
 10
4.8340926482757
 20
8.1346174401904
 11
4.8457653228652
 21
8.1338321129314
  0
LINE
  8
QTFib-h
  6
CONTINUOUS
 62
8
 10
4.8230130171165
 20
8.136007321455
 11
4.8340926482757
 21
8.1346174401904
  0
LINE
  8
QTFib-h
  6
CONTINUOUS
 62
8
 10
4.8128451702034
 20
8.1379617723718
 11
4.8230130171165
 21
8.136007321455
  0
LINE
  8
QTFib-h
  6
CONTINUOUS
 62
8
 10
4.8038816179796
 20
8.1404245669463
 11
4.8128451702034
 21
8.1379617723718
  0
LINE
  8
QTFib-h
  6
CONTINUOUS
 62
8
 10
4.7963802255226
 20
8.1433248550626
 11
4.8038816179796
 21
8.1404245669463
  0
LINE
  8
QTFib-h
  6
CONTINUOUS
 62
8
 10
4.7905567942356
 20
8.1465792007121
 11
4.7963802255226
 21
8.1433248550626
  0
LINE
  8
QTFib-h
  6
CONTINUOUS
 62
8
 10
4.7865788536341
 20
8.1500939822957
 11
4.7905567942356
 21
8.1465792007121
  0
LINE
  8
QTFib-h
  6
CONTINUOUS
 62
8
 10
4.7845608418266
 20
8.1537680859466
 11
4.7865788536341
 21
8.1500939822957
  0
LINE
  8
QTFib-h
  6
CONTINUOUS
 62
8
 10
4.7845608133386
 20
8.1574958143922
 11
4.7845608418266
 21
8.1537680859466
  0
LINE
  8
QTFib-h
  6
CONTINUOUS
 62
8
 10
4.7865787689896
 20
8.1611699276721
 11
4.7845608133386
 21
8.1574958143922
  0
LINE
  8
QTFib-h
  6
CONTINUOUS
 62
8
 10
4.7905566558697
 20
8.1646847282367
 11
4.7865787689896
 21
8.1611699276721
  0
LINE
  8
QTFib-h
  6
CONTINUOUS
 62
8
 10
4.9240945424787
 20
8.1593465823295
 11
4.9210857269819
 21
8.1629540207851
  0
LINE
  8
QTFib-h
  6
CONTINUOUS
 62
8
 10
4.9251072107756
 20
8.1556322854843
 11
4.9240945424787
 21
8.1593465823295
  0
LINE
  8
QTFib-h
  6
CONTINUOUS
 62
8
 10
4.884597697938
 20
8.1935183015027
 11
4.9210857269819
 21
8.1629540207851
  0
LINE
  8
QTFib-h
  6
CONTINUOUS
 62
8
 10
4.8241191035602
 20
8.1939117548684
 11
4.7905566558697
 21
8.1646847282367
  0
LINE
  8
QTFib-h
  6
CONTINUOUS
 62
8
 10
4.8622462429247
 20
8.2292276375243
 11
4.8622462429247
 21
8.2091807611084
  0
LINE
  8
QTFib-h
  6
CONTINUOUS
 62
8
 10
4.846470560172
 20
8.2292276375243
 11
4.846470560172
 21
8.2091807611084
  0
LINE
  8
QTFib-h
  6
CONTINUOUS
 62
8
 10
4.8553684323746
 20
7.603489565163
 11
4.9222218265223
 21
7.6193570647118
  0
LINE
  8
QTFib-h
  6
CONTINUOUS
 62
8
 10
4.8553684323746
 20
7.691489565163
 11
5.0599413624024
 21
7.8095998013834
  0
LINE
  8
QTFib-h
  6
CONTINUOUS
 62
8
 10
4.8553684323746
 20
7.284489565163
 11
4.9222218265223
 21
7.3412716507173
  0
LINE
  8
QTFib-h
  6
CONTINUOUS
 62
8
 10
4.8553684323746
 20
7.196489565163
 11
4.936553790522
 21
7.2433619535437
  0
LINE
  8
QTFib-h
  6
CONTINUOUS
 62
8
 10
4.8553684323746
 20
7.691489565163
 11
4.8553684323746
 21
7.603489565163
  0
LINE
  8
QTFib-h
  6
CONTINUOUS
 62
8
 10
5.0599413624024
 20
7.8095998013834
 11
5.0599413624024
 21
7.7215998013834
  0
LINE
  8
QTFib-h
  6
CONTINUOUS
 62
8
 10
5.0599413624024
 20
7.4025998013834
 11
5.0599413624024
 21
7.3145998013834
  0
LINE
  8
QTFib-h
  6
CONTINUOUS
 62
8
 10
4.9930879682546
 20
7.3867323018346
 11
5.0599413624024
 21
7.4025998013834
  0
LINE
  8
QTFib-h
  6
CONTINUOUS
 62
8
 10
4.9930879682546
 20
7.6602716507173
 11
5.0599413624024
 21
7.7215998013834
  0
LINE
  8
QTFib-h
  6
CONTINUOUS
 62
8
 10
4.8553684323746
 20
7.284489565163
 11
4.8553684323746
 21
7.196489565163
  0
LINE
  8
QTFib-h
  6
CONTINUOUS
 62
8
 10
4.611617716457
 20
7.2840386846086
 11
4.6576733128969
 21
7.3106288956109
  0
LINE
  8
QTFib-h
  6
CONTINUOUS
 62
8
 10
4.6165469905508
 20
7.4511977772232
 11
4.6176252373871
 21
7.4504530939707
  0
LINE
  8
QTFib-h
  6
CONTINUOUS
 62
8
 10
4.5890094507827
 20
7.4508326522371
 11
4.5902861173472
 21
7.451546100044
  0
LINE
  8
QTFib-h
  6
CONTINUOUS
 62
8
 10
4.5890094204488
 20
7.4508325114876
 11
4.5881373512293
 21
7.450061964341
  0
LINE
  8
QTFib-h
  6
CONTINUOUS
 62
8
 10
4.5876949562938
 20
7.4492564911847
 11
4.5876949625392
 21
7.4484392640151
  0
LINE
  8
QTFib-h
  6
CONTINUOUS
 62
8
 10
4.6150811244006
 20
7.4518748613162
 11
4.6165469905508
 21
7.4511977772232
  0
LINE
  8
QTFib-h
  6
CONTINUOUS
 62
8
 10
4.6132698092367
 20
7.4524648677729
 11
4.6150811244006
 21
7.4518748613162
  0
LINE
  8
QTFib-h
  6
CONTINUOUS
 62
8
 10
4.6111651532985
 20
7.4529508231818
 11
4.6132698092367
 21
7.4524648677729
  0
LINE
  8
QTFib-h
  6
CONTINUOUS
 62
8
 10
4.6088277037054
 20
7.4533187474906
 11
4.6111651532985
 21
7.4529508231818
  0
LINE
  8
QTFib-h
  6
CONTINUOUS
 62
8
 10
4.6063247046265
 20
7.4535580561868
 11
4.6088277037054
 21
7.4533187474906
  0
LINE
  8
QTFib-h
  6
CONTINUOUS
 62
8
 10
4.6037281627881
 20
7.453661864795
 11
4.6063247046265
 21
7.4535580561868
  0
LINE
  8
QTFib-h
  6
CONTINUOUS
 62
8
 10
4.6011127759712
 20
7.4536271869304
 11
4.6037281627881
 21
7.453661864795
  0
LINE
  8
QTFib-h
  6
CONTINUOUS
 62
8
 10
4.5985537840929
 20
7.4534550202121
 11
4.6011127759712
 21
7.4536271869304
  0
LINE
  8
QTFib-h
  6
CONTINUOUS
 62
8
 10
4.5961248046903
 20
7.4531503175631
 11
4.5985537840929
 21
7.4534550202121
  0
LINE
  8
QTFib-h
  6
CONTINUOUS
 62
8
 10
4.5938957150784
 20
7.4527218447239
 11
4.5961248046903
 21
7.4531503175631
  0
LINE
  8
QTFib-h
  6
CONTINUOUS
 62
8
 10
4.5919306421069
 20
7.4521819280779
 11
4.5938957150784
 21
7.4527218447239
  0
LINE
  8
QTFib-h
  6
CONTINUOUS
 62
8
 10
4.5902861173472
 20
7.451546100044
 11
4.5919306421069
 21
7.4521819280779
  0
LINE
  8
QTFib-h
  6
CONTINUOUS
 62
8
 10
4.6182848457111
 20
7.4480336674817
 11
4.6185068397924
 21
7.4488479511108
  0
LINE
  8
QTFib-h
  6
CONTINUOUS
 62
8
 10
4.6176252373871
 20
7.4472428082508
 11
4.6182848457111
 21
7.4480336674817
  0
LINE
  8
QTFib-h
  6
CONTINUOUS
 62
8
 10
4.6165469905508
 20
7.4464981249983
 11
4.6176252373871
 21
7.4472428082508
  0
LINE
  8
QTFib-h
  6
CONTINUOUS
 62
8
 10
4.6150811244006
 20
7.4458210409053
 11
4.6165469905508
 21
7.4464981249983
  0
LINE
  8
QTFib-h
  6
CONTINUOUS
 62
8
 10
4.6132698092367
 20
7.4452310344487
 11
4.6150811244006
 21
7.4458210409053
  0
LINE
  8
QTFib-h
  6
CONTINUOUS
 62
8
 10
4.6111651532985
 20
7.4447450790397
 11
4.6132698092367
 21
7.4452310344487
  0
LINE
  8
QTFib-h
  6
CONTINUOUS
 62
8
 10
4.6088277037054
 20
7.4443771547309
 11
4.6111651532985
 21
7.4447450790397
  0
LINE
  8
QTFib-h
  6
CONTINUOUS
 62
8
 10
4.6063247046265
 20
7.4441378460347
 11
4.6088277037054
 21
7.4443771547309
  0
LINE
  8
QTFib-h
  6
CONTINUOUS
 62
8
 10
4.6037281627881
 20
7.4440340374265
 11
4.6063247046265
 21
7.4441378460347
  0
LINE
  8
QTFib-h
  6
CONTINUOUS
 62
8
 10
4.6011127759712
 20
7.4440687152911
 11
4.6037281627881
 21
7.4440340374265
  0
LINE
  8
QTFib-h
  6
CONTINUOUS
 62
8
 10
4.5985537840929
 20
7.4442408820094
 11
4.6011127759712
 21
7.4440687152911
  0
LINE
  8
QTFib-h
  6
CONTINUOUS
 62
8
 10
4.5961248046903
 20
7.4445455846584
 11
4.5985537840929
 21
7.4442408820094
  0
LINE
  8
QTFib-h
  6
CONTINUOUS
 62
8
 10
4.5938957150784
 20
7.4449740574976
 11
4.5961248046903
 21
7.4445455846584
  0
LINE
  8
QTFib-h
  6
CONTINUOUS
 62
8
 10
4.5919306421069
 20
7.4455139741436
 11
4.5938957150784
 21
7.4449740574976
  0
LINE
  8
QTFib-h
  6
CONTINUOUS
 62
8
 10
4.5902861173472
 20
7.4461498021775
 11
4.5919306421069
 21
7.4455139741436
  0
LINE
  8
QTFib-h
  6
CONTINUOUS
 62
8
 10
4.5890094507827
 20
7.4468632499844
 11
4.5902861173472
 21
7.4461498021775
  0
LINE
  8
QTFib-h
  6
CONTINUOUS
 62
8
 10
4.5881373697858
 20
7.4476337929698
 11
4.5890094507827
 21
7.4468632499844
  0
LINE
  8
QTFib-h
  6
CONTINUOUS
 62
8
 10
4.5876949625392
 20
7.4484392640151
 11
4.5881373697858
 21
7.4476337929698
  0
LINE
  8
QTFib-h
  6
CONTINUOUS
 62
8
 10
4.5881373512293
 20
7.450061964341
 11
4.5876949562938
 21
7.4492564911847
  0
LINE
  8
QTFib-h
  6
CONTINUOUS
 62
8
 10
4.6182848332653
 20
7.4496622336805
 11
4.6176252128535
 21
7.450453089764
  0
LINE
  8
QTFib-h
  6
CONTINUOUS
 62
8
 10
4.6185068397924
 20
7.4488479511108
 11
4.6182848332653
 21
7.4496622336805
  0
LINE
  8
QTFib-h
  6
CONTINUOUS
 62
8
 10
4.6185068397924
 20
7.4488479511108
 11
4.6185068397924
 21
7.3106288956109
  0
LINE
  8
QTFib-h
  6
CONTINUOUS
 62
8
 10
4.587694959416
 20
7.4488479511108
 11
4.587694959416
 21
7.2968763956109
  0
ARC
  8
QTFib-h
  6
CONTINUOUS
 62
8
 10
4.6031008996042
 20
7.2968763956109
 40
0.015405940188201
 50
180
 51
303.56116129503
  0
LINE
  8
QTFib-h
  6
CONTINUOUS
 62
8
 10
4.8817486338504
 20
8.2106665970698
 11
5.2167403447098
 21
8.4040741515108
  0
LINE
  8
QTFib-h
  6
CONTINUOUS
 62
8
 10
4.8553684323746
 20
7.603489565163
 11
4.7450627085036
 21
7.667174604533
  0
LINE
  8
QTFib-h
  6
CONTINUOUS
 62
8
 10
4.9222218265223
 20
7.3412716507173
 11
4.5514020303401
 21
7.555364559864
  0
LINE
  8
QTFib-h
  6
CONTINUOUS
 62
8
 10
4.8553684323746
 20
7.284489565163
 11
4.6185068397924
 21
7.421241669401
  0
LINE
  8
QTFib-h
  6
CONTINUOUS
 62
8
 10
4.8553684323746
 20
7.196489565163
 11
4.6185068397924
 21
7.333241669401
  0
LINE
  8
QTFib-h
  6
CONTINUOUS
 62
8
 10
5.0599413624024
 20
7.4025998013834
 11
4.9930879682546
 21
7.4411976264909
  0
LINE
  8
QTFib-h
  6
CONTINUOUS
 62
8
 10
4.8553684323746
 20
7.691489565163
 11
4.8212729440366
 21
7.711174604533
  0
LINE
  8
QTFib-h
  6
CONTINUOUS
 62
8
 10
5.0599413624024
 20
7.8095998013834
 11
5.0258458740644
 21
7.8292848407535
  0
LINE
  8
QTFib-h
  6
CONTINUOUS
 62
8
 10
4.587694959416
 20
7.4390309168305
 11
4.4688006046963
 21
7.507674604533
  0
LINE
  8
QTFib-h
  6
CONTINUOUS
 62
8
 10
4.587694959416
 20
7.3510309168305
 11
4.3925903691633
 21
7.463674604533
  0
LINE
  8
QTFib-h
  6
CONTINUOUS
 62
8
 10
4.7631092845312
 20
7.8833449865034
 11
5.2167403447098
 21
8.1452490012103
  0
LINE
  8
QTFib-h
  6
CONTINUOUS
 62
8
 10
4.7631647516288
 20
7.883211838114
 11
4.7477943625074
 21
7.8768131453189
  0
LINE
  8
QTFib-h
  6
CONTINUOUS
 62
8
 10
4.9222218265223
 20
7.3412716507173
 11
4.9222218265223
 21
7.6193570647118
  0
LINE
  8
QTFib-h
  6
CONTINUOUS
 62
8
 10
4.9930879682546
 20
7.3867323018346
 11
4.9930879682546
 21
7.6602716507173
  0
LINE
  8
QTFib-h
  6
CONTINUOUS
 62
8
 10
4.952679774774
 20
7.2526722948925
 11
5.0388402555359
 21
7.3024170716539
  0
LINE
  8
QTFib-h
  6
CONTINUOUS
 62
8
 10
5.0549662397879
 20
7.3117274130027
 11
5.0599413624024
 21
7.3145998013834
  0
LINE
  8
QTFib-h
  6
CONTINUOUS
 62
8
 10
3.6419371951035
 20
8.5720785657817
 11
3.7651181559713
 21
8.6431971266977
  0
ARC
  8
QTFib-h
  6
CONTINUOUS
 62
8
 10
3.5523085702765
 20
8.3061063618059
 40
0.284433792
 50
8.1275981642227
 51
52.264772
  0
ARC
  8
QTFib-h
  6
CONTINUOUS
 62
8
 10
3.5523085702765
 20
8.3061063618059
 40
0.30108288
 50
8.5867387870532
 51
52.264772
  0
ARC
  8
QTFib-h
  6
CONTINUOUS
 62
8
 10
4.1085755433453
 20
8.469592077081
 40
0.284433792
 50
204.62830863872
 51
246.24218681516
  0
ARC
  8
QTFib-h
  6
CONTINUOUS
 62
8
 10
4.1085755433453
 20
8.469592077081
 40
0.30108288
 50
204.16916801589
 51
243.95267115699
  0
ARC
  8
QTFib-h
  6
CONTINUOUS
 62
8
 10
3.6650847629648
 20
8.44856709973
 40
0.1194144
 50
53.22485
 51
101.177104809
  0
ARC
  8
QTFib-h
  6
CONTINUOUS
 62
8
 10
3.6650847629648
 20
8.44856709973
 40
0.102765312
 50
53.22485
 51
103.01739713684
  0
ENDSEC
  0
EOF
