  0
SECTION
  2
HEADER
  9
$EXTMIN
 10
3.249957059735
 20
8.7792839673655
  9
$EXTMAX
 10
4.8247602093413
 20
10.354087116972
  9
$LIMMIN
 10
0
 20
0
  9
$LIMMAX
 10
8.2666666666667
 20
11.69
  0
ENDSEC
  0
SECTION
  2
TABLES
  0
TABLE
  2
LTYPE
 70
9
  0
LTYPE
  2
CONTINUOUS
  3
___________________________
 70
64
 72
65
 73
0
 40
0
  0
LTYPE
  2
HIDDEN
  3
_ _ _ _ _ _ _ _ _ _ _ _ _ _ 
 70
64
 72
65
 73
2
 49
0.25
 49
-0.125
 40
0.375
  0
LTYPE
  2
DASHED
  3
__ __ __ __ __ __ __ __ __ 
 70
64
 72
65
 73
2
 49
0.5
 49
-0.25
 40
0.75
  0
LTYPE
  2
CENTER
  3
____ _ ____ _ ____ _ ____ _ 
 70
64
 72
65
 73
4
 49
1.25
 49
-0.25
 49
0.25
 49
-0.25
 40
2
  0
LTYPE
  2
PHANTOM
  3
_____ _ _ _____ _ _ _____ _ _ 
 70
64
 72
65
 73
6
 49
1.25
 49
-0.25
 49
0.25
 49
-0.25
 49
0.25
 49
-0.25
 40
2.5
  0
LTYPE
  2
DOT
  3
...........................
 70
64
 72
65
 73
2
 49
0
 49
-0.25
 40
0.25
  0
LTYPE
  2
DASHDOT
  3
__ . __ . __ . __ . __ . __ . 
 70
64
 72
65
 73
4
 49
0.5
 49
-0.25
 49
0
 49
-0.25
 40
1
  0
LTYPE
  2
DIVIDE
  3
__ . . __ . . __ . . __ . . 
 70
64
 72
65
 73
6
 49
0.5
 49
-0.25
 49
0
 49
-0.25
 49
0
 49
-0.25
 40
1.25
  0
LTYPE
  2
BORDER
  3
__ __ . __ __ . __ __ . __ __ . 
 70
64
 72
65
 73
6
 49
0.5
 49
-0.25
 49
0.5
 49
-0.25
 49
0
 49
-0.25
 40
1.75
  0
ENDTAB
  0
TABLE
  2
LAYER
 70
1
  0
LAYER
  2
EFKV.4a
 62
7
  6
CONTINUOUS
 70
0
  0
ENDTAB
  0
TABLE
  2
STYLE
 70
5
  0
STYLE
  2
ptmarker
 70
1
 40
0
 50
0
 71
0
 41
0
 42
0
  3
ptmarks
  0
STYLE
  2
TXT
 70
0
 40
0
 50
0
 71
0
 41
0
 42
0
  3
TXT
  0
STYLE
  2
ITALIC
 70
0
 40
0
 50
0
 71
0
 41
0
 42
0
  3
ITALIC
  0
STYLE
  2
SIMPLEX
 70
0
 40
0
 50
0
 71
0
 41
0
 42
0
  3
SIMPLEX
  0
STYLE
  2
COMPLEX
 70
0
 40
0
 50
0
 71
0
 41
0
 42
0
  3
COMPLEX
  0
ENDTAB
  0
ENDSEC
  0
SECTION
  2
BLOCKS
  0
ENDSEC
  0
SECTION
  2
ENTITIES
  0
LINE
  8
EFKV.4a
  6
CONTINUOUS
 62
8
 10
4.7457666516172
 20
10.217086033811
 11
4.2753042287083
 21
9.9454644273012
  0
LINE
  8
EFKV.4a
  6
CONTINUOUS
 62
8
 10
3.9384897628539
 20
9.9454644273012
 11
4.2068464557672
 21
9.7905286184088
  0
LINE
  8
EFKV.4a
  6
CONTINUOUS
 62
8
 10
4.5333785370824
 20
10.28892362124
 11
4.5333785370824
 21
10.094463698712
  0
LINE
  8
EFKV.4a
  6
CONTINUOUS
 62
8
 10
4.4940084583422
 20
10.311653946799
 11
4.5333785370824
 21
10.28892362124
  0
LINE
  8
EFKV.4a
  6
CONTINUOUS
 62
8
 10
4.1674763770271
 20
9.7677982928501
 11
4.2068464557672
 21
9.7905286184088
  0
LINE
  8
EFKV.4a
  6
CONTINUOUS
 62
8
 10
4.4940084583422
 20
10.311653946799
 11
3.8991196841137
 21
9.9681947528598
  0
LINE
  8
EFKV.4a
  6
CONTINUOUS
 62
8
 10
4.5333785370824
 20
10.28892362124
 11
3.9384897628539
 21
9.9454644273012
  0
LINE
  8
EFKV.4a
  6
CONTINUOUS
 62
8
 10
3.798516754424
 20
10.026277881397
 11
3.8991196841137
 21
9.9681947528598
  0
LINE
  8
EFKV.4a
  6
CONTINUOUS
 62
8
 10
4.2068464557672
 20
9.7905286184088
 11
4.2068464557672
 21
9.0849595795252
  0
LINE
  8
EFKV.4a
  6
CONTINUOUS
 62
8
 10
4.1674763770271
 20
9.7677982928501
 11
4.1674763770271
 21
9.1076899050838
  0
LINE
  8
EFKV.4a
  6
CONTINUOUS
 62
8
 10
3.798516754424
 20
9.9808172302801
 11
4.1674763770271
 21
9.7677982928501
  0
LINE
  8
EFKV.4a
  6
CONTINUOUS
 62
8
 10
4.8247602093413
 20
8.7792839673655
 11
3.249957059735
 21
8.7792839673655
  0
LINE
  8
EFKV.4a
  6
CONTINUOUS
 62
8
 10
4.8247602093413
 20
10.354087116972
 11
4.8247602093413
 21
8.7792839673655
  0
LINE
  8
EFKV.4a
  6
CONTINUOUS
 62
8
 10
3.249957059735
 20
10.354087116972
 11
4.8247602093413
 21
10.354087116972
  0
LINE
  8
EFKV.4a
  6
CONTINUOUS
 62
8
 10
3.249957059735
 20
8.7792839673655
 11
3.249957059735
 21
10.354087116972
  0
LINE
  8
EFKV.4a
  6
CONTINUOUS
 62
8
 10
3.7603664662257
 20
9.2986827633529
 11
3.7603664662257
 21
9.2522838079434
  0
LINE
  8
EFKV.4a
  6
CONTINUOUS
 62
8
 10
3.727886151265
 20
9.279930244767
 11
3.727886151265
 21
8.7792839673655
  0
LINE
  8
EFKV.4a
  6
CONTINUOUS
 62
8
 10
3.727886151265
 20
10.354087116972
 11
3.727886151265
 21
9.3665072453922
  0
LINE
  8
EFKV.4a
  6
CONTINUOUS
 62
8
 10
3.6897358630667
 20
10.354087116972
 11
3.6897358630667
 21
9.3444811662312
  0
LINE
  8
EFKV.4a
  6
CONTINUOUS
 62
8
 10
3.798516754424
 20
9.407285843139
 11
3.6897358630667
 21
9.3444811662312
  0
LINE
  8
EFKV.4a
  6
CONTINUOUS
 62
8
 10
3.6897358630667
 20
9.3444811662312
 11
3.249957059735
 21
9.5983875767187
  0
LINE
  8
EFKV.4a
  6
CONTINUOUS
 62
8
 10
4.5950309403446
 20
8.7792839673655
 11
3.7680688253587
 21
9.2567307670623
  0
LINE
  8
EFKV.4a
  6
CONTINUOUS
 62
8
 10
4.518730363948
 20
8.7792839673655
 11
3.7299185371604
 21
9.2347046879013
  0
LINE
  8
EFKV.4a
  6
CONTINUOUS
 62
8
 10
3.7299185371604
 20
9.2347046879013
 11
3.7299185371604
 21
8.7792839673655
  0
LINE
  8
EFKV.4a
  6
CONTINUOUS
 62
8
 10
3.8386994285176
 20
9.2975093648091
 11
3.7299185371604
 21
9.2347046879013
  0
LINE
  8
EFKV.4a
  6
CONTINUOUS
 62
8
 10
3.727886151265
 20
9.279930244767
 11
3.249957059735
 21
9.5558627344154
  0
LINE
  8
EFKV.4a
  6
CONTINUOUS
 62
8
 10
3.6897358630667
 20
9.257904165606
 11
3.6897358630667
 21
8.7792839673655
  0
LINE
  8
EFKV.4a
  6
CONTINUOUS
 62
8
 10
3.6897358630667
 20
9.257904165606
 11
3.249957059735
 21
9.5118105760935
  0
LINE
  8
EFKV.4a
  6
CONTINUOUS
 62
8
 10
4.7362921466625
 20
8.7792839673655
 11
3.8386994285176
 21
9.2975093648091
  0
LINE
  8
EFKV.4a
  6
CONTINUOUS
 62
8
 10
3.798516754424
 20
9.3207088425138
 11
3.7235388724991
 21
9.3639973428264
  0
LINE
  8
EFKV.4a
  6
CONTINUOUS
 62
8
 10
3.798516754424
 20
10.354087116972
 11
3.798516754424
 21
9.407285843139
  0
LINE
  8
EFKV.4a
  6
CONTINUOUS
 62
8
 10
3.7603664662257
 20
10.354087116972
 11
3.7603664662257
 21
9.3852597639781
  0
LINE
  8
EFKV.4a
  6
CONTINUOUS
 62
8
 10
3.798516754424
 20
9.3207088425138
 11
3.798516754424
 21
9.2743098871044
  0
LINE
  8
EFKV.4a
  6
CONTINUOUS
 62
8
 10
3.7603664662257
 20
9.2986827633529
 11
3.249957059735
 21
9.5933677715872
  0
LINE
  8
EFKV.4a
  6
CONTINUOUS
 62
8
 10
3.798516754424
 20
9.3207088425138
 11
3.6897358630667
 21
9.257904165606
  0
LINE
  8
EFKV.4a
  6
CONTINUOUS
 62
8
 10
3.7770063991649
 20
9.3948668337398
 11
3.7770063991649
 21
9.3331278519131
  0
LINE
  8
EFKV.4a
  6
CONTINUOUS
 62
8
 10
4.7457666516172
 20
10.171625382694
 11
4.3146743074484
 21
9.9227341017425
  0
LINE
  8
EFKV.4a
  6
CONTINUOUS
 62
8
 10
4.7457666516172
 20
10.217086033811
 11
4.8247602093413
 21
10.171479081995
  0
LINE
  8
EFKV.4a
  6
CONTINUOUS
 62
8
 10
4.7457666516172
 20
10.171625382694
 11
4.8247602093413
 21
10.126018430878
  0
LINE
  8
EFKV.4a
  6
CONTINUOUS
 62
8
 10
4.3146743074484
 20
9.9227341017425
 11
4.3146743074484
 21
9.3321829206402
  0
LINE
  8
EFKV.4a
  6
CONTINUOUS
 62
8
 10
4.2753042287083
 20
9.9454644273012
 11
4.2753042287083
 21
9.3549132461988
  0
LINE
  8
EFKV.4a
  6
CONTINUOUS
 62
8
 10
4.2753042287083
 20
9.9454644273012
 11
4.3146743074484
 21
9.9227341017425
  0
LINE
  8
EFKV.4a
  6
CONTINUOUS
 62
8
 10
4.2753042287083
 20
9.3549132461988
 11
4.3146743074484
 21
9.3321829206402
  0
LINE
  8
EFKV.4a
  6
CONTINUOUS
 62
8
 10
4.7457666516172
 20
9.5810742015916
 11
4.3146743074484
 21
9.3321829206402
  0
LINE
  8
EFKV.4a
  6
CONTINUOUS
 62
8
 10
4.7457666516172
 20
9.5810742015916
 11
4.8247602093413
 21
9.5354672497753
  0
LINE
  8
EFKV.4a
  6
CONTINUOUS
 62
8
 10
4.7457666516172
 20
10.171625382694
 11
4.7457666516172
 21
9.5810742015916
  0
LINE
  8
EFKV.4a
  6
CONTINUOUS
 62
8
 10
4.5333785370824
 20
9.4584518664922
 11
4.5333785370824
 21
8.8964361944788
  0
LINE
  8
EFKV.4a
  6
CONTINUOUS
 62
8
 10
4.4726214907842
 20
9.8495959421723
 11
4.4721872151528
 21
9.8582481493732
  0
LINE
  8
EFKV.4a
  6
CONTINUOUS
 62
8
 10
4.4721872151528
 20
9.8582481493732
 11
4.4708968815777
 21
9.866651448326
  0
LINE
  8
EFKV.4a
  6
CONTINUOUS
 62
8
 10
4.4708968815777
 20
9.866651448326
 11
4.4687876106066
 21
9.8745640914196
  0
LINE
  8
EFKV.4a
  6
CONTINUOUS
 62
8
 10
4.4687876106066
 20
9.8745640914196
 11
4.465920082125
 21
9.8817584463188
  0
LINE
  8
EFKV.4a
  6
CONTINUOUS
 62
8
 10
4.465920082125
 20
9.8817584463188
 11
4.4623767897064
 21
9.8880275445318
  0
LINE
  8
EFKV.4a
  6
CONTINUOUS
 62
8
 10
4.4623767897064
 20
9.8880275445318
 11
4.4582596674225
 21
9.8931910355171
  0
LINE
  8
EFKV.4a
  6
CONTINUOUS
 62
8
 10
4.4582596674225
 20
9.8931910355171
 11
4.4536871573853
 21
9.8971003750404
  0
LINE
  8
EFKV.4a
  6
CONTINUOUS
 62
8
 10
4.4536871573853
 20
9.8971003750404
 11
4.4487908023834
 21
9.8996430985211
  0
LINE
  8
EFKV.4a
  6
CONTINUOUS
 62
8
 10
4.4487908023834
 20
9.8996430985211
 11
4.4437114616355
 21
9.9007460564342
  0
LINE
  8
EFKV.4a
  6
CONTINUOUS
 62
8
 10
4.4437114616355
 20
9.9007460564342
 11
4.438595258527
 21
9.9003775186889
  0
LINE
  8
EFKV.4a
  6
CONTINUOUS
 62
8
 10
4.438595258527
 20
9.9003775186889
 11
4.4335893769062
 21
9.8985480874449
  0
LINE
  8
EFKV.4a
  6
CONTINUOUS
 62
8
 10
4.4335893769062
 20
9.8985480874449
 11
4.4288378268732
 21
9.8953103921084
  0
LINE
  8
EFKV.4a
  6
CONTINUOUS
 62
8
 10
4.4288378268732
 20
9.8953103921084
 11
4.4244773018714
 21
9.8907575752793
  0
LINE
  8
EFKV.4a
  6
CONTINUOUS
 62
8
 10
4.4244773018714
 20
9.8907575752793
 11
4.4206332462658
 21
9.8850206132086
  0
LINE
  8
EFKV.4a
  6
CONTINUOUS
 62
8
 10
4.4206332462658
 20
9.8850206132086
 11
4.4174162465373
 21
9.8782645478496
  0
LINE
  8
EFKV.4a
  6
CONTINUOUS
 62
8
 10
4.4174162465373
 20
9.8782645478496
 11
4.414918849911
 21
9.8706837389021
  0
LINE
  8
EFKV.4a
  6
CONTINUOUS
 62
8
 10
4.414918849911
 20
9.8706837389021
 11
4.4132129019408
 21
9.8624962724372
  0
LINE
  8
EFKV.4a
  6
CONTINUOUS
 62
8
 10
4.4132129019408
 20
9.8624962724372
 11
4.4123474796438
 21
9.8539376869581
  0
LINE
  8
EFKV.4a
  6
CONTINUOUS
 62
8
 10
4.4123474796438
 20
9.8539376869581
 11
4.4123474796438
 21
9.8452541973865
  0
LINE
  8
EFKV.4a
  6
CONTINUOUS
 62
8
 10
4.4123474796438
 20
9.8452541973865
 11
4.4132129019408
 21
9.8366956119074
  0
LINE
  8
EFKV.4a
  6
CONTINUOUS
 62
8
 10
4.4132129019408
 20
9.8366956119074
 11
4.414918849911
 21
9.8285081454424
  0
LINE
  8
EFKV.4a
  6
CONTINUOUS
 62
8
 10
4.414918849911
 20
9.8285081454424
 11
4.4174162465373
 21
9.820927336495
  0
LINE
  8
EFKV.4a
  6
CONTINUOUS
 62
8
 10
4.4174162465373
 20
9.820927336495
 11
4.4206332462658
 21
9.814171271136
  0
LINE
  8
EFKV.4a
  6
CONTINUOUS
 62
8
 10
4.4206332462658
 20
9.814171271136
 11
4.4244773018714
 21
9.8084343090652
  0
LINE
  8
EFKV.4a
  6
CONTINUOUS
 62
8
 10
4.4244773018714
 20
9.8084343090652
 11
4.4288378268732
 21
9.8038814922362
  0
LINE
  8
EFKV.4a
  6
CONTINUOUS
 62
8
 10
4.4288378268732
 20
9.8038814922362
 11
4.4335893769062
 21
9.8006437968997
  0
LINE
  8
EFKV.4a
  6
CONTINUOUS
 62
8
 10
4.4335893769062
 20
9.8006437968997
 11
4.438595258527
 21
9.7988143656557
  0
LINE
  8
EFKV.4a
  6
CONTINUOUS
 62
8
 10
4.438595258527
 20
9.7988143656557
 11
4.4437114616355
 21
9.7984458279103
  0
LINE
  8
EFKV.4a
  6
CONTINUOUS
 62
8
 10
4.4437114616355
 20
9.7984458279103
 11
4.4487908023834
 21
9.7995487858235
  0
LINE
  8
EFKV.4a
  6
CONTINUOUS
 62
8
 10
4.4487908023834
 20
9.7995487858235
 11
4.4536871573853
 21
9.8020915093042
  0
LINE
  8
EFKV.4a
  6
CONTINUOUS
 62
8
 10
4.4536871573853
 20
9.8020915093042
 11
4.4582596674225
 21
9.8060008488274
  0
LINE
  8
EFKV.4a
  6
CONTINUOUS
 62
8
 10
4.4582596674225
 20
9.8060008488274
 11
4.4623767897064
 21
9.8111643398128
  0
LINE
  8
EFKV.4a
  6
CONTINUOUS
 62
8
 10
4.4623767897064
 20
9.8111643398128
 11
4.465920082125
 21
9.8174334380258
  0
LINE
  8
EFKV.4a
  6
CONTINUOUS
 62
8
 10
4.465920082125
 20
9.8174334380258
 11
4.4687876106066
 21
9.824627792925
  0
LINE
  8
EFKV.4a
  6
CONTINUOUS
 62
8
 10
4.4687876106066
 20
9.824627792925
 11
4.4708968815777
 21
9.8325404360186
  0
LINE
  8
EFKV.4a
  6
CONTINUOUS
 62
8
 10
4.4708968815777
 20
9.8325404360186
 11
4.4721872151528
 21
9.8409437349714
  0
LINE
  8
EFKV.4a
  6
CONTINUOUS
 62
8
 10
4.4721872151528
 20
9.8409437349714
 11
4.4726214907842
 21
9.8495959421723
  0
LINE
  8
EFKV.4a
  6
CONTINUOUS
 62
8
 10
4.4696687348787
 20
9.8513007165892
 11
4.4692344592473
 21
9.8599529237901
  0
LINE
  8
EFKV.4a
  6
CONTINUOUS
 62
8
 10
4.4692344592473
 20
9.8599529237901
 11
4.4679441256722
 21
9.8683562227429
  0
LINE
  8
EFKV.4a
  6
CONTINUOUS
 62
8
 10
4.4679441256722
 20
9.8683562227429
 11
4.4658348547011
 21
9.8762688658365
  0
LINE
  8
EFKV.4a
  6
CONTINUOUS
 62
8
 10
4.4658348547011
 20
9.8762688658365
 11
4.4629673262195
 21
9.8834632207357
  0
LINE
  8
EFKV.4a
  6
CONTINUOUS
 62
8
 10
4.4629673262195
 20
9.8834632207357
 11
4.4594240338009
 21
9.8897323189487
  0
LINE
  8
EFKV.4a
  6
CONTINUOUS
 62
8
 10
4.4594240338009
 20
9.8897323189487
 11
4.455306911517
 21
9.894895809934
  0
LINE
  8
EFKV.4a
  6
CONTINUOUS
 62
8
 10
4.455306911517
 20
9.894895809934
 11
4.4512790175612
 21
9.8983395213548
  0
LINE
  8
EFKV.4a
  6
CONTINUOUS
 62
8
 10
4.4316843385031
 20
9.8019656762985
 11
4.4356425026215
 21
9.8005191400726
  0
LINE
  8
EFKV.4a
  6
CONTINUOUS
 62
8
 10
4.4356425026215
 20
9.8005191400726
 11
4.44075870573
 21
9.8001506023272
  0
LINE
  8
EFKV.4a
  6
CONTINUOUS
 62
8
 10
4.44075870573
 20
9.8001506023272
 11
4.4458380464779
 21
9.8012535602404
  0
LINE
  8
EFKV.4a
  6
CONTINUOUS
 62
8
 10
4.4458380464779
 20
9.8012535602404
 11
4.4507344014797
 21
9.8037962837211
  0
LINE
  8
EFKV.4a
  6
CONTINUOUS
 62
8
 10
4.4507344014797
 20
9.8037962837211
 11
4.455306911517
 21
9.8077056232443
  0
LINE
  8
EFKV.4a
  6
CONTINUOUS
 62
8
 10
4.455306911517
 20
9.8077056232443
 11
4.4594240338009
 21
9.8128691142297
  0
LINE
  8
EFKV.4a
  6
CONTINUOUS
 62
8
 10
4.4594240338009
 20
9.8128691142297
 11
4.4629673262195
 21
9.8191382124427
  0
LINE
  8
EFKV.4a
  6
CONTINUOUS
 62
8
 10
4.4629673262195
 20
9.8191382124427
 11
4.4658348547011
 21
9.8263325673419
  0
LINE
  8
EFKV.4a
  6
CONTINUOUS
 62
8
 10
4.4658348547011
 20
9.8263325673419
 11
4.4679441256722
 21
9.8342452104355
  0
LINE
  8
EFKV.4a
  6
CONTINUOUS
 62
8
 10
4.4679441256722
 20
9.8342452104355
 11
4.4692344592473
 21
9.8426485093883
  0
LINE
  8
EFKV.4a
  6
CONTINUOUS
 62
8
 10
4.4692344592473
 20
9.8426485093883
 11
4.4696687348787
 21
9.8513007165892
  0
LINE
  8
EFKV.4a
  6
CONTINUOUS
 62
8
 10
4.4667159789732
 20
9.8530054910061
 11
4.4662817033418
 21
9.861657698207
  0
LINE
  8
EFKV.4a
  6
CONTINUOUS
 62
8
 10
4.4662817033418
 20
9.861657698207
 11
4.4649913697667
 21
9.8700609971598
  0
LINE
  8
EFKV.4a
  6
CONTINUOUS
 62
8
 10
4.4649913697667
 20
9.8700609971598
 11
4.4628820987956
 21
9.8779736402534
  0
LINE
  8
EFKV.4a
  6
CONTINUOUS
 62
8
 10
4.4628820987956
 20
9.8779736402534
 11
4.460014570314
 21
9.8851679951526
  0
LINE
  8
EFKV.4a
  6
CONTINUOUS
 62
8
 10
4.460014570314
 20
9.8851679951526
 11
4.4564712778954
 21
9.8914370933656
  0
LINE
  8
EFKV.4a
  6
CONTINUOUS
 62
8
 10
4.4564712778954
 20
9.8914370933656
 11
4.4523541556114
 21
9.8966005843509
  0
LINE
  8
EFKV.4a
  6
CONTINUOUS
 62
8
 10
4.4523541556114
 20
9.8966005843509
 11
4.4488177681826
 21
9.8996240745199
  0
LINE
  8
EFKV.4a
  6
CONTINUOUS
 62
8
 10
4.4296242697468
 20
9.8033442125249
 11
4.432689746716
 21
9.8022239144895
  0
LINE
  8
EFKV.4a
  6
CONTINUOUS
 62
8
 10
4.432689746716
 20
9.8022239144895
 11
4.4378059498245
 21
9.8018553767441
  0
LINE
  8
EFKV.4a
  6
CONTINUOUS
 62
8
 10
4.4378059498245
 20
9.8018553767441
 11
4.4428852905724
 21
9.8029583346573
  0
LINE
  8
EFKV.4a
  6
CONTINUOUS
 62
8
 10
4.4428852905724
 20
9.8029583346573
 11
4.4477816455742
 21
9.805501058138
  0
LINE
  8
EFKV.4a
  6
CONTINUOUS
 62
8
 10
4.4477816455742
 20
9.805501058138
 11
4.4523541556114
 21
9.8094103976612
  0
LINE
  8
EFKV.4a
  6
CONTINUOUS
 62
8
 10
4.4523541556114
 20
9.8094103976612
 11
4.4564712778954
 21
9.8145738886466
  0
LINE
  8
EFKV.4a
  6
CONTINUOUS
 62
8
 10
4.4564712778954
 20
9.8145738886466
 11
4.460014570314
 21
9.8208429868596
  0
LINE
  8
EFKV.4a
  6
CONTINUOUS
 62
8
 10
4.460014570314
 20
9.8208429868596
 11
4.4628820987956
 21
9.8280373417588
  0
LINE
  8
EFKV.4a
  6
CONTINUOUS
 62
8
 10
4.4628820987956
 20
9.8280373417588
 11
4.4649913697667
 21
9.8359499848524
  0
LINE
  8
EFKV.4a
  6
CONTINUOUS
 62
8
 10
4.4649913697667
 20
9.8359499848524
 11
4.4662817033418
 21
9.8443532838052
  0
LINE
  8
EFKV.4a
  6
CONTINUOUS
 62
8
 10
4.4662817033418
 20
9.8443532838052
 11
4.4667159789732
 21
9.8530054910061
  0
LINE
  8
EFKV.4a
  6
CONTINUOUS
 62
8
 10
4.4637632230677
 20
9.854710265423
 11
4.4633289474363
 21
9.8633624726239
  0
LINE
  8
EFKV.4a
  6
CONTINUOUS
 62
8
 10
4.4633289474363
 20
9.8633624726239
 11
4.4620386138612
 21
9.8717657715767
  0
LINE
  8
EFKV.4a
  6
CONTINUOUS
 62
8
 10
4.4620386138612
 20
9.8717657715767
 11
4.4599293428901
 21
9.8796784146703
  0
LINE
  8
EFKV.4a
  6
CONTINUOUS
 62
8
 10
4.4599293428901
 20
9.8796784146703
 11
4.4570618144085
 21
9.8868727695695
  0
LINE
  8
EFKV.4a
  6
CONTINUOUS
 62
8
 10
4.4570618144085
 20
9.8868727695695
 11
4.4535185219899
 21
9.8931418677825
  0
LINE
  8
EFKV.4a
  6
CONTINUOUS
 62
8
 10
4.4535185219899
 20
9.8931418677825
 11
4.4494013997059
 21
9.8983053587678
  0
LINE
  8
EFKV.4a
  6
CONTINUOUS
 62
8
 10
4.4297369908104
 20
9.8039286889064
 11
4.434853193919
 21
9.803560151161
  0
LINE
  8
EFKV.4a
  6
CONTINUOUS
 62
8
 10
4.434853193919
 20
9.803560151161
 11
4.4399325346669
 21
9.8046631090742
  0
LINE
  8
EFKV.4a
  6
CONTINUOUS
 62
8
 10
4.4399325346669
 20
9.8046631090742
 11
4.4448288896687
 21
9.8072058325549
  0
LINE
  8
EFKV.4a
  6
CONTINUOUS
 62
8
 10
4.4448288896687
 20
9.8072058325549
 11
4.4494013997059
 21
9.8111151720781
  0
LINE
  8
EFKV.4a
  6
CONTINUOUS
 62
8
 10
4.4494013997059
 20
9.8111151720781
 11
4.4535185219899
 21
9.8162786630635
  0
LINE
  8
EFKV.4a
  6
CONTINUOUS
 62
8
 10
4.4535185219899
 20
9.8162786630635
 11
4.4570618144085
 21
9.8225477612765
  0
LINE
  8
EFKV.4a
  6
CONTINUOUS
 62
8
 10
4.4570618144085
 20
9.8225477612765
 11
4.4599293428901
 21
9.8297421161757
  0
LINE
  8
EFKV.4a
  6
CONTINUOUS
 62
8
 10
4.4599293428901
 20
9.8297421161757
 11
4.4620386138612
 21
9.8376547592693
  0
LINE
  8
EFKV.4a
  6
CONTINUOUS
 62
8
 10
4.4620386138612
 20
9.8376547592693
 11
4.4633289474363
 21
9.8460580582221
  0
LINE
  8
EFKV.4a
  6
CONTINUOUS
 62
8
 10
4.4633289474363
 20
9.8460580582221
 11
4.4637632230677
 21
9.854710265423
  0
LINE
  8
EFKV.4a
  6
CONTINUOUS
 62
8
 10
4.4282714274784
 20
9.8044642883378
 11
4.4297369908104
 21
9.8039286889064
  0
LINE
  8
EFKV.4a
  6
CONTINUOUS
 62
8
 10
4.4494013997059
 20
9.8983053587678
 11
4.4475003759315
 21
9.8999306690056
  0
LINE
  8
EFKV.4a
  6
CONTINUOUS
 62
8
 10
4.4710887045853
 20
9.8654022007591
 11
4.4140885335138
 21
9.8324931366471
  0
LINE
  8
EFKV.4a
  6
CONTINUOUS
 62
8
 10
4.4710887045853
 20
9.5701266102079
 11
4.4140885335138
 21
9.5372175460959
  0
LINE
  8
EFKV.4a
  6
CONTINUOUS
 62
8
 10
4.4437114616355
 20
9.9007460564342
 11
4.4437114616355
 21
9.7984458279103
  0
LINE
  8
EFKV.4a
  6
CONTINUOUS
 62
8
 10
4.4726214907842
 20
9.5543203516211
 11
4.4721872151528
 21
9.562972558822
  0
LINE
  8
EFKV.4a
  6
CONTINUOUS
 62
8
 10
4.4721872151528
 20
9.562972558822
 11
4.4708968815777
 21
9.5713758577748
  0
LINE
  8
EFKV.4a
  6
CONTINUOUS
 62
8
 10
4.4708968815777
 20
9.5713758577748
 11
4.4687876106066
 21
9.5792885008684
  0
LINE
  8
EFKV.4a
  6
CONTINUOUS
 62
8
 10
4.4687876106066
 20
9.5792885008684
 11
4.465920082125
 21
9.5864828557676
  0
LINE
  8
EFKV.4a
  6
CONTINUOUS
 62
8
 10
4.465920082125
 20
9.5864828557676
 11
4.4623767897064
 21
9.5927519539806
  0
LINE
  8
EFKV.4a
  6
CONTINUOUS
 62
8
 10
4.4623767897064
 20
9.5927519539806
 11
4.4582596674225
 21
9.597915444966
  0
LINE
  8
EFKV.4a
  6
CONTINUOUS
 62
8
 10
4.4582596674225
 20
9.597915444966
 11
4.4536871573853
 21
9.6018247844892
  0
LINE
  8
EFKV.4a
  6
CONTINUOUS
 62
8
 10
4.4536871573853
 20
9.6018247844892
 11
4.4487908023834
 21
9.6043675079699
  0
LINE
  8
EFKV.4a
  6
CONTINUOUS
 62
8
 10
4.4487908023834
 20
9.6043675079699
 11
4.4437114616355
 21
9.6054704658831
  0
LINE
  8
EFKV.4a
  6
CONTINUOUS
 62
8
 10
4.4437114616355
 20
9.6054704658831
 11
4.438595258527
 21
9.6051019281377
  0
LINE
  8
EFKV.4a
  6
CONTINUOUS
 62
8
 10
4.438595258527
 20
9.6051019281377
 11
4.4335893769062
 21
9.6032724968937
  0
LINE
  8
EFKV.4a
  6
CONTINUOUS
 62
8
 10
4.4335893769062
 20
9.6032724968937
 11
4.4288378268732
 21
9.6000348015572
  0
LINE
  8
EFKV.4a
  6
CONTINUOUS
 62
8
 10
4.4288378268732
 20
9.6000348015572
 11
4.4244773018714
 21
9.5954819847282
  0
LINE
  8
EFKV.4a
  6
CONTINUOUS
 62
8
 10
4.4244773018714
 20
9.5954819847282
 11
4.4206332462658
 21
9.5897450226574
  0
LINE
  8
EFKV.4a
  6
CONTINUOUS
 62
8
 10
4.4206332462658
 20
9.5897450226574
 11
4.4174162465373
 21
9.5829889572984
  0
LINE
  8
EFKV.4a
  6
CONTINUOUS
 62
8
 10
4.4174162465373
 20
9.5829889572984
 11
4.414918849911
 21
9.575408148351
  0
LINE
  8
EFKV.4a
  6
CONTINUOUS
 62
8
 10
4.414918849911
 20
9.575408148351
 11
4.4132129019408
 21
9.567220681886
  0
LINE
  8
EFKV.4a
  6
CONTINUOUS
 62
8
 10
4.4132129019408
 20
9.567220681886
 11
4.4123474796438
 21
9.5586620964069
  0
LINE
  8
EFKV.4a
  6
CONTINUOUS
 62
8
 10
4.4123474796438
 20
9.5586620964069
 11
4.4123474796438
 21
9.5499786068353
  0
LINE
  8
EFKV.4a
  6
CONTINUOUS
 62
8
 10
4.4123474796438
 20
9.5499786068353
 11
4.4132129019408
 21
9.5414200213562
  0
LINE
  8
EFKV.4a
  6
CONTINUOUS
 62
8
 10
4.4132129019408
 20
9.5414200213562
 11
4.414918849911
 21
9.5332325548913
  0
LINE
  8
EFKV.4a
  6
CONTINUOUS
 62
8
 10
4.414918849911
 20
9.5332325548913
 11
4.4174162465373
 21
9.5256517459438
  0
LINE
  8
EFKV.4a
  6
CONTINUOUS
 62
8
 10
4.4174162465373
 20
9.5256517459438
 11
4.4206332462658
 21
9.5188956805848
  0
LINE
  8
EFKV.4a
  6
CONTINUOUS
 62
8
 10
4.4206332462658
 20
9.5188956805848
 11
4.4244773018714
 21
9.5131587185141
  0
LINE
  8
EFKV.4a
  6
CONTINUOUS
 62
8
 10
4.4244773018714
 20
9.5131587185141
 11
4.4288378268732
 21
9.508605901685
  0
LINE
  8
EFKV.4a
  6
CONTINUOUS
 62
8
 10
4.4288378268732
 20
9.508605901685
 11
4.4335893769062
 21
9.5053682063485
  0
LINE
  8
EFKV.4a
  6
CONTINUOUS
 62
8
 10
4.4335893769062
 20
9.5053682063485
 11
4.438595258527
 21
9.5035387751045
  0
LINE
  8
EFKV.4a
  6
CONTINUOUS
 62
8
 10
4.438595258527
 20
9.5035387751045
 11
4.4437114616355
 21
9.5031702373592
  0
LINE
  8
EFKV.4a
  6
CONTINUOUS
 62
8
 10
4.4437114616355
 20
9.5031702373592
 11
4.4487908023834
 21
9.5042731952723
  0
LINE
  8
EFKV.4a
  6
CONTINUOUS
 62
8
 10
4.4487908023834
 20
9.5042731952723
 11
4.4536871573853
 21
9.506815918753
  0
LINE
  8
EFKV.4a
  6
CONTINUOUS
 62
8
 10
4.4536871573853
 20
9.506815918753
 11
4.4582596674225
 21
9.5107252582763
  0
LINE
  8
EFKV.4a
  6
CONTINUOUS
 62
8
 10
4.4582596674225
 20
9.5107252582763
 11
4.4623767897064
 21
9.5158887492616
  0
LINE
  8
EFKV.4a
  6
CONTINUOUS
 62
8
 10
4.4623767897064
 20
9.5158887492616
 11
4.465920082125
 21
9.5221578474746
  0
LINE
  8
EFKV.4a
  6
CONTINUOUS
 62
8
 10
4.465920082125
 20
9.5221578474746
 11
4.4687876106066
 21
9.5293522023738
  0
LINE
  8
EFKV.4a
  6
CONTINUOUS
 62
8
 10
4.4687876106066
 20
9.5293522023738
 11
4.4708968815777
 21
9.5372648454674
  0
LINE
  8
EFKV.4a
  6
CONTINUOUS
 62
8
 10
4.4708968815777
 20
9.5372648454674
 11
4.4721872151528
 21
9.5456681444202
  0
LINE
  8
EFKV.4a
  6
CONTINUOUS
 62
8
 10
4.4721872151528
 20
9.5456681444202
 11
4.4726214907842
 21
9.5543203516211
  0
LINE
  8
EFKV.4a
  6
CONTINUOUS
 62
8
 10
4.4696687348787
 20
9.556025126038
 11
4.4692344592473
 21
9.5646773332389
  0
LINE
  8
EFKV.4a
  6
CONTINUOUS
 62
8
 10
4.4692344592473
 20
9.5646773332389
 11
4.4679441256722
 21
9.5730806321917
  0
LINE
  8
EFKV.4a
  6
CONTINUOUS
 62
8
 10
4.4679441256722
 20
9.5730806321917
 11
4.4658348547011
 21
9.5809932752853
  0
LINE
  8
EFKV.4a
  6
CONTINUOUS
 62
8
 10
4.4658348547011
 20
9.5809932752853
 11
4.4629673262195
 21
9.5881876301845
  0
LINE
  8
EFKV.4a
  6
CONTINUOUS
 62
8
 10
4.4629673262195
 20
9.5881876301845
 11
4.4594240338009
 21
9.5944567283975
  0
LINE
  8
EFKV.4a
  6
CONTINUOUS
 62
8
 10
4.4594240338009
 20
9.5944567283975
 11
4.455306911517
 21
9.5996202193829
  0
LINE
  8
EFKV.4a
  6
CONTINUOUS
 62
8
 10
4.455306911517
 20
9.5996202193829
 11
4.4512790175612
 21
9.6030639308036
  0
LINE
  8
EFKV.4a
  6
CONTINUOUS
 62
8
 10
4.4316843385031
 20
9.5066900857473
 11
4.4356425026215
 21
9.5052435495214
  0
LINE
  8
EFKV.4a
  6
CONTINUOUS
 62
8
 10
4.4356425026215
 20
9.5052435495214
 11
4.44075870573
 21
9.5048750117761
  0
LINE
  8
EFKV.4a
  6
CONTINUOUS
 62
8
 10
4.44075870573
 20
9.5048750117761
 11
4.4458380464779
 21
9.5059779696892
  0
LINE
  8
EFKV.4a
  6
CONTINUOUS
 62
8
 10
4.4458380464779
 20
9.5059779696892
 11
4.4507344014797
 21
9.5085206931699
  0
LINE
  8
EFKV.4a
  6
CONTINUOUS
 62
8
 10
4.4507344014797
 20
9.5085206931699
 11
4.455306911517
 21
9.5124300326932
  0
LINE
  8
EFKV.4a
  6
CONTINUOUS
 62
8
 10
4.455306911517
 20
9.5124300326932
 11
4.4594240338009
 21
9.5175935236785
  0
LINE
  8
EFKV.4a
  6
CONTINUOUS
 62
8
 10
4.4594240338009
 20
9.5175935236785
 11
4.4629673262195
 21
9.5238626218915
  0
LINE
  8
EFKV.4a
  6
CONTINUOUS
 62
8
 10
4.4629673262195
 20
9.5238626218915
 11
4.4658348547011
 21
9.5310569767907
  0
LINE
  8
EFKV.4a
  6
CONTINUOUS
 62
8
 10
4.4658348547011
 20
9.5310569767907
 11
4.4679441256722
 21
9.5389696198843
  0
LINE
  8
EFKV.4a
  6
CONTINUOUS
 62
8
 10
4.4679441256722
 20
9.5389696198843
 11
4.4692344592473
 21
9.5473729188371
  0
LINE
  8
EFKV.4a
  6
CONTINUOUS
 62
8
 10
4.4692344592473
 20
9.5473729188371
 11
4.4696687348787
 21
9.556025126038
  0
LINE
  8
EFKV.4a
  6
CONTINUOUS
 62
8
 10
4.4667159789732
 20
9.5577299004549
 11
4.4662817033418
 21
9.5663821076558
  0
LINE
  8
EFKV.4a
  6
CONTINUOUS
 62
8
 10
4.4662817033418
 20
9.5663821076558
 11
4.4649913697667
 21
9.5747854066086
  0
LINE
  8
EFKV.4a
  6
CONTINUOUS
 62
8
 10
4.4649913697667
 20
9.5747854066086
 11
4.4628820987956
 21
9.5826980497022
  0
LINE
  8
EFKV.4a
  6
CONTINUOUS
 62
8
 10
4.4628820987956
 20
9.5826980497022
 11
4.460014570314
 21
9.5898924046014
  0
LINE
  8
EFKV.4a
  6
CONTINUOUS
 62
8
 10
4.460014570314
 20
9.5898924046014
 11
4.4564712778954
 21
9.5961615028144
  0
LINE
  8
EFKV.4a
  6
CONTINUOUS
 62
8
 10
4.4564712778954
 20
9.5961615028144
 11
4.4523541556114
 21
9.6013249937998
  0
LINE
  8
EFKV.4a
  6
CONTINUOUS
 62
8
 10
4.4523541556114
 20
9.6013249937998
 11
4.4488177681826
 21
9.6043484839687
  0
LINE
  8
EFKV.4a
  6
CONTINUOUS
 62
8
 10
4.4296242697468
 20
9.5080686219737
 11
4.432689746716
 21
9.5069483239383
  0
LINE
  8
EFKV.4a
  6
CONTINUOUS
 62
8
 10
4.432689746716
 20
9.5069483239383
 11
4.4378059498245
 21
9.506579786193
  0
LINE
  8
EFKV.4a
  6
CONTINUOUS
 62
8
 10
4.4378059498245
 20
9.506579786193
 11
4.4428852905724
 21
9.5076827441061
  0
LINE
  8
EFKV.4a
  6
CONTINUOUS
 62
8
 10
4.4428852905724
 20
9.5076827441061
 11
4.4477816455742
 21
9.5102254675868
  0
LINE
  8
EFKV.4a
  6
CONTINUOUS
 62
8
 10
4.4477816455742
 20
9.5102254675868
 11
4.4523541556114
 21
9.5141348071101
  0
LINE
  8
EFKV.4a
  6
CONTINUOUS
 62
8
 10
4.4523541556114
 20
9.5141348071101
 11
4.4564712778954
 21
9.5192982980954
  0
LINE
  8
EFKV.4a
  6
CONTINUOUS
 62
8
 10
4.4564712778954
 20
9.5192982980954
 11
4.460014570314
 21
9.5255673963084
  0
LINE
  8
EFKV.4a
  6
CONTINUOUS
 62
8
 10
4.460014570314
 20
9.5255673963084
 11
4.4628820987956
 21
9.5327617512076
  0
LINE
  8
EFKV.4a
  6
CONTINUOUS
 62
8
 10
4.4628820987956
 20
9.5327617512076
 11
4.4649913697667
 21
9.5406743943012
  0
LINE
  8
EFKV.4a
  6
CONTINUOUS
 62
8
 10
4.4649913697667
 20
9.5406743943012
 11
4.4662817033418
 21
9.549077693254
  0
LINE
  8
EFKV.4a
  6
CONTINUOUS
 62
8
 10
4.4662817033418
 20
9.549077693254
 11
4.4667159789732
 21
9.5577299004549
  0
LINE
  8
EFKV.4a
  6
CONTINUOUS
 62
8
 10
4.4637632230677
 20
9.5594346748718
 11
4.4633289474363
 21
9.5680868820727
  0
LINE
  8
EFKV.4a
  6
CONTINUOUS
 62
8
 10
4.4633289474363
 20
9.5680868820727
 11
4.4620386138612
 21
9.5764901810255
  0
LINE
  8
EFKV.4a
  6
CONTINUOUS
 62
8
 10
4.4620386138612
 20
9.5764901810255
 11
4.4599293428901
 21
9.5844028241191
  0
LINE
  8
EFKV.4a
  6
CONTINUOUS
 62
8
 10
4.4599293428901
 20
9.5844028241191
 11
4.4570618144085
 21
9.5915971790183
  0
LINE
  8
EFKV.4a
  6
CONTINUOUS
 62
8
 10
4.4570618144085
 20
9.5915971790183
 11
4.4535185219899
 21
9.5978662772313
  0
LINE
  8
EFKV.4a
  6
CONTINUOUS
 62
8
 10
4.4535185219899
 20
9.5978662772313
 11
4.4494013997059
 21
9.6030297682167
  0
LINE
  8
EFKV.4a
  6
CONTINUOUS
 62
8
 10
4.4297369908104
 20
9.5086530983552
 11
4.434853193919
 21
9.5082845606099
  0
LINE
  8
EFKV.4a
  6
CONTINUOUS
 62
8
 10
4.434853193919
 20
9.5082845606099
 11
4.4399325346669
 21
9.509387518523
  0
LINE
  8
EFKV.4a
  6
CONTINUOUS
 62
8
 10
4.4399325346669
 20
9.509387518523
 11
4.4448288896687
 21
9.5119302420037
  0
LINE
  8
EFKV.4a
  6
CONTINUOUS
 62
8
 10
4.4448288896687
 20
9.5119302420037
 11
4.4494013997059
 21
9.515839581527
  0
LINE
  8
EFKV.4a
  6
CONTINUOUS
 62
8
 10
4.4494013997059
 20
9.515839581527
 11
4.4535185219899
 21
9.5210030725123
  0
LINE
  8
EFKV.4a
  6
CONTINUOUS
 62
8
 10
4.4535185219899
 20
9.5210030725123
 11
4.4570618144085
 21
9.5272721707253
  0
LINE
  8
EFKV.4a
  6
CONTINUOUS
 62
8
 10
4.4570618144085
 20
9.5272721707253
 11
4.4599293428901
 21
9.5344665256245
  0
LINE
  8
EFKV.4a
  6
CONTINUOUS
 62
8
 10
4.4599293428901
 20
9.5344665256245
 11
4.4620386138612
 21
9.5423791687181
  0
LINE
  8
EFKV.4a
  6
CONTINUOUS
 62
8
 10
4.4620386138612
 20
9.5423791687181
 11
4.4633289474363
 21
9.5507824676709
  0
LINE
  8
EFKV.4a
  6
CONTINUOUS
 62
8
 10
4.4633289474363
 20
9.5507824676709
 11
4.4637632230677
 21
9.5594346748718
  0
LINE
  8
EFKV.4a
  6
CONTINUOUS
 62
8
 10
4.4282714274784
 20
9.5091886977866
 11
4.4297369908104
 21
9.5086530983552
  0
LINE
  8
EFKV.4a
  6
CONTINUOUS
 62
8
 10
4.4494013997059
 20
9.6030297682167
 11
4.4475003759315
 21
9.6046550784544
  0
LINE
  8
EFKV.4a
  6
CONTINUOUS
 62
8
 10
4.4437114616355
 20
9.6054704658831
 11
4.4437114616355
 21
9.5031702373592
  0
LINE
  8
EFKV.4a
  6
CONTINUOUS
 62
8
 10
3.798516754424
 20
9.9899093605036
 11
4.1753503927751
 21
9.7723443579619
  0
LINE
  8
EFKV.4a
  6
CONTINUOUS
 62
8
 10
3.798516754424
 20
9.9990014907271
 11
4.1832244085231
 21
9.7768904230736
  0
LINE
  8
EFKV.4a
  6
CONTINUOUS
 62
8
 10
3.798516754424
 20
10.008093620951
 11
3.8991196841137
 21
9.9500104924129
  0
LINE
  8
EFKV.4a
  6
CONTINUOUS
 62
8
 10
3.798516754424
 20
10.017185751174
 11
3.8991196841137
 21
9.9591026226364
  0
LINE
  8
EFKV.4a
  6
CONTINUOUS
 62
8
 10
4.5255045213344
 20
10.293469686352
 11
3.9227417313578
 21
9.9454644273012
  0
LINE
  8
EFKV.4a
  6
CONTINUOUS
 62
8
 10
4.5176305055863
 20
10.298015751463
 11
3.9069936998617
 21
9.9454644273012
  0
LINE
  8
EFKV.4a
  6
CONTINUOUS
 62
8
 10
4.5097564898383
 20
10.302561816575
 11
3.8991196841137
 21
9.9500104924129
  0
LINE
  8
EFKV.4a
  6
CONTINUOUS
 62
8
 10
4.5018824740903
 20
10.307107881687
 11
3.8991196841137
 21
9.9591026226364
  0
LINE
  8
EFKV.4a
  6
CONTINUOUS
 62
8
 10
3.9069936998617
 20
9.9454644273012
 11
4.1910984242712
 21
9.7814364881853
  0
LINE
  8
EFKV.4a
  6
CONTINUOUS
 62
8
 10
3.9227417313578
 20
9.9454644273012
 11
4.1989724400192
 21
9.7859825532971
  0
LINE
  8
EFKV.4a
  6
CONTINUOUS
 62
8
 10
4.659991570266
 20
8.7792839673655
 11
3.8005491403193
 21
9.2754832856481
  0
LINE
  8
EFKV.4a
  6
CONTINUOUS
 62
8
 10
3.7603664662257
 20
9.4130986136311
 11
3.798516754424
 21
9.4512489018294
  0
LINE
  8
EFKV.4a
  6
CONTINUOUS
 62
8
 10
3.7603664662257
 20
9.4409374632841
 11
3.798516754424
 21
9.4790877514824
  0
LINE
  8
EFKV.4a
  6
CONTINUOUS
 62
8
 10
3.7603664662257
 20
9.4687763129371
 11
3.798516754424
 21
9.5069266011354
  0
LINE
  8
EFKV.4a
  6
CONTINUOUS
 62
8
 10
3.7603664662257
 20
9.4966151625901
 11
3.798516754424
 21
9.5347654507884
  0
LINE
  8
EFKV.4a
  6
CONTINUOUS
 62
8
 10
3.7603664662257
 20
9.5244540122431
 11
3.798516754424
 21
9.5626043004414
  0
LINE
  8
EFKV.4a
  6
CONTINUOUS
 62
8
 10
3.7603664662257
 20
9.5522928618961
 11
3.798516754424
 21
9.5904431500945
  0
LINE
  8
EFKV.4a
  6
CONTINUOUS
 62
8
 10
3.7603664662257
 20
9.5801317115491
 11
3.798516754424
 21
9.6182819997475
  0
LINE
  8
EFKV.4a
  6
CONTINUOUS
 62
8
 10
3.7603664662257
 20
9.6079705612022
 11
3.798516754424
 21
9.6461208494005
  0
LINE
  8
EFKV.4a
  6
CONTINUOUS
 62
8
 10
3.7603664662257
 20
9.8028425087733
 11
3.798516754424
 21
9.8409927969716
  0
LINE
  8
EFKV.4a
  6
CONTINUOUS
 62
8
 10
3.7603664662257
 20
9.8306813584263
 11
3.798516754424
 21
9.8688316466246
  0
LINE
  8
EFKV.4a
  6
CONTINUOUS
 62
8
 10
3.7603664662257
 20
9.7750036591202
 11
3.798516754424
 21
9.8131539473186
  0
LINE
  8
EFKV.4a
  6
CONTINUOUS
 62
8
 10
3.7603664662257
 20
9.7471648094672
 11
3.798516754424
 21
9.7853150976656
  0
LINE
  8
EFKV.4a
  6
CONTINUOUS
 62
8
 10
3.7603664662257
 20
9.7193259598142
 11
3.798516754424
 21
9.7574762480125
  0
LINE
  8
EFKV.4a
  6
CONTINUOUS
 62
8
 10
3.7603664662257
 20
9.6914871101612
 11
3.798516754424
 21
9.7296373983595
  0
LINE
  8
EFKV.4a
  6
CONTINUOUS
 62
8
 10
3.7603664662257
 20
9.6636482605082
 11
3.798516754424
 21
9.7017985487065
  0
LINE
  8
EFKV.4a
  6
CONTINUOUS
 62
8
 10
3.7603664662257
 20
9.6358094108552
 11
3.798516754424
 21
9.6739596990535
  0
LINE
  8
EFKV.4a
  6
CONTINUOUS
 62
8
 10
3.7603664662257
 20
10.025553305997
 11
3.798516754424
 21
10.063703594196
  0
LINE
  8
EFKV.4a
  6
CONTINUOUS
 62
8
 10
3.7603664662257
 20
10.05339215565
 11
3.798516754424
 21
10.091542443849
  0
LINE
  8
EFKV.4a
  6
CONTINUOUS
 62
8
 10
3.7603664662257
 20
9.9977144563444
 11
3.798516754424
 21
10.035864744543
  0
LINE
  8
EFKV.4a
  6
CONTINUOUS
 62
8
 10
3.7603664662257
 20
9.9698756066913
 11
3.798516754424
 21
10.00802589489
  0
LINE
  8
EFKV.4a
  6
CONTINUOUS
 62
8
 10
3.7603664662257
 20
9.9420367570383
 11
3.798516754424
 21
9.9801870452366
  0
LINE
  8
EFKV.4a
  6
CONTINUOUS
 62
8
 10
3.7603664662257
 20
9.9141979073853
 11
3.798516754424
 21
9.9523481955836
  0
LINE
  8
EFKV.4a
  6
CONTINUOUS
 62
8
 10
3.7603664662257
 20
9.8863590577323
 11
3.798516754424
 21
9.9245093459306
  0
LINE
  8
EFKV.4a
  6
CONTINUOUS
 62
8
 10
3.7603664662257
 20
9.8585202080793
 11
3.798516754424
 21
9.8966704962776
  0
LINE
  8
EFKV.4a
  6
CONTINUOUS
 62
8
 10
3.7603664662257
 20
10.248264103221
 11
3.798516754424
 21
10.28641439142
  0
LINE
  8
EFKV.4a
  6
CONTINUOUS
 62
8
 10
3.7603664662257
 20
10.276102952874
 11
3.798516754424
 21
10.314253241073
  0
LINE
  8
EFKV.4a
  6
CONTINUOUS
 62
8
 10
3.7603664662257
 20
10.220425253568
 11
3.798516754424
 21
10.258575541767
  0
LINE
  8
EFKV.4a
  6
CONTINUOUS
 62
8
 10
3.7603664662257
 20
10.192586403915
 11
3.798516754424
 21
10.230736692114
  0
LINE
  8
EFKV.4a
  6
CONTINUOUS
 62
8
 10
3.7603664662257
 20
10.164747554262
 11
3.798516754424
 21
10.202897842461
  0
LINE
  8
EFKV.4a
  6
CONTINUOUS
 62
8
 10
3.7603664662257
 20
10.136908704609
 11
3.798516754424
 21
10.175058992808
  0
LINE
  8
EFKV.4a
  6
CONTINUOUS
 62
8
 10
3.7603664662257
 20
10.109069854956
 11
3.798516754424
 21
10.147220143155
  0
LINE
  8
EFKV.4a
  6
CONTINUOUS
 62
8
 10
3.7603664662257
 20
10.081231005303
 11
3.798516754424
 21
10.119381293502
  0
LINE
  8
EFKV.4a
  6
CONTINUOUS
 62
8
 10
3.7603664662257
 20
10.331780652181
 11
3.782672931017
 21
10.354087116972
  0
LINE
  8
EFKV.4a
  6
CONTINUOUS
 62
8
 10
3.7603664662257
 20
10.303941802528
 11
3.798516754424
 21
10.342092090726
  0
LINE
  8
EFKV.4a
  6
CONTINUOUS
 62
8
 10
3.6897358630667
 20
9.3723200158842
 11
3.727886151265
 21
9.4104703040825
  0
LINE
  8
EFKV.4a
  6
CONTINUOUS
 62
8
 10
3.6897358630667
 20
9.4001588655372
 11
3.727886151265
 21
9.4383091537356
  0
LINE
  8
EFKV.4a
  6
CONTINUOUS
 62
8
 10
3.6897358630667
 20
9.4279977151903
 11
3.727886151265
 21
9.4661480033886
  0
LINE
  8
EFKV.4a
  6
CONTINUOUS
 62
8
 10
3.6897358630667
 20
9.4558365648433
 11
3.727886151265
 21
9.4939868530416
  0
LINE
  8
EFKV.4a
  6
CONTINUOUS
 62
8
 10
3.6897358630667
 20
9.4836754144963
 11
3.727886151265
 21
9.5218257026946
  0
LINE
  8
EFKV.4a
  6
CONTINUOUS
 62
8
 10
3.6897358630667
 20
9.5115142641493
 11
3.727886151265
 21
9.5496645523476
  0
LINE
  8
EFKV.4a
  6
CONTINUOUS
 62
8
 10
3.6897358630667
 20
9.5393531138023
 11
3.727886151265
 21
9.5775034020006
  0
LINE
  8
EFKV.4a
  6
CONTINUOUS
 62
8
 10
3.6897358630667
 20
9.5671919634553
 11
3.727886151265
 21
9.6053422516536
  0
LINE
  8
EFKV.4a
  6
CONTINUOUS
 62
8
 10
3.6897358630667
 20
9.7620639110264
 11
3.727886151265
 21
9.8002141992247
  0
LINE
  8
EFKV.4a
  6
CONTINUOUS
 62
8
 10
3.6897358630667
 20
9.7899027606794
 11
3.727886151265
 21
9.8280530488778
  0
LINE
  8
EFKV.4a
  6
CONTINUOUS
 62
8
 10
3.6897358630667
 20
9.7342250613734
 11
3.727886151265
 21
9.7723753495717
  0
LINE
  8
EFKV.4a
  6
CONTINUOUS
 62
8
 10
3.6897358630667
 20
9.7063862117204
 11
3.727886151265
 21
9.7445364999187
  0
LINE
  8
EFKV.4a
  6
CONTINUOUS
 62
8
 10
3.6897358630667
 20
9.6785473620674
 11
3.727886151265
 21
9.7166976502657
  0
LINE
  8
EFKV.4a
  6
CONTINUOUS
 62
8
 10
3.6897358630667
 20
9.6507085124144
 11
3.727886151265
 21
9.6888588006127
  0
LINE
  8
EFKV.4a
  6
CONTINUOUS
 62
8
 10
3.6897358630667
 20
9.6228696627613
 11
3.727886151265
 21
9.6610199509597
  0
LINE
  8
EFKV.4a
  6
CONTINUOUS
 62
8
 10
3.6897358630667
 20
9.5950308131083
 11
3.727886151265
 21
9.6331811013067
  0
LINE
  8
EFKV.4a
  6
CONTINUOUS
 62
8
 10
3.6897358630667
 20
9.8734193096385
 11
3.727886151265
 21
9.9115695978368
  0
LINE
  8
EFKV.4a
  6
CONTINUOUS
 62
8
 10
3.6897358630667
 20
9.8455804599855
 11
3.727886151265
 21
9.8837307481838
  0
LINE
  8
EFKV.4a
  6
CONTINUOUS
 62
8
 10
3.6897358630667
 20
9.8177416103324
 11
3.727886151265
 21
9.8558918985308
  0
LINE
  8
EFKV.4a
  6
CONTINUOUS
 62
8
 10
3.6897358630667
 20
9.9012581592915
 11
3.727886151265
 21
9.9394084474898
  0
LINE
  8
EFKV.4a
  6
CONTINUOUS
 62
8
 10
3.6897358630667
 20
9.9290970089445
 11
3.727886151265
 21
9.9672472971428
  0
LINE
  8
EFKV.4a
  6
CONTINUOUS
 62
8
 10
3.6897358630667
 20
9.9569358585975
 11
3.727886151265
 21
9.9950861467958
  0
LINE
  8
EFKV.4a
  6
CONTINUOUS
 62
8
 10
3.6897358630667
 20
9.9847747082505
 11
3.727886151265
 21
10.022924996449
  0
LINE
  8
EFKV.4a
  6
CONTINUOUS
 62
8
 10
3.6897358630667
 20
10.012613557904
 11
3.727886151265
 21
10.050763846102
  0
LINE
  8
EFKV.4a
  6
CONTINUOUS
 62
8
 10
3.6897358630667
 20
10.040452407557
 11
3.727886151265
 21
10.078602695755
  0
LINE
  8
EFKV.4a
  6
CONTINUOUS
 62
8
 10
3.6897358630667
 20
10.06829125721
 11
3.727886151265
 21
10.106441545408
  0
LINE
  8
EFKV.4a
  6
CONTINUOUS
 62
8
 10
3.6897358630667
 20
10.096130106863
 11
3.727886151265
 21
10.134280395061
  0
LINE
  8
EFKV.4a
  6
CONTINUOUS
 62
8
 10
3.6897358630667
 20
10.291002054434
 11
3.727886151265
 21
10.329152342632
  0
LINE
  8
EFKV.4a
  6
CONTINUOUS
 62
8
 10
3.6897358630667
 20
10.318840904087
 11
3.7249820759519
 21
10.354087116972
  0
LINE
  8
EFKV.4a
  6
CONTINUOUS
 62
8
 10
3.6897358630667
 20
10.263163204781
 11
3.727886151265
 21
10.301313492979
  0
LINE
  8
EFKV.4a
  6
CONTINUOUS
 62
8
 10
3.6897358630667
 20
10.235324355128
 11
3.727886151265
 21
10.273474643326
  0
LINE
  8
EFKV.4a
  6
CONTINUOUS
 62
8
 10
3.6897358630667
 20
10.207485505475
 11
3.727886151265
 21
10.245635793673
  0
LINE
  8
EFKV.4a
  6
CONTINUOUS
 62
8
 10
3.6897358630667
 20
10.179646655822
 11
3.727886151265
 21
10.21779694402
  0
LINE
  8
EFKV.4a
  6
CONTINUOUS
 62
8
 10
3.6897358630667
 20
10.151807806169
 11
3.727886151265
 21
10.189958094367
  0
LINE
  8
EFKV.4a
  6
CONTINUOUS
 62
8
 10
3.6897358630667
 20
10.123968956516
 11
3.727886151265
 21
10.162119244714
  0
LINE
  8
EFKV.4a
  6
CONTINUOUS
 62
8
 10
3.6897358630667
 20
10.34667975374
 11
3.6971432262988
 21
10.354087116972
  0
LINE
  8
EFKV.4a
  6
CONTINUOUS
 62
8
 10
3.7603664662257
 20
9.5060275773924
 11
3.727886151265
 21
9.5385078923531
  0
LINE
  8
EFKV.4a
  6
CONTINUOUS
 62
8
 10
3.7603664662257
 20
9.5338664270455
 11
3.727886151265
 21
9.5663467420061
  0
LINE
  8
EFKV.4a
  6
CONTINUOUS
 62
8
 10
3.7603664662257
 20
9.5617052766985
 11
3.727886151265
 21
9.5941855916591
  0
LINE
  8
EFKV.4a
  6
CONTINUOUS
 62
8
 10
3.7603664662257
 20
9.5895441263515
 11
3.727886151265
 21
9.6220244413121
  0
LINE
  8
EFKV.4a
  6
CONTINUOUS
 62
8
 10
3.7603664662257
 20
9.6173829760045
 11
3.727886151265
 21
9.6498632909651
  0
LINE
  8
EFKV.4a
  6
CONTINUOUS
 62
8
 10
3.7603664662257
 20
9.6452218256575
 11
3.727886151265
 21
9.6777021406181
  0
LINE
  8
EFKV.4a
  6
CONTINUOUS
 62
8
 10
3.7603664662257
 20
9.6730606753105
 11
3.727886151265
 21
9.7055409902712
  0
LINE
  8
EFKV.4a
  6
CONTINUOUS
 62
8
 10
3.7603664662257
 20
9.7008995249635
 11
3.727886151265
 21
9.7333798399242
  0
LINE
  8
EFKV.4a
  6
CONTINUOUS
 62
8
 10
3.7603664662257
 20
9.8957714725346
 11
3.727886151265
 21
9.9282517874953
  0
LINE
  8
EFKV.4a
  6
CONTINUOUS
 62
8
 10
3.7603664662257
 20
9.9236103221876
 11
3.727886151265
 21
9.9560906371483
  0
LINE
  8
EFKV.4a
  6
CONTINUOUS
 62
8
 10
3.7603664662257
 20
9.8679326228816
 11
3.727886151265
 21
9.9004129378423
  0
LINE
  8
EFKV.4a
  6
CONTINUOUS
 62
8
 10
3.7603664662257
 20
9.8400937732286
 11
3.727886151265
 21
9.8725740881892
  0
LINE
  8
EFKV.4a
  6
CONTINUOUS
 62
8
 10
3.7603664662257
 20
9.8122549235756
 11
3.727886151265
 21
9.8447352385362
  0
LINE
  8
EFKV.4a
  6
CONTINUOUS
 62
8
 10
3.7603664662257
 20
9.7844160739226
 11
3.727886151265
 21
9.8168963888832
  0
LINE
  8
EFKV.4a
  6
CONTINUOUS
 62
8
 10
3.7603664662257
 20
9.7565772242696
 11
3.727886151265
 21
9.7890575392302
  0
LINE
  8
EFKV.4a
  6
CONTINUOUS
 62
8
 10
3.7603664662257
 20
9.7287383746165
 11
3.727886151265
 21
9.7612186895772
  0
LINE
  8
EFKV.4a
  6
CONTINUOUS
 62
8
 10
3.7603664662257
 20
10.007126871147
 11
3.727886151265
 21
10.039607186107
  0
LINE
  8
EFKV.4a
  6
CONTINUOUS
 62
8
 10
3.7603664662257
 20
9.9792880214937
 11
3.727886151265
 21
10.011768336454
  0
LINE
  8
EFKV.4a
  6
CONTINUOUS
 62
8
 10
3.7603664662257
 20
9.9514491718407
 11
3.727886151265
 21
9.9839294868013
  0
LINE
  8
EFKV.4a
  6
CONTINUOUS
 62
8
 10
3.7005003179648
 20
8.7792839673655
 11
3.727886151265
 21
8.8066698006658
  0
LINE
  8
EFKV.4a
  6
CONTINUOUS
 62
8
 10
3.6897358630667
 20
8.7963583621205
 11
3.727886151265
 21
8.8345086503188
  0
LINE
  8
EFKV.4a
  6
CONTINUOUS
 62
8
 10
3.6897358630667
 20
8.8241972117735
 11
3.727886151265
 21
8.8623474999718
  0
LINE
  8
EFKV.4a
  6
CONTINUOUS
 62
8
 10
3.6897358630667
 20
8.8520360614265
 11
3.727886151265
 21
8.8901863496248
  0
LINE
  8
EFKV.4a
  6
CONTINUOUS
 62
8
 10
3.6897358630667
 20
8.8798749110795
 11
3.727886151265
 21
8.9180251992778
  0
LINE
  8
EFKV.4a
  6
CONTINUOUS
 62
8
 10
3.6897358630667
 20
8.9077137607325
 11
3.727886151265
 21
8.9458640489308
  0
LINE
  8
EFKV.4a
  6
CONTINUOUS
 62
8
 10
3.6897358630667
 20
8.9355526103855
 11
3.727886151265
 21
8.9737028985839
  0
LINE
  8
EFKV.4a
  6
CONTINUOUS
 62
8
 10
3.6897358630667
 20
9.1304245579566
 11
3.727886151265
 21
9.1685748461549
  0
LINE
  8
EFKV.4a
  6
CONTINUOUS
 62
8
 10
3.6897358630667
 20
9.1582634076096
 11
3.727886151265
 21
9.196413695808
  0
LINE
  8
EFKV.4a
  6
CONTINUOUS
 62
8
 10
3.6897358630667
 20
9.1025857083036
 11
3.727886151265
 21
9.1407359965019
  0
LINE
  8
EFKV.4a
  6
CONTINUOUS
 62
8
 10
3.6897358630667
 20
9.0747468586506
 11
3.727886151265
 21
9.1128971468489
  0
LINE
  8
EFKV.4a
  6
CONTINUOUS
 62
8
 10
3.6897358630667
 20
9.0469080089976
 11
3.727886151265
 21
9.0850582971959
  0
LINE
  8
EFKV.4a
  6
CONTINUOUS
 62
8
 10
3.6897358630667
 20
9.0190691593446
 11
3.727886151265
 21
9.0572194475429
  0
LINE
  8
EFKV.4a
  6
CONTINUOUS
 62
8
 10
3.6897358630667
 20
8.9912303096916
 11
3.727886151265
 21
9.0293805978899
  0
LINE
  8
EFKV.4a
  6
CONTINUOUS
 62
8
 10
3.6897358630667
 20
8.9633914600385
 11
3.727886151265
 21
9.0015417482369
  0
LINE
  8
EFKV.4a
  6
CONTINUOUS
 62
8
 10
3.6897358630667
 20
9.2417799565687
 11
3.727886151265
 21
9.279930244767
  0
LINE
  8
EFKV.4a
  6
CONTINUOUS
 62
8
 10
3.6897358630667
 20
9.2139411069157
 11
3.727886151265
 21
9.252091395114
  0
LINE
  8
EFKV.4a
  6
CONTINUOUS
 62
8
 10
3.6897358630667
 20
9.1861022572627
 11
3.727886151265
 21
9.224252545461
  0
LINE
  8
EFKV.4a
  6
CONTINUOUS
 62
8
 10
3.7603664662257
 20
9.2825585543155
 11
3.798516754424
 21
9.3207088425138
  0
LINE
  8
EFKV.4a
  6
CONTINUOUS
 62
8
 10
3.7603664662257
 20
9.2547197046625
 11
3.798516754424
 21
9.2928699928608
  0
LINE
  8
EFKV.4a
  6
CONTINUOUS
 62
8
 10
3.7603664662257
 20
9.4781887277394
 11
3.727886151265
 21
9.5106690427001
  0
LINE
  8
EFKV.4a
  6
CONTINUOUS
 62
8
 10
3.7603664662257
 20
10.0349657208
 11
3.727886151265
 21
10.06744603576
  0
LINE
  8
EFKV.4a
  6
CONTINUOUS
 62
8
 10
3.7603664662257
 20
10.062804570453
 11
3.727886151265
 21
10.095284885413
  0
LINE
  8
EFKV.4a
  6
CONTINUOUS
 62
8
 10
3.7603664662257
 20
10.090643420106
 11
3.727886151265
 21
10.123123735066
  0
LINE
  8
EFKV.4a
  6
CONTINUOUS
 62
8
 10
3.7603664662257
 20
10.118482269759
 11
3.727886151265
 21
10.150962584719
  0
LINE
  8
EFKV.4a
  6
CONTINUOUS
 62
8
 10
3.7603664662257
 20
10.146321119412
 11
3.727886151265
 21
10.178801434372
  0
LINE
  8
EFKV.4a
  6
CONTINUOUS
 62
8
 10
3.7603664662257
 20
10.174159969065
 11
3.727886151265
 21
10.206640284025
  0
LINE
  8
EFKV.4a
  6
CONTINUOUS
 62
8
 10
3.7603664662257
 20
10.201998818718
 11
3.727886151265
 21
10.234479133678
  0
LINE
  8
EFKV.4a
  6
CONTINUOUS
 62
8
 10
3.7603664662257
 20
10.229837668371
 11
3.727886151265
 21
10.262317983331
  0
LINE
  8
EFKV.4a
  6
CONTINUOUS
 62
8
 10
3.7603664662257
 20
10.257676518024
 11
3.727886151265
 21
10.290156832984
  0
LINE
  8
EFKV.4a
  6
CONTINUOUS
 62
8
 10
3.7603664662257
 20
10.285515367677
 11
3.727886151265
 21
10.317995682637
  0
LINE
  8
EFKV.4a
  6
CONTINUOUS
 62
8
 10
3.7603664662257
 20
10.31335421733
 11
3.727886151265
 21
10.34583453229
  0
LINE
  8
EFKV.4a
  6
CONTINUOUS
 62
8
 10
3.7603664662257
 20
10.341193066983
 11
3.7474724162367
 21
10.354087116972
  0
LINE
  8
EFKV.4a
  6
CONTINUOUS
 62
8
 10
3.7603664662257
 20
9.3852597639781
 11
3.798516754424
 21
9.4234100521764
  0
LINE
  8
EFKV.4a
  6
CONTINUOUS
 62
8
 10
3.7603664662257
 20
9.4225110284334
 11
3.727886151265
 21
9.454991343394
  0
LINE
  8
EFKV.4a
  6
CONTINUOUS
 62
8
 10
3.7603664662257
 20
9.4503498780864
 11
3.727886151265
 21
9.482830193047
  0
LINE
  8
EFKV.4a
  6
CONTINUOUS
 62
8
 10
3.7486845746315
 20
9.3785152207215
 11
3.727886151265
 21
9.399313644088
  0
LINE
  8
EFKV.4a
  6
CONTINUOUS
 62
8
 10
3.7603664662257
 20
9.3946721787804
 11
3.727886151265
 21
9.427152493741
  0
LINE
  8
EFKV.4a
  6
CONTINUOUS
 62
8
 10
3.6897358630667
 20
9.3444811662312
 11
3.727886151265
 21
9.3826314544295
  0
LINE
  8
EFKV.4a
  6
CONTINUOUS
 62
8
 10
3.7502288712704
 20
9.2464308647671
 11
3.727886151265
 21
9.2687735847725
  0
LINE
  8
EFKV.4a
  6
CONTINUOUS
 62
8
 10
3.7325797478025
 20
9.2362411385819
 11
3.727886151265
 21
9.2409347351194
  0
LINE
  8
EFKV.4a
  6
CONTINUOUS
 62
8
 10
3.7603664662257
 20
9.2641321194648
 11
3.7384622357178
 21
9.2860363499728
  0
LINE
  8
EFKV.4a
  6
CONTINUOUS
 62
8
 10
3.4928854693659
 20
9.7535223807266
 11
3.4928854693659
 21
9.6172678048667
  0
POLYLINE
  8
EFKV.4a
  6
CONTINUOUS
 62
8
 70
1
 66
1
  0
VERTEX
  8
EFKV.4a
  6
CONTINUOUS
 62
8
 10
3.5482496425943
 20
9.6165620804752
  0
VERTEX
  8
EFKV.4a
  6
CONTINUOUS
 62
8
 10
3.5528553095178
 20
9.6252379665674
  0
VERTEX
  8
EFKV.4a
  6
CONTINUOUS
 62
8
 10
3.5557357533269
 20
9.6356456419064
  0
VERTEX
  8
EFKV.4a
  6
CONTINUOUS
 62
8
 10
3.5568081088977
 20
9.6474856966219
  0
VERTEX
  8
EFKV.4a
  6
CONTINUOUS
 62
8
 10
3.5560415265129
 20
9.6604175138969
  0
VERTEX
  8
EFKV.4a
  6
CONTINUOUS
 62
8
 10
3.5534580593518
 20
9.6740690688932
  0
VERTEX
  8
EFKV.4a
  6
CONTINUOUS
 62
8
 10
3.5491320290611
 20
9.688047631229
  0
VERTEX
  8
EFKV.4a
  6
CONTINUOUS
 62
8
 10
3.5431878876559
 20
9.7019510631165
  0
VERTEX
  8
EFKV.4a
  6
CONTINUOUS
 62
8
 10
3.5357966372618
 20
9.7153793881343
  0
VERTEX
  8
EFKV.4a
  6
CONTINUOUS
 62
8
 10
3.5271709106955
 20
9.7279462978204
  0
VERTEX
  8
EFKV.4a
  6
CONTINUOUS
 62
8
 10
3.5175588544055
 20
9.7392902650638
  0
VERTEX
  8
EFKV.4a
  6
CONTINUOUS
 62
8
 10
3.5072369897506
 20
9.7490849445807
  0
VERTEX
  8
EFKV.4a
  6
CONTINUOUS
 62
8
 10
3.4965022579841
 20
9.7570485612746
  0
VERTEX
  8
EFKV.4a
  6
CONTINUOUS
 62
8
 10
3.485663477794
 20
9.7629520163925
  0
VERTEX
  8
EFKV.4a
  6
CONTINUOUS
 62
8
 10
3.4750324611524
 20
9.766625478279
  0
VERTEX
  8
EFKV.4a
  6
CONTINUOUS
 62
8
 10
3.4649150430523
 20
9.767963268124
  0
VERTEX
  8
EFKV.4a
  6
CONTINUOUS
 62
8
 10
3.4556022831915
 20
9.7669269001493
  0
VERTEX
  8
EFKV.4a
  6
CONTINUOUS
 62
8
 10
3.4473620927157
 20
9.7635461887746
  0
VERTEX
  8
EFKV.4a
  6
CONTINUOUS
 62
8
 10
3.4404315269019
 20
9.757918390911
  0
VERTEX
  8
EFKV.4a
  6
CONTINUOUS
 62
8
 10
3.4350099655101
 20
9.7502054080564
  0
VERTEX
  8
EFKV.4a
  6
CONTINUOUS
 62
8
 10
3.4312533769906
 20
9.7406291286847
  0
VERTEX
  8
EFKV.4a
  6
CONTINUOUS
 62
8
 10
3.4292698315555
 20
9.7294650449177
  0
VERTEX
  8
EFKV.4a
  6
CONTINUOUS
 62
8
 10
3.4291163921954
 20
9.7170343271192
  0
VERTEX
  8
EFKV.4a
  6
CONTINUOUS
 62
8
 10
3.4307974730815
 20
9.7036945844076
  0
VERTEX
  8
EFKV.4a
  6
CONTINUOUS
 62
8
 10
3.4342647125774
 20
9.6898295768931
  0
VERTEX
  8
EFKV.4a
  6
CONTINUOUS
 62
8
 10
3.4394183645155
 20
9.675838175598
  0
VERTEX
  8
EFKV.4a
  6
CONTINUOUS
 62
8
 10
3.4461101677129
 20
9.6621228876634
  0
VERTEX
  8
EFKV.4a
  6
CONTINUOUS
 62
8
 10
3.4541476111753
 20
9.6490782769519
  0
VERTEX
  8
EFKV.4a
  6
CONTINUOUS
 62
8
 10
3.4632994722879
 20
9.6370796131634
  0
VERTEX
  8
EFKV.4a
  6
CONTINUOUS
 62
8
 10
3.4733024686694
 20
9.6264720760091
  0
VERTEX
  8
EFKV.4a
  6
CONTINUOUS
 62
8
 10
3.4838688323263
 20
9.6175608250199
  0
VERTEX
  8
EFKV.4a
  6
CONTINUOUS
 62
8
 10
3.4946945882142
 20
9.6106022206621
  0
VERTEX
  8
EFKV.4a
  6
CONTINUOUS
 62
8
 10
3.5054682990467
 20
9.6057964493135
  0
VERTEX
  8
EFKV.4a
  6
CONTINUOUS
 62
8
 10
3.5158800247789
 20
9.6032817642661
  0
VERTEX
  8
EFKV.4a
  6
CONTINUOUS
 62
8
 10
3.5256302390178
 20
9.60313050843
  0
VERTEX
  8
EFKV.4a
  6
CONTINUOUS
 62
8
 10
3.5344384458522
 20
9.6053470331605
  0
VERTEX
  8
EFKV.4a
  6
CONTINUOUS
 62
8
 10
3.5420512492083
 20
9.6098675730765
  0
VERTEX
  8
EFKV.4a
  6
CONTINUOUS
 62
8
 10
3.5482496425943
 20
9.6165620804752
  0
SEQEND
  0
POLYLINE
  8
EFKV.4a
  6
CONTINUOUS
 62
8
 70
1
 66
1
  0
VERTEX
  8
EFKV.4a
  6
CONTINUOUS
 62
8
 10
3.5441143191528
 20
9.6217064928716
  0
VERTEX
  8
EFKV.4a
  6
CONTINUOUS
 62
8
 10
3.5483759743936
 20
9.6297343498678
  0
VERTEX
  8
EFKV.4a
  6
CONTINUOUS
 62
8
 10
3.5510412688361
 20
9.6393646433497
  0
VERTEX
  8
EFKV.4a
  6
CONTINUOUS
 62
8
 10
3.5520335268118
 20
9.6503203273077
  0
VERTEX
  8
EFKV.4a
  6
CONTINUOUS
 62
8
 10
3.5513242028654
 20
9.6622862266614
  0
VERTEX
  8
EFKV.4a
  6
CONTINUOUS
 62
8
 10
3.5489337029554
 20
9.6749181042726
  0
VERTEX
  8
EFKV.4a
  6
CONTINUOUS
 62
8
 10
3.5449307974117
 20
9.6878525640212
  0
VERTEX
  8
EFKV.4a
  6
CONTINUOUS
 62
8
 10
3.5394306425389
 20
9.7007175050499
  0
VERTEX
  8
EFKV.4a
  6
CONTINUOUS
 62
8
 10
3.5325914677785
 20
9.7131428264285
  0
VERTEX
  8
EFKV.4a
  6
CONTINUOUS
 62
8
 10
3.5246100237362
 20
9.7247710742837
  0
VERTEX
  8
EFKV.4a
  6
CONTINUOUS
 62
8
 10
3.5157159220255
 20
9.7352677250962
  0
VERTEX
  8
EFKV.4a
  6
CONTINUOUS
 62
8
 10
3.5061650297591
 20
9.7443308093332
  0
VERTEX
  8
EFKV.4a
  6
CONTINUOUS
 62
8
 10
3.4962321087181
 20
9.7516995985625
  0
VERTEX
  8
EFKV.4a
  6
CONTINUOUS
 62
8
 10
3.4862029109563
 20
9.7571621061341
  0
VERTEX
  8
EFKV.4a
  6
CONTINUOUS
 62
8
 10
3.476365958233
 20
9.7605611856509
  0
VERTEX
  8
EFKV.4a
  6
CONTINUOUS
 62
8
 10
3.4670042417679
 20
9.7617990517838
  0
VERTEX
  8
EFKV.4a
  6
CONTINUOUS
 62
8
 10
3.4583870810991
 20
9.7608400933779
  0
VERTEX
  8
EFKV.4a
  6
CONTINUOUS
 62
8
 10
3.4507623762496
 20
9.7577118979207
  0
VERTEX
  8
EFKV.4a
  6
CONTINUOUS
 62
8
 10
3.4443494760957
 20
9.7525044578999
  0
VERTEX
  8
EFKV.4a
  6
CONTINUOUS
 62
8
 10
3.439332868099
 20
9.7453675818838
  0
VERTEX
  8
EFKV.4a
  6
CONTINUOUS
 62
8
 10
3.4358568709378
 20
9.7365065848013
  0
VERTEX
  8
EFKV.4a
  6
CONTINUOUS
 62
8
 10
3.4340214827216
 20
9.7261763814052
  0
VERTEX
  8
EFKV.4a
  6
CONTINUOUS
 62
8
 10
3.4338795042278
 20
9.7146741528391
  0
VERTEX
  8
EFKV.4a
  6
CONTINUOUS
 62
8
 10
3.4354350199191
 20
9.7023307972768
  0
VERTEX
  8
EFKV.4a
  6
CONTINUOUS
 62
8
 10
3.4386432804412
 20
9.6895014105844
  0
VERTEX
  8
EFKV.4a
  6
CONTINUOUS
 62
8
 10
3.4434119899802
 20
9.6765550708586
  0
VERTEX
  8
EFKV.4a
  6
CONTINUOUS
 62
8
 10
3.449603961445
 20
9.6638642207219
  0
VERTEX
  8
EFKV.4a
  6
CONTINUOUS
 62
8
 10
3.4570410630902
 20
9.6517939528266
  0
VERTEX
  8
EFKV.4a
  6
CONTINUOUS
 62
8
 10
3.4655093430423
 20
9.6406915068038
  0
VERTEX
  8
EFKV.4a
  6
CONTINUOUS
 62
8
 10
3.474765184305
 20
9.6308762798113
  0
VERTEX
  8
EFKV.4a
  6
CONTINUOUS
 62
8
 10
3.4845423131775
 20
9.6226306380593
  0
VERTEX
  8
EFKV.4a
  6
CONTINUOUS
 62
8
 10
3.4945594594632
 20
9.6161917936481
  0
VERTEX
  8
EFKV.4a
  6
CONTINUOUS
 62
8
 10
3.5045284481015
 20
9.6117449804082
  0
VERTEX
  8
EFKV.4a
  6
CONTINUOUS
 62
8
 10
3.51416248944
 20
9.6094181250603
  0
VERTEX
  8
EFKV.4a
  6
CONTINUOUS
 62
8
 10
3.5231844296499
 20
9.6092781669963
  0
VERTEX
  8
EFKV.4a
  6
CONTINUOUS
 62
8
 10
3.5313347239377
 20
9.6113291325547
  0
VERTEX
  8
EFKV.4a
  6
CONTINUOUS
 62
8
 10
3.5383789031757
 20
9.6155120191908
  0
VERTEX
  8
EFKV.4a
  6
CONTINUOUS
 62
8
 10
3.5441143191528
 20
9.6217064928716
  0
SEQEND
  0
LINE
  8
EFKV.4a
  6
CONTINUOUS
 62
8
 10
3.5520106691252
 20
9.1095224119346
 11
3.4339394898311
 21
9.1783503074713
  0
POLYLINE
  8
EFKV.4a
  6
CONTINUOUS
 62
8
 70
1
 66
1
  0
VERTEX
  8
EFKV.4a
  6
CONTINUOUS
 62
8
 10
3.5482496425943
 20
9.0753785686771
  0
VERTEX
  8
EFKV.4a
  6
CONTINUOUS
 62
8
 10
3.5528553095178
 20
9.0840544547693
  0
VERTEX
  8
EFKV.4a
  6
CONTINUOUS
 62
8
 10
3.5557357533269
 20
9.0944621301083
  0
VERTEX
  8
EFKV.4a
  6
CONTINUOUS
 62
8
 10
3.5568081088977
 20
9.1063021848238
  0
VERTEX
  8
EFKV.4a
  6
CONTINUOUS
 62
8
 10
3.5560415265129
 20
9.1192340020988
  0
VERTEX
  8
EFKV.4a
  6
CONTINUOUS
 62
8
 10
3.5534580593518
 20
9.1328855570951
  0
VERTEX
  8
EFKV.4a
  6
CONTINUOUS
 62
8
 10
3.5491320290611
 20
9.1468641194309
  0
VERTEX
  8
EFKV.4a
  6
CONTINUOUS
 62
8
 10
3.5431878876559
 20
9.1607675513184
  0
VERTEX
  8
EFKV.4a
  6
CONTINUOUS
 62
8
 10
3.5357966372618
 20
9.1741958763362
  0
VERTEX
  8
EFKV.4a
  6
CONTINUOUS
 62
8
 10
3.5271709106955
 20
9.1867627860223
  0
VERTEX
  8
EFKV.4a
  6
CONTINUOUS
 62
8
 10
3.5175588544055
 20
9.1981067532657
  0
VERTEX
  8
EFKV.4a
  6
CONTINUOUS
 62
8
 10
3.5072369897506
 20
9.2079014327826
  0
VERTEX
  8
EFKV.4a
  6
CONTINUOUS
 62
8
 10
3.4965022579841
 20
9.2158650494765
  0
VERTEX
  8
EFKV.4a
  6
CONTINUOUS
 62
8
 10
3.485663477794
 20
9.2217685045944
  0
VERTEX
  8
EFKV.4a
  6
CONTINUOUS
 62
8
 10
3.4750324611524
 20
9.2254419664809
  0
VERTEX
  8
EFKV.4a
  6
CONTINUOUS
 62
8
 10
3.4649150430523
 20
9.2267797563259
  0
VERTEX
  8
EFKV.4a
  6
CONTINUOUS
 62
8
 10
3.4556022831915
 20
9.2257433883512
  0
VERTEX
  8
EFKV.4a
  6
CONTINUOUS
 62
8
 10
3.4473620927157
 20
9.2223626769765
  0
VERTEX
  8
EFKV.4a
  6
CONTINUOUS
 62
8
 10
3.4404315269019
 20
9.2167348791129
  0
VERTEX
  8
EFKV.4a
  6
CONTINUOUS
 62
8
 10
3.4350099655101
 20
9.2090218962583
  0
VERTEX
  8
EFKV.4a
  6
CONTINUOUS
 62
8
 10
3.4312533769906
 20
9.1994456168865
  0
VERTEX
  8
EFKV.4a
  6
CONTINUOUS
 62
8
 10
3.4292698315555
 20
9.1882815331196
  0
VERTEX
  8
EFKV.4a
  6
CONTINUOUS
 62
8
 10
3.4291163921954
 20
9.1758508153211
  0
VERTEX
  8
EFKV.4a
  6
CONTINUOUS
 62
8
 10
3.4307974730815
 20
9.1625110726095
  0
VERTEX
  8
EFKV.4a
  6
CONTINUOUS
 62
8
 10
3.4342647125774
 20
9.148646065095
  0
VERTEX
  8
EFKV.4a
  6
CONTINUOUS
 62
8
 10
3.4394183645155
 20
9.1346546637999
  0
VERTEX
  8
EFKV.4a
  6
CONTINUOUS
 62
8
 10
3.4461101677129
 20
9.1209393758653
  0
VERTEX
  8
EFKV.4a
  6
CONTINUOUS
 62
8
 10
3.4541476111753
 20
9.1078947651538
  0
VERTEX
  8
EFKV.4a
  6
CONTINUOUS
 62
8
 10
3.4632994722879
 20
9.0958961013653
  0
VERTEX
  8
EFKV.4a
  6
CONTINUOUS
 62
8
 10
3.4733024686694
 20
9.085288564211
  0
VERTEX
  8
EFKV.4a
  6
CONTINUOUS
 62
8
 10
3.4838688323263
 20
9.0763773132218
  0
VERTEX
  8
EFKV.4a
  6
CONTINUOUS
 62
8
 10
3.4946945882142
 20
9.069418708864
  0
VERTEX
  8
EFKV.4a
  6
CONTINUOUS
 62
8
 10
3.5054682990467
 20
9.0646129375154
  0
VERTEX
  8
EFKV.4a
  6
CONTINUOUS
 62
8
 10
3.5158800247789
 20
9.062098252468
  0
VERTEX
  8
EFKV.4a
  6
CONTINUOUS
 62
8
 10
3.5256302390178
 20
9.0619469966319
  0
VERTEX
  8
EFKV.4a
  6
CONTINUOUS
 62
8
 10
3.5344384458522
 20
9.0641635213623
  0
VERTEX
  8
EFKV.4a
  6
CONTINUOUS
 62
8
 10
3.5420512492083
 20
9.0686840612783
  0
VERTEX
  8
EFKV.4a
  6
CONTINUOUS
 62
8
 10
3.5482496425943
 20
9.0753785686771
  0
SEQEND
  0
POLYLINE
  8
EFKV.4a
  6
CONTINUOUS
 62
8
 70
1
 66
1
  0
VERTEX
  8
EFKV.4a
  6
CONTINUOUS
 62
8
 10
3.5441143191528
 20
9.0805229810735
  0
VERTEX
  8
EFKV.4a
  6
CONTINUOUS
 62
8
 10
3.5483759743936
 20
9.0885508380697
  0
VERTEX
  8
EFKV.4a
  6
CONTINUOUS
 62
8
 10
3.5510412688361
 20
9.0981811315516
  0
VERTEX
  8
EFKV.4a
  6
CONTINUOUS
 62
8
 10
3.5520335268118
 20
9.1091368155096
  0
VERTEX
  8
EFKV.4a
  6
CONTINUOUS
 62
8
 10
3.5513242028654
 20
9.1211027148633
  0
VERTEX
  8
EFKV.4a
  6
CONTINUOUS
 62
8
 10
3.5489337029554
 20
9.1337345924745
  0
VERTEX
  8
EFKV.4a
  6
CONTINUOUS
 62
8
 10
3.5449307974117
 20
9.1466690522231
  0
VERTEX
  8
EFKV.4a
  6
CONTINUOUS
 62
8
 10
3.5394306425389
 20
9.1595339932518
  0
VERTEX
  8
EFKV.4a
  6
CONTINUOUS
 62
8
 10
3.5325914677785
 20
9.1719593146304
  0
VERTEX
  8
EFKV.4a
  6
CONTINUOUS
 62
8
 10
3.5246100237362
 20
9.1835875624856
  0
VERTEX
  8
EFKV.4a
  6
CONTINUOUS
 62
8
 10
3.5157159220255
 20
9.1940842132981
  0
VERTEX
  8
EFKV.4a
  6
CONTINUOUS
 62
8
 10
3.5061650297591
 20
9.2031472975351
  0
VERTEX
  8
EFKV.4a
  6
CONTINUOUS
 62
8
 10
3.4962321087181
 20
9.2105160867643
  0
VERTEX
  8
EFKV.4a
  6
CONTINUOUS
 62
8
 10
3.4862029109563
 20
9.215978594336
  0
VERTEX
  8
EFKV.4a
  6
CONTINUOUS
 62
8
 10
3.476365958233
 20
9.2193776738528
  0
VERTEX
  8
EFKV.4a
  6
CONTINUOUS
 62
8
 10
3.4670042417679
 20
9.2206155399857
  0
VERTEX
  8
EFKV.4a
  6
CONTINUOUS
 62
8
 10
3.4583870810991
 20
9.2196565815798
  0
VERTEX
  8
EFKV.4a
  6
CONTINUOUS
 62
8
 10
3.4507623762496
 20
9.2165283861226
  0
VERTEX
  8
EFKV.4a
  6
CONTINUOUS
 62
8
 10
3.4443494760957
 20
9.2113209461018
  0
VERTEX
  8
EFKV.4a
  6
CONTINUOUS
 62
8
 10
3.439332868099
 20
9.2041840700857
  0
VERTEX
  8
EFKV.4a
  6
CONTINUOUS
 62
8
 10
3.4358568709378
 20
9.1953230730032
  0
VERTEX
  8
EFKV.4a
  6
CONTINUOUS
 62
8
 10
3.4340214827216
 20
9.1849928696071
  0
VERTEX
  8
EFKV.4a
  6
CONTINUOUS
 62
8
 10
3.4338795042278
 20
9.173490641041
  0
VERTEX
  8
EFKV.4a
  6
CONTINUOUS
 62
8
 10
3.4354350199191
 20
9.1611472854787
  0
VERTEX
  8
EFKV.4a
  6
CONTINUOUS
 62
8
 10
3.4386432804412
 20
9.1483178987863
  0
VERTEX
  8
EFKV.4a
  6
CONTINUOUS
 62
8
 10
3.4434119899802
 20
9.1353715590605
  0
VERTEX
  8
EFKV.4a
  6
CONTINUOUS
 62
8
 10
3.449603961445
 20
9.1226807089238
  0
VERTEX
  8
EFKV.4a
  6
CONTINUOUS
 62
8
 10
3.4570410630902
 20
9.1106104410285
  0
VERTEX
  8
EFKV.4a
  6
CONTINUOUS
 62
8
 10
3.4655093430423
 20
9.0995079950057
  0
VERTEX
  8
EFKV.4a
  6
CONTINUOUS
 62
8
 10
3.474765184305
 20
9.0896927680132
  0
VERTEX
  8
EFKV.4a
  6
CONTINUOUS
 62
8
 10
3.4845423131775
 20
9.0814471262612
  0
VERTEX
  8
EFKV.4a
  6
CONTINUOUS
 62
8
 10
3.4945594594632
 20
9.07500828185
  0
VERTEX
  8
EFKV.4a
  6
CONTINUOUS
 62
8
 10
3.5045284481015
 20
9.0705614686101
  0
VERTEX
  8
EFKV.4a
  6
CONTINUOUS
 62
8
 10
3.51416248944
 20
9.0682346132622
  0
VERTEX
  8
EFKV.4a
  6
CONTINUOUS
 62
8
 10
3.5231844296499
 20
9.0680946551982
  0
VERTEX
  8
EFKV.4a
  6
CONTINUOUS
 62
8
 10
3.5313347239377
 20
9.0701456207566
  0
VERTEX
  8
EFKV.4a
  6
CONTINUOUS
 62
8
 10
3.5383789031757
 20
9.0743285073926
  0
VERTEX
  8
EFKV.4a
  6
CONTINUOUS
 62
8
 10
3.5441143191528
 20
9.0805229810735
  0
SEQEND
  0
POLYLINE
  8
EFKV.4a
  6
CONTINUOUS
 62
8
 70
1
 66
1
  0
VERTEX
  8
EFKV.4a
  6
CONTINUOUS
 62
8
 10
3.9821331040895
 20
8.8248758353859
  0
VERTEX
  8
EFKV.4a
  6
CONTINUOUS
 62
8
 10
3.986738771013
 20
8.8335517214781
  0
VERTEX
  8
EFKV.4a
  6
CONTINUOUS
 62
8
 10
3.9896192148221
 20
8.8439593968171
  0
VERTEX
  8
EFKV.4a
  6
CONTINUOUS
 62
8
 10
3.990691570393
 20
8.8557994515326
  0
VERTEX
  8
EFKV.4a
  6
CONTINUOUS
 62
8
 10
3.9899249880081
 20
8.8687312688076
  0
VERTEX
  8
EFKV.4a
  6
CONTINUOUS
 62
8
 10
3.9873415208471
 20
8.8823828238039
  0
VERTEX
  8
EFKV.4a
  6
CONTINUOUS
 62
8
 10
3.9830154905564
 20
8.8963613861397
  0
VERTEX
  8
EFKV.4a
  6
CONTINUOUS
 62
8
 10
3.9770713491511
 20
8.9102648180272
  0
VERTEX
  8
EFKV.4a
  6
CONTINUOUS
 62
8
 10
3.969680098757
 20
8.923693143045
  0
VERTEX
  8
EFKV.4a
  6
CONTINUOUS
 62
8
 10
3.9610543721907
 20
8.9362600527311
  0
VERTEX
  8
EFKV.4a
  6
CONTINUOUS
 62
8
 10
3.9514423159007
 20
8.9476040199745
  0
VERTEX
  8
EFKV.4a
  6
CONTINUOUS
 62
8
 10
3.9411204512459
 20
8.9573986994914
  0
VERTEX
  8
EFKV.4a
  6
CONTINUOUS
 62
8
 10
3.9303857194793
 20
8.9653623161853
  0
VERTEX
  8
EFKV.4a
  6
CONTINUOUS
 62
8
 10
3.9195469392892
 20
8.9712657713032
  0
VERTEX
  8
EFKV.4a
  6
CONTINUOUS
 62
8
 10
3.9089159226476
 20
8.9749392331897
  0
VERTEX
  8
EFKV.4a
  6
CONTINUOUS
 62
8
 10
3.8987985045475
 20
8.9762770230347
  0
VERTEX
  8
EFKV.4a
  6
CONTINUOUS
 62
8
 10
3.8894857446867
 20
8.97524065506
  0
VERTEX
  8
EFKV.4a
  6
CONTINUOUS
 62
8
 10
3.8812455542109
 20
8.9718599436854
  0
VERTEX
  8
EFKV.4a
  6
CONTINUOUS
 62
8
 10
3.8743149883971
 20
8.9662321458217
  0
VERTEX
  8
EFKV.4a
  6
CONTINUOUS
 62
8
 10
3.8688934270053
 20
8.9585191629671
  0
VERTEX
  8
EFKV.4a
  6
CONTINUOUS
 62
8
 10
3.8651368384858
 20
8.9489428835954
  0
VERTEX
  8
EFKV.4a
  6
CONTINUOUS
 62
8
 10
3.8631532930507
 20
8.9377787998284
  0
VERTEX
  8
EFKV.4a
  6
CONTINUOUS
 62
8
 10
3.8629998536906
 20
8.9253480820299
  0
VERTEX
  8
EFKV.4a
  6
CONTINUOUS
 62
8
 10
3.8646809345768
 20
8.9120083393183
  0
VERTEX
  8
EFKV.4a
  6
CONTINUOUS
 62
8
 10
3.8681481740726
 20
8.8981433318038
  0
VERTEX
  8
EFKV.4a
  6
CONTINUOUS
 62
8
 10
3.8733018260108
 20
8.8841519305087
  0
VERTEX
  8
EFKV.4a
  6
CONTINUOUS
 62
8
 10
3.8799936292081
 20
8.8704366425741
  0
VERTEX
  8
EFKV.4a
  6
CONTINUOUS
 62
8
 10
3.8880310726705
 20
8.8573920318626
  0
VERTEX
  8
EFKV.4a
  6
CONTINUOUS
 62
8
 10
3.8971829337831
 20
8.8453933680741
  0
VERTEX
  8
EFKV.4a
  6
CONTINUOUS
 62
8
 10
3.9071859301646
 20
8.8347858309198
  0
VERTEX
  8
EFKV.4a
  6
CONTINUOUS
 62
8
 10
3.9177522938215
 20
8.8258745799306
  0
VERTEX
  8
EFKV.4a
  6
CONTINUOUS
 62
8
 10
3.9285780497094
 20
8.8189159755728
  0
VERTEX
  8
EFKV.4a
  6
CONTINUOUS
 62
8
 10
3.939351760542
 20
8.8141102042242
  0
VERTEX
  8
EFKV.4a
  6
CONTINUOUS
 62
8
 10
3.9497634862741
 20
8.8115955191768
  0
VERTEX
  8
EFKV.4a
  6
CONTINUOUS
 62
8
 10
3.9595137005131
 20
8.8114442633407
  0
VERTEX
  8
EFKV.4a
  6
CONTINUOUS
 62
8
 10
3.9683219073474
 20
8.8136607880712
  0
VERTEX
  8
EFKV.4a
  6
CONTINUOUS
 62
8
 10
3.9759347107035
 20
8.8181813279872
  0
VERTEX
  8
EFKV.4a
  6
CONTINUOUS
 62
8
 10
3.9821331040895
 20
8.8248758353859
  0
SEQEND
  0
POLYLINE
  8
EFKV.4a
  6
CONTINUOUS
 62
8
 70
1
 66
1
  0
VERTEX
  8
EFKV.4a
  6
CONTINUOUS
 62
8
 10
3.977997780648
 20
8.8300202477823
  0
VERTEX
  8
EFKV.4a
  6
CONTINUOUS
 62
8
 10
3.9822594358888
 20
8.8380481047785
  0
VERTEX
  8
EFKV.4a
  6
CONTINUOUS
 62
8
 10
3.9849247303313
 20
8.8476783982604
  0
VERTEX
  8
EFKV.4a
  6
CONTINUOUS
 62
8
 10
3.9859169883071
 20
8.8586340822184
  0
VERTEX
  8
EFKV.4a
  6
CONTINUOUS
 62
8
 10
3.9852076643607
 20
8.8705999815721
  0
VERTEX
  8
EFKV.4a
  6
CONTINUOUS
 62
8
 10
3.9828171644506
 20
8.8832318591833
  0
VERTEX
  8
EFKV.4a
  6
CONTINUOUS
 62
8
 10
3.978814258907
 20
8.8961663189319
  0
VERTEX
  8
EFKV.4a
  6
CONTINUOUS
 62
8
 10
3.9733141040341
 20
8.9090312599606
  0
VERTEX
  8
EFKV.4a
  6
CONTINUOUS
 62
8
 10
3.9664749292737
 20
8.9214565813392
  0
VERTEX
  8
EFKV.4a
  6
CONTINUOUS
 62
8
 10
3.9584934852314
 20
8.9330848291944
  0
VERTEX
  8
EFKV.4a
  6
CONTINUOUS
 62
8
 10
3.9495993835207
 20
8.9435814800069
  0
VERTEX
  8
EFKV.4a
  6
CONTINUOUS
 62
8
 10
3.9400484912543
 20
8.9526445642439
  0
VERTEX
  8
EFKV.4a
  6
CONTINUOUS
 62
8
 10
3.9301155702134
 20
8.9600133534732
  0
VERTEX
  8
EFKV.4a
  6
CONTINUOUS
 62
8
 10
3.9200863724515
 20
8.9654758610448
  0
VERTEX
  8
EFKV.4a
  6
CONTINUOUS
 62
8
 10
3.9102494197282
 20
8.9688749405616
  0
VERTEX
  8
EFKV.4a
  6
CONTINUOUS
 62
8
 10
3.9008877032632
 20
8.9701128066945
  0
VERTEX
  8
EFKV.4a
  6
CONTINUOUS
 62
8
 10
3.8922705425943
 20
8.9691538482887
  0
VERTEX
  8
EFKV.4a
  6
CONTINUOUS
 62
8
 10
3.8846458377448
 20
8.9660256528314
  0
VERTEX
  8
EFKV.4a
  6
CONTINUOUS
 62
8
 10
3.878232937591
 20
8.9608182128106
  0
VERTEX
  8
EFKV.4a
  6
CONTINUOUS
 62
8
 10
3.8732163295942
 20
8.9536813367945
  0
VERTEX
  8
EFKV.4a
  6
CONTINUOUS
 62
8
 10
3.869740332433
 20
8.944820339712
  0
VERTEX
  8
EFKV.4a
  6
CONTINUOUS
 62
8
 10
3.8679049442168
 20
8.9344901363159
  0
VERTEX
  8
EFKV.4a
  6
CONTINUOUS
 62
8
 10
3.867762965723
 20
8.9229879077498
  0
VERTEX
  8
EFKV.4a
  6
CONTINUOUS
 62
8
 10
3.8693184814143
 20
8.9106445521876
  0
VERTEX
  8
EFKV.4a
  6
CONTINUOUS
 62
8
 10
3.8725267419365
 20
8.8978151654951
  0
VERTEX
  8
EFKV.4a
  6
CONTINUOUS
 62
8
 10
3.8772954514754
 20
8.8848688257693
  0
VERTEX
  8
EFKV.4a
  6
CONTINUOUS
 62
8
 10
3.8834874229402
 20
8.8721779756326
  0
VERTEX
  8
EFKV.4a
  6
CONTINUOUS
 62
8
 10
3.8909245245855
 20
8.8601077077373
  0
VERTEX
  8
EFKV.4a
  6
CONTINUOUS
 62
8
 10
3.8993928045375
 20
8.8490052617145
  0
VERTEX
  8
EFKV.4a
  6
CONTINUOUS
 62
8
 10
3.9086486458003
 20
8.839190034722
  0
VERTEX
  8
EFKV.4a
  6
CONTINUOUS
 62
8
 10
3.9184257746727
 20
8.83094439297
  0
VERTEX
  8
EFKV.4a
  6
CONTINUOUS
 62
8
 10
3.9284429209584
 20
8.8245055485588
  0
VERTEX
  8
EFKV.4a
  6
CONTINUOUS
 62
8
 10
3.9384119095968
 20
8.8200587353189
  0
VERTEX
  8
EFKV.4a
  6
CONTINUOUS
 62
8
 10
3.9480459509352
 20
8.817731879971
  0
VERTEX
  8
EFKV.4a
  6
CONTINUOUS
 62
8
 10
3.9570678911452
 20
8.817591921907
  0
VERTEX
  8
EFKV.4a
  6
CONTINUOUS
 62
8
 10
3.9652181854329
 20
8.8196428874654
  0
VERTEX
  8
EFKV.4a
  6
CONTINUOUS
 62
8
 10
3.972262364671
 20
8.8238257741015
  0
VERTEX
  8
EFKV.4a
  6
CONTINUOUS
 62
8
 10
3.977997780648
 20
8.8300202477823
  0
SEQEND
  0
LINE
  8
EFKV.4a
  6
CONTINUOUS
 62
8
 10
4.0163589773444
 20
9.4835420047143
 11
4.0993236431688
 21
9.4305855735688
  0
LINE
  8
EFKV.4a
  6
CONTINUOUS
 62
8
 10
4.0556516693798
 20
9.4078999272449
 11
4.0600309511334
 21
9.5062276510382
  0
POLYLINE
  8
EFKV.4a
  6
CONTINUOUS
 62
8
 70
1
 66
1
  0
VERTEX
  8
EFKV.4a
  6
CONTINUOUS
 62
8
 10
4.0766861920882
 20
9.4012475280045
  0
VERTEX
  8
EFKV.4a
  6
CONTINUOUS
 62
8
 10
4.0701587871518
 20
9.4017713528633
  0
VERTEX
  8
EFKV.4a
  6
CONTINUOUS
 62
8
 10
4.0632770308315
 20
9.4038858404432
  0
VERTEX
  8
EFKV.4a
  6
CONTINUOUS
 62
8
 10
4.056238898727
 20
9.4075301607862
  0
VERTEX
  8
EFKV.4a
  6
CONTINUOUS
 62
8
 10
4.0492468650847
 20
9.4125994734314
  0
VERTEX
  8
EFKV.4a
  6
CONTINUOUS
 62
8
 10
4.0425020779821
 20
9.4189479434836
  0
VERTEX
  8
EFKV.4a
  6
CONTINUOUS
 62
8
 10
4.0361985726641
 20
9.426392937018
  0
VERTEX
  8
EFKV.4a
  6
CONTINUOUS
 62
8
 10
4.0305176895017
 20
9.4347202751257
  0
VERTEX
  8
EFKV.4a
  6
CONTINUOUS
 62
8
 10
4.0256228571604
 20
9.4436903954509
  0
VERTEX
  8
EFKV.4a
  6
CONTINUOUS
 62
8
 10
4.0216548910547
 20
9.4530452439638
  0
VERTEX
  8
EFKV.4a
  6
CONTINUOUS
 62
8
 10
4.0187279423451
 20
9.4625156987048
  0
VERTEX
  8
EFKV.4a
  6
CONTINUOUS
 62
8
 10
4.0169262140167
 20
9.471829311934
  0
VERTEX
  8
EFKV.4a
  6
CONTINUOUS
 62
8
 10
4.0163015385132
 20
9.480718147956
  0
VERTEX
  8
EFKV.4a
  6
CONTINUOUS
 62
8
 10
4.0168718866115
 20
9.4889264911422
  0
VERTEX
  8
EFKV.4a
  6
CONTINUOUS
 62
8
 10
4.0186208504352
 20
9.4962182024042
  0
VERTEX
  8
EFKV.4a
  6
CONTINUOUS
 62
8
 10
4.0214981154794
 20
9.5023835124849
  0
VERTEX
  8
EFKV.4a
  6
CONTINUOUS
 62
8
 10
4.0254209080675
 20
9.5072450566384
  0
VERTEX
  8
EFKV.4a
  6
CONTINUOUS
 62
8
 10
4.030276376599
 20
9.5106629770908
  0
VERTEX
  8
EFKV.4a
  6
CONTINUOUS
 62
8
 10
4.0359248380844
 20
9.5125389464937
  0
VERTEX
  8
EFKV.4a
  6
CONTINUOUS
 62
8
 10
4.0422037965709
 20
9.5128189966229
  0
VERTEX
  8
EFKV.4a
  6
CONTINUOUS
 62
8
 10
4.0489326178551
 20
9.5114950709462
  0
VERTEX
  8
EFKV.4a
  6
CONTINUOUS
 62
8
 10
4.0559177259996
 20
9.5086052563947
  0
VERTEX
  8
EFKV.4a
  6
CONTINUOUS
 62
8
 10
4.062958172161
 20
9.5042326876717
  0
VERTEX
  8
EFKV.4a
  6
CONTINUOUS
 62
8
 10
4.0698514155216
 20
9.4985031556182
  0
VERTEX
  8
EFKV.4a
  6
CONTINUOUS
 62
8
 10
4.0763991500205
 20
9.4915814884396
  0
VERTEX
  8
EFKV.4a
  6
CONTINUOUS
 62
8
 10
4.0824130092575
 20
9.4836668098984
  0
VERTEX
  8
EFKV.4a
  6
CONTINUOUS
 62
8
 10
4.0877199854519
 20
9.474986810886
  0
VERTEX
  8
EFKV.4a
  6
CONTINUOUS
 62
8
 10
4.0921674065608
 20
9.4657911991704
  0
VERTEX
  8
EFKV.4a
  6
CONTINUOUS
 62
8
 10
4.0956273283765
 20
9.4563445157582
  0
VERTEX
  8
EFKV.4a
  6
CONTINUOUS
 62
8
 10
4.0980002152477
 20
9.4469185245317
  0
VERTEX
  8
EFKV.4a
  6
CONTINUOUS
 62
8
 10
4.0992178035394
 20
9.4377843940966
  0
VERTEX
  8
EFKV.4a
  6
CONTINUOUS
 62
8
 10
4.0992450654534
 20
9.429204896755
  0
VERTEX
  8
EFKV.4a
  6
CONTINUOUS
 62
8
 10
4.0980812167139
 20
9.4214268490248
  0
VERTEX
  8
EFKV.4a
  6
CONTINUOUS
 62
8
 10
4.0957597391304
 20
9.4146740111778
  0
VERTEX
  8
EFKV.4a
  6
CONTINUOUS
 62
8
 10
4.092347417386
 20
9.4091406500639
  0
VERTEX
  8
EFKV.4a
  6
CONTINUOUS
 62
8
 10
4.0879424177646
 20
9.4049859504078
  0
VERTEX
  8
EFKV.4a
  6
CONTINUOUS
 62
8
 10
4.0826714640852
 20
9.4023294353543
  0
VERTEX
  8
EFKV.4a
  6
CONTINUOUS
 62
8
 10
4.0766861920882
 20
9.4012475280045
  0
SEQEND
  0
POLYLINE
  8
EFKV.4a
  6
CONTINUOUS
 62
8
 70
1
 66
1
  0
VERTEX
  8
EFKV.4a
  6
CONTINUOUS
 62
8
 10
4.0752786088617
 20
9.4054166193074
  0
VERTEX
  8
EFKV.4a
  6
CONTINUOUS
 62
8
 10
4.069238756237
 20
9.4059013180474
  0
VERTEX
  8
EFKV.4a
  6
CONTINUOUS
 62
8
 10
4.0628710198427
 20
9.4078578679295
  0
VERTEX
  8
EFKV.4a
  6
CONTINUOUS
 62
8
 10
4.0563585878612
 20
9.4112299825759
  0
VERTEX
  8
EFKV.4a
  6
CONTINUOUS
 62
8
 10
4.0498888111035
 20
9.4159206523878
  0
VERTEX
  8
EFKV.4a
  6
CONTINUOUS
 62
8
 10
4.0436478132673
 20
9.421794935335
  0
VERTEX
  8
EFKV.4a
  6
CONTINUOUS
 62
8
 10
4.0378151364974
 20
9.4286838389923
  0
VERTEX
  8
EFKV.4a
  6
CONTINUOUS
 62
8
 10
4.032558576285
 20
9.4363891821442
  0
VERTEX
  8
EFKV.4a
  6
CONTINUOUS
 62
8
 10
4.0280293542969
 20
9.4446892960973
  0
VERTEX
  8
EFKV.4a
  6
CONTINUOUS
 62
8
 10
4.0243577680032
 20
9.453345401685
  0
VERTEX
  8
EFKV.4a
  6
CONTINUOUS
 62
8
 10
4.0216494422568
 20
9.4621084785098
  0
VERTEX
  8
EFKV.4a
  6
CONTINUOUS
 62
8
 10
4.0199822906584
 20
9.4707264288064
  0
VERTEX
  8
EFKV.4a
  6
CONTINUOUS
 62
8
 10
4.0194042741241
 20
9.4789513298352
  0
VERTEX
  8
EFKV.4a
  6
CONTINUOUS
 62
8
 10
4.0199320211372
 20
9.4865465661689
  0
VERTEX
  8
EFKV.4a
  6
CONTINUOUS
 62
8
 10
4.021550349377
 20
9.4932936366867
  0
VERTEX
  8
EFKV.4a
  6
CONTINUOUS
 62
8
 10
4.0242127024865
 20
9.4989984404541
  0
VERTEX
  8
EFKV.4a
  6
CONTINUOUS
 62
8
 10
4.0278424894141
 20
9.5034968606534
  0
VERTEX
  8
EFKV.4a
  6
CONTINUOUS
 62
8
 10
4.0323352877986
 20
9.5066594859259
  0
VERTEX
  8
EFKV.4a
  6
CONTINUOUS
 62
8
 10
4.0375618480105
 20
9.5083953333005
  0
VERTEX
  8
EFKV.4a
  6
CONTINUOUS
 62
8
 10
4.0433718114286
 20
9.5086544656088
  0
VERTEX
  8
EFKV.4a
  6
CONTINUOUS
 62
8
 10
4.0495980359833
 20
9.507429428086
  0
VERTEX
  8
EFKV.4a
  6
CONTINUOUS
 62
8
 10
4.0560614045305
 20
9.5047554628313
  0
VERTEX
  8
EFKV.4a
  6
CONTINUOUS
 62
8
 10
4.0625759777246
 20
9.5007094949565
  0
VERTEX
  8
EFKV.4a
  6
CONTINUOUS
 62
8
 10
4.0689543431562
 20
9.495407919591
  0
VERTEX
  8
EFKV.4a
  6
CONTINUOUS
 62
8
 10
4.0750130068646
 20
9.4890032534054
  0
VERTEX
  8
EFKV.4a
  6
CONTINUOUS
 62
8
 10
4.0805776721261
 20
9.481679746985
  0
VERTEX
  8
EFKV.4a
  6
CONTINUOUS
 62
8
 10
4.0854882536526
 20
9.4736480842756
  0
VERTEX
  8
EFKV.4a
  6
CONTINUOUS
 62
8
 10
4.0896034829542
 20
9.4651393215902
  0
VERTEX
  8
EFKV.4a
  6
CONTINUOUS
 62
8
 10
4.0928049723766
 20
9.4563982405392
  0
VERTEX
  8
EFKV.4a
  6
CONTINUOUS
 62
8
 10
4.0950006208979
 20
9.4476763061098
  0
VERTEX
  8
EFKV.4a
  6
CONTINUOUS
 62
8
 10
4.0961272637079
 20
9.4392244324755
  0
VERTEX
  8
EFKV.4a
  6
CONTINUOUS
 62
8
 10
4.0961524893442
 20
9.4312857646525
  0
VERTEX
  8
EFKV.4a
  6
CONTINUOUS
 62
8
 10
4.0950755721111
 20
9.42408868366
  0
VERTEX
  8
EFKV.4a
  6
CONTINUOUS
 62
8
 10
4.0929274929567
 20
9.4178402364146
  0
VERTEX
  8
EFKV.4a
  6
CONTINUOUS
 62
8
 10
4.0897700482072
 20
9.4127201793671
  0
VERTEX
  8
EFKV.4a
  6
CONTINUOUS
 62
8
 10
4.0856940717994
 20
9.4088758072365
  0
VERTEX
  8
EFKV.4a
  6
CONTINUOUS
 62
8
 10
4.0808168221535
 20
9.4064177156097
  0
VERTEX
  8
EFKV.4a
  6
CONTINUOUS
 62
8
 10
4.0752786088617
 20
9.4054166193074
  0
SEQEND
  0
LINE
  8
EFKV.4a
  6
CONTINUOUS
 62
8
 10
3.502727989051
 20
9.746880595891
 11
3.502727989051
 21
9.6125481015105
  0
LINE
  8
EFKV.4a
  6
CONTINUOUS
 62
8
 10
3.4830429496809
 20
9.7582540052158
 11
3.4830429496809
 21
9.6238951416176
  0
LINE
  8
EFKV.4a
  6
CONTINUOUS
 62
8
 10
3.5510801478211
 20
9.1220189873206
 11
3.4346552654162
 21
9.1892369245175
  0
LINE
  8
EFKV.4a
  6
CONTINUOUS
 62
8
 10
3.5511497306534
 20
9.0993786763639
 11
3.4345225596528
 21
9.1665939576493
  0
LINE
  8
EFKV.4a
  6
CONTINUOUS
 62
8
 10
3.9267689308612
 20
8.9618770924516
 11
3.9267689308612
 21
8.8256225165917
  0
LINE
  8
EFKV.4a
  6
CONTINUOUS
 62
8
 10
3.9366114505462
 20
8.955235307616
 11
3.9366114505462
 21
8.8209028132355
  0
LINE
  8
EFKV.4a
  6
CONTINUOUS
 62
8
 10
3.9169264111761
 20
8.9666087169407
 11
3.9169264111761
 21
8.8322498533425
  0
ENDSEC
  0
EOF
