  0
SECTION
  2
HEADER
  9
$EXTMIN
 10
3.249957059735
 20
8.7792839673655
  9
$EXTMAX
 10
4.8247602093413
 20
10.354087116972
  9
$LIMMIN
 10
0
 20
0
  9
$LIMMAX
 10
8.2666666666667
 20
11.69
  0
ENDSEC
  0
SECTION
  2
TABLES
  0
TABLE
  2
LTYPE
 70
9
  0
LTYPE
  2
CONTINUOUS
  3
___________________________
 70
64
 72
65
 73
0
 40
0
  0
LTYPE
  2
HIDDEN
  3
_ _ _ _ _ _ _ _ _ _ _ _ _ _ 
 70
64
 72
65
 73
2
 49
0.25
 49
-0.125
 40
0.375
  0
LTYPE
  2
DASHED
  3
__ __ __ __ __ __ __ __ __ 
 70
64
 72
65
 73
2
 49
0.5
 49
-0.25
 40
0.75
  0
LTYPE
  2
CENTER
  3
____ _ ____ _ ____ _ ____ _ 
 70
64
 72
65
 73
4
 49
1.25
 49
-0.25
 49
0.25
 49
-0.25
 40
2
  0
LTYPE
  2
PHANTOM
  3
_____ _ _ _____ _ _ _____ _ _ 
 70
64
 72
65
 73
6
 49
1.25
 49
-0.25
 49
0.25
 49
-0.25
 49
0.25
 49
-0.25
 40
2.5
  0
LTYPE
  2
DOT
  3
...........................
 70
64
 72
65
 73
2
 49
0
 49
-0.25
 40
0.25
  0
LTYPE
  2
DASHDOT
  3
__ . __ . __ . __ . __ . __ . 
 70
64
 72
65
 73
4
 49
0.5
 49
-0.25
 49
0
 49
-0.25
 40
1
  0
LTYPE
  2
DIVIDE
  3
__ . . __ . . __ . . __ . . 
 70
64
 72
65
 73
6
 49
0.5
 49
-0.25
 49
0
 49
-0.25
 49
0
 49
-0.25
 40
1.25
  0
LTYPE
  2
BORDER
  3
__ __ . __ __ . __ __ . __ __ . 
 70
64
 72
65
 73
6
 49
0.5
 49
-0.25
 49
0.5
 49
-0.25
 49
0
 49
-0.25
 40
1.75
  0
ENDTAB
  0
TABLE
  2
LAYER
 70
1
  0
LAYER
  2
EFKV.2a
 62
7
  6
CONTINUOUS
 70
0
  0
ENDTAB
  0
TABLE
  2
STYLE
 70
5
  0
STYLE
  2
ptmarker
 70
1
 40
0
 50
0
 71
0
 41
0
 42
0
  3
ptmarks
  0
STYLE
  2
TXT
 70
0
 40
0
 50
0
 71
0
 41
0
 42
0
  3
TXT
  0
STYLE
  2
ITALIC
 70
0
 40
0
 50
0
 71
0
 41
0
 42
0
  3
ITALIC
  0
STYLE
  2
SIMPLEX
 70
0
 40
0
 50
0
 71
0
 41
0
 42
0
  3
SIMPLEX
  0
STYLE
  2
COMPLEX
 70
0
 40
0
 50
0
 71
0
 41
0
 42
0
  3
COMPLEX
  0
ENDTAB
  0
ENDSEC
  0
SECTION
  2
BLOCKS
  0
ENDSEC
  0
SECTION
  2
ENTITIES
  0
POLYLINE
  8
EFKV.2a
  6
CONTINUOUS
 62
7
 70
0
 66
1
  0
VERTEX
  8
EFKV.2a
  6
CONTINUOUS
 62
7
 10
3.4589861598534
 20
9.8215946804472
  0
VERTEX
  8
EFKV.2a
  6
CONTINUOUS
 62
7
 10
3.4589861598534
 20
9.8240946804472
  0
VERTEX
  8
EFKV.2a
  6
CONTINUOUS
 62
7
 10
3.4539861598534
 20
9.8266946804472
  0
VERTEX
  8
EFKV.2a
  6
CONTINUOUS
 62
7
 10
3.4589861598534
 20
9.8342946804472
  0
VERTEX
  8
EFKV.2a
  6
CONTINUOUS
 62
7
 10
3.4589861598534
 20
9.8215946804472
  0
SEQEND
  0
POLYLINE
  8
EFKV.2a
  6
CONTINUOUS
 62
7
 70
0
 66
1
  0
VERTEX
  8
EFKV.2a
  6
CONTINUOUS
 62
7
 10
3.2912861598534
 20
9.9511946804472
  0
VERTEX
  8
EFKV.2a
  6
CONTINUOUS
 62
7
 10
3.2887861598534
 20
9.9587946804472
  0
VERTEX
  8
EFKV.2a
  6
CONTINUOUS
 62
7
 10
3.3014861598534
 20
9.9587946804472
  0
VERTEX
  8
EFKV.2a
  6
CONTINUOUS
 62
7
 10
3.2912861598534
 20
9.9511946804472
  0
SEQEND
  0
POLYLINE
  8
EFKV.2a
  6
CONTINUOUS
 62
7
 70
0
 66
1
  0
VERTEX
  8
EFKV.2a
  6
CONTINUOUS
 62
7
 10
3.3563169066174
 20
9.7517700227524
  0
VERTEX
  8
EFKV.2a
  6
CONTINUOUS
 62
7
 10
3.3486169066174
 20
9.7694700227524
  0
VERTEX
  8
EFKV.2a
  6
CONTINUOUS
 62
7
 10
3.3613169066174
 20
9.7694700227524
  0
VERTEX
  8
EFKV.2a
  6
CONTINUOUS
 62
7
 10
3.3563169066174
 20
9.7517700227524
  0
SEQEND
  0
POLYLINE
  8
EFKV.2a
  6
CONTINUOUS
 62
7
 70
0
 66
1
  0
VERTEX
  8
EFKV.2a
  6
CONTINUOUS
 62
7
 10
3.3513414638394
 20
10.16672503467
  0
VERTEX
  8
EFKV.2a
  6
CONTINUOUS
 62
7
 10
3.3488414638394
 20
10.17692503467
  0
VERTEX
  8
EFKV.2a
  6
CONTINUOUS
 62
7
 10
3.3513414638394
 20
10.16672503467
  0
SEQEND
  0
POLYLINE
  8
EFKV.2a
  6
CONTINUOUS
 62
7
 70
0
 66
1
  0
VERTEX
  8
EFKV.2a
  6
CONTINUOUS
 62
7
 10
3.6038861598534
 20
10.294194680447
  0
VERTEX
  8
EFKV.2a
  6
CONTINUOUS
 62
7
 10
3.5987861598534
 20
10.306894680447
  0
VERTEX
  8
EFKV.2a
  6
CONTINUOUS
 62
7
 10
3.6063861598534
 20
10.306894680447
  0
VERTEX
  8
EFKV.2a
  6
CONTINUOUS
 62
7
 10
3.6038861598534
 20
10.294194680447
  0
SEQEND
  0
POLYLINE
  8
EFKV.2a
  6
CONTINUOUS
 62
7
 70
0
 66
1
  0
VERTEX
  8
EFKV.2a
  6
CONTINUOUS
 62
7
 10
3.5155857673119
 20
8.8837345561398
  0
VERTEX
  8
EFKV.2a
  6
CONTINUOUS
 62
7
 10
3.5130857673119
 20
8.8914345561398
  0
VERTEX
  8
EFKV.2a
  6
CONTINUOUS
 62
7
 10
3.5232857673119
 20
8.8837345561398
  0
VERTEX
  8
EFKV.2a
  6
CONTINUOUS
 62
7
 10
3.5155857673119
 20
8.8837345561398
  0
SEQEND
  0
POLYLINE
  8
EFKV.2a
  6
CONTINUOUS
 62
7
 70
0
 66
1
  0
VERTEX
  8
EFKV.2a
  6
CONTINUOUS
 62
7
 10
3.5740378304925
 20
9.0568645178207
  0
VERTEX
  8
EFKV.2a
  6
CONTINUOUS
 62
7
 10
3.5740378304925
 20
9.0695645178207
  0
VERTEX
  8
EFKV.2a
  6
CONTINUOUS
 62
7
 10
3.5766378304925
 20
9.0746645178207
  0
VERTEX
  8
EFKV.2a
  6
CONTINUOUS
 62
7
 10
3.5740378304925
 20
9.0568645178207
  0
SEQEND
  0
POLYLINE
  8
EFKV.2a
  6
CONTINUOUS
 62
7
 70
0
 66
1
  0
VERTEX
  8
EFKV.2a
  6
CONTINUOUS
 62
7
 10
3.3043250588671
 20
9.1266522392097
  0
VERTEX
  8
EFKV.2a
  6
CONTINUOUS
 62
7
 10
3.2992250588671
 20
9.1393522392097
  0
VERTEX
  8
EFKV.2a
  6
CONTINUOUS
 62
7
 10
3.3068250588671
 20
9.1393522392097
  0
VERTEX
  8
EFKV.2a
  6
CONTINUOUS
 62
7
 10
3.3043250588671
 20
9.1266522392097
  0
SEQEND
  0
LINE
  8
EFKV.2a
  6
CONTINUOUS
 62
8
 10
4.7457666516172
 20
10.217086033811
 11
4.2753042287083
 21
9.9454644273012
  0
LINE
  8
EFKV.2a
  6
CONTINUOUS
 62
8
 10
3.954041337657
 20
9.149359487025
 11
3.9865216526176
 21
9.1681120056109
  0
LINE
  8
EFKV.2a
  6
CONTINUOUS
 62
8
 10
3.9384897628539
 20
9.9454644273012
 11
4.2068464557672
 21
9.7905286184088
  0
LINE
  8
EFKV.2a
  6
CONTINUOUS
 62
8
 10
4.5333785370824
 20
10.28892362124
 11
4.5333785370824
 21
10.094463698712
  0
LINE
  8
EFKV.2a
  6
CONTINUOUS
 62
8
 10
4.4940084583422
 20
10.311653946799
 11
4.5333785370824
 21
10.28892362124
  0
LINE
  8
EFKV.2a
  6
CONTINUOUS
 62
8
 10
4.1674763770271
 20
9.7677982928501
 11
4.2068464557672
 21
9.7905286184088
  0
LINE
  8
EFKV.2a
  6
CONTINUOUS
 62
8
 10
4.4940084583422
 20
10.311653946799
 11
3.8991196841137
 21
9.9681947528598
  0
LINE
  8
EFKV.2a
  6
CONTINUOUS
 62
8
 10
4.5333785370824
 20
10.28892362124
 11
3.9384897628539
 21
9.9454644273012
  0
LINE
  8
EFKV.2a
  6
CONTINUOUS
 62
8
 10
3.8366670426223
 20
10.004251802236
 11
3.8991196841137
 21
9.9681947528598
  0
LINE
  8
EFKV.2a
  6
CONTINUOUS
 62
8
 10
4.2068464557672
 20
9.7905286184088
 11
4.2068464557672
 21
9.1290117378471
  0
LINE
  8
EFKV.2a
  6
CONTINUOUS
 62
8
 10
4.1674763770271
 20
9.7677982928501
 11
4.1674763770271
 21
9.1517420634058
  0
LINE
  8
EFKV.2a
  6
CONTINUOUS
 62
8
 10
3.8366670426223
 20
9.9587911511192
 11
4.1674763770271
 21
9.7677982928501
  0
LINE
  8
EFKV.2a
  6
CONTINUOUS
 62
8
 10
3.8673319132309
 20
9.2369262337304
 11
3.8005491403193
 21
9.2754832856482
  0
LINE
  8
EFKV.2a
  6
CONTINUOUS
 62
8
 10
4.8247602093413
 20
8.7792839673655
 11
3.249957059735
 21
8.7792839673655
  0
LINE
  8
EFKV.2a
  6
CONTINUOUS
 62
8
 10
4.8247602093413
 20
10.354087116972
 11
4.8247602093413
 21
8.7792839673655
  0
LINE
  8
EFKV.2a
  6
CONTINUOUS
 62
8
 10
3.249957059735
 20
10.354087116972
 11
4.8247602093413
 21
10.354087116972
  0
LINE
  8
EFKV.2a
  6
CONTINUOUS
 62
8
 10
3.249957059735
 20
8.7792839673655
 11
3.249957059735
 21
10.354087116972
  0
LINE
  8
EFKV.2a
  6
CONTINUOUS
 62
8
 10
3.8005491403193
 20
9.2754832856482
 11
3.8005491403193
 21
9.2379782484764
  0
LINE
  8
EFKV.2a
  6
CONTINUOUS
 62
8
 10
3.7603664662257
 20
9.2986827633529
 11
3.7603664662257
 21
9.2522838079434
  0
LINE
  8
EFKV.2a
  6
CONTINUOUS
 62
8
 10
3.727886151265
 20
9.279930244767
 11
3.727886151265
 21
9.2335312893575
  0
LINE
  8
EFKV.2a
  6
CONTINUOUS
 62
8
 10
3.727886151265
 20
9.4812079327788
 11
3.7603664662257
 21
9.4999604513647
  0
LINE
  8
EFKV.2a
  6
CONTINUOUS
 62
8
 10
3.727886151265
 20
9.4812079327788
 11
3.727886151265
 21
9.3665072453922
  0
LINE
  8
EFKV.2a
  6
CONTINUOUS
 62
8
 10
3.6515855748684
 20
10.354087116972
 11
3.6515855748684
 21
9.3224550870702
  0
LINE
  8
EFKV.2a
  6
CONTINUOUS
 62
8
 10
3.727886151265
 20
9.3665072453922
 11
3.6515855748684
 21
9.3224550870702
  0
LINE
  8
EFKV.2a
  6
CONTINUOUS
 62
8
 10
3.6515855748684
 20
9.3224550870702
 11
3.249957059735
 21
9.5543354183967
  0
LINE
  8
EFKV.2a
  6
CONTINUOUS
 62
8
 10
3.954041337657
 20
9.149359487025
 11
3.7680688253587
 21
9.2567307670623
  0
LINE
  8
EFKV.2a
  6
CONTINUOUS
 62
8
 10
4.4424297875513
 20
8.7792839673655
 11
3.6917682489621
 21
9.2126786087403
  0
LINE
  8
EFKV.2a
  6
CONTINUOUS
 62
8
 10
3.6917682489621
 20
9.2126786087403
 11
3.691768248962
 21
8.7792839673655
  0
LINE
  8
EFKV.2a
  6
CONTINUOUS
 62
8
 10
3.7680688253587
 20
9.2567307670623
 11
3.6917682489621
 21
9.2126786087403
  0
LINE
  8
EFKV.2a
  6
CONTINUOUS
 62
8
 10
3.727886151265
 20
9.279930244767
 11
3.6515855748684
 21
9.2358780864451
  0
LINE
  8
EFKV.2a
  6
CONTINUOUS
 62
8
 10
3.727886151265
 20
9.279930244767
 11
3.6529082693402
 21
9.3232187450796
  0
LINE
  8
EFKV.2a
  6
CONTINUOUS
 62
8
 10
3.6515855748684
 20
9.2358780864451
 11
3.6515855748684
 21
8.7792839673655
  0
LINE
  8
EFKV.2a
  6
CONTINUOUS
 62
8
 10
3.6515855748684
 20
9.2358780864451
 11
3.249957059735
 21
9.4677584177716
  0
LINE
  8
EFKV.2a
  6
CONTINUOUS
 62
8
 10
3.9865216526176
 20
9.1681120056109
 11
3.9568530609958
 21
9.1852411749702
  0
LINE
  8
EFKV.2a
  6
CONTINUOUS
 62
8
 10
4.8125927230592
 20
8.7792839673655
 11
4.0331536373925
 21
9.2292933332921
  0
LINE
  8
EFKV.2a
  6
CONTINUOUS
 62
8
 10
3.8366670426223
 20
9.3427349216748
 11
3.7616891606975
 21
9.3860234219874
  0
LINE
  8
EFKV.2a
  6
CONTINUOUS
 62
8
 10
3.864531213306
 20
9.3124233527103
 11
3.8005491403193
 21
9.2754832856482
  0
LINE
  8
EFKV.2a
  6
CONTINUOUS
 62
8
 10
3.8366670426223
 20
10.354087116972
 11
3.8366670426223
 21
9.4293119223
  0
LINE
  8
EFKV.2a
  6
CONTINUOUS
 62
8
 10
3.7603664662257
 20
9.4999604513647
 11
3.7603664662257
 21
9.3852597639781
  0
LINE
  8
EFKV.2a
  6
CONTINUOUS
 62
8
 10
3.8366670426223
 20
9.3427349216748
 11
3.8366670426223
 21
9.2963359662654
  0
LINE
  8
EFKV.2a
  6
CONTINUOUS
 62
8
 10
3.8366670426223
 20
9.4293119223
 11
3.7603664662257
 21
9.3852597639781
  0
LINE
  8
EFKV.2a
  6
CONTINUOUS
 62
8
 10
3.7603664662257
 20
9.3852597639781
 11
3.727886151265
 21
9.4040122825639
  0
LINE
  8
EFKV.2a
  6
CONTINUOUS
 62
8
 10
3.7603664662257
 20
9.2986827633529
 11
3.6853885843008
 21
9.3419712636655
  0
LINE
  8
EFKV.2a
  6
CONTINUOUS
 62
8
 10
3.8366670426223
 20
9.3427349216748
 11
3.7603664662257
 21
9.2986827633529
  0
LINE
  8
EFKV.2a
  6
CONTINUOUS
 62
8
 10
4.1349960620665
 20
9.5444728442364
 11
4.1349960620665
 21
9.1704945819917
  0
LINE
  8
EFKV.2a
  6
CONTINUOUS
 62
8
 10
3.8366670426223
 20
9.7167131839196
 11
4.1349960620665
 21
9.5444728442364
  0
LINE
  8
EFKV.2a
  6
CONTINUOUS
 62
8
 10
3.9412460620665
 20
9.3661429951696
 11
3.864531213306
 21
9.4104343337522
  0
LINE
  8
EFKV.2a
  6
CONTINUOUS
 62
8
 10
4.0670746975927
 20
9.2933619888527
 11
4.0434166444601
 21
9.3070209721973
  0
LINE
  8
EFKV.2a
  6
CONTINUOUS
 62
8
 10
4.0670746975927
 20
9.4902123825535
 11
4.0670746975927
 21
9.2933619888527
  0
LINE
  8
EFKV.2a
  6
CONTINUOUS
 62
8
 10
4.0670746975927
 20
9.2483693390611
 11
4.0670746975927
 21
9.2097090000543
  0
LINE
  8
EFKV.2a
  6
CONTINUOUS
 62
8
 10
3.9412460620665
 20
9.3661429951696
 11
3.9412460620665
 21
9.2542198364223
  0
LINE
  8
EFKV.2a
  6
CONTINUOUS
 62
8
 10
3.864531213306
 20
9.4104343337522
 11
3.864531213306
 21
9.298511175005
  0
LINE
  8
EFKV.2a
  6
CONTINUOUS
 62
8
 10
4.1349960620665
 20
9.5444728442364
 11
4.147791337657
 21
9.551860200043
  0
LINE
  8
EFKV.2a
  6
CONTINUOUS
 62
8
 10
3.864531213306
 20
9.4104343337522
 11
3.8773264888966
 21
9.4178216895588
  0
LINE
  8
EFKV.2a
  6
CONTINUOUS
 62
8
 10
3.9457297840096
 20
9.25062143702
 11
4.0477852452963
 21
9.3095431850661
  0
LINE
  8
EFKV.2a
  6
CONTINUOUS
 62
8
 10
3.9412460620665
 20
9.3661429951696
 11
3.954041337657
 21
9.3735303509761
  0
LINE
  8
EFKV.2a
  6
CONTINUOUS
 62
8
 10
3.9412460620665
 20
9.1864334574544
 11
3.9412460620665
 21
9.1567468428315
  0
LINE
  8
EFKV.2a
  6
CONTINUOUS
 62
8
 10
3.942925706536
 20
9.2502939427934
 11
3.8662108577756
 21
9.2945852813761
  0
LINE
  8
EFKV.2a
  6
CONTINUOUS
 62
8
 10
3.8631210620665
 20
9.2315389472348
 11
3.8631210620665
 21
9.201852332612
  0
LINE
  8
EFKV.2a
  6
CONTINUOUS
 62
8
 10
3.9562643604943
 20
9.5541887605063
 11
3.9562643604943
 21
9.3600609663677
  0
LINE
  8
EFKV.2a
  6
CONTINUOUS
 62
8
 10
4.0670746975927
 20
9.3081367004659
 11
4.0628222290143
 21
9.3105918643443
  0
LINE
  8
EFKV.2a
  6
CONTINUOUS
 62
8
 10
3.954041337657
 20
9.3735303509761
 11
3.954041337657
 21
9.2732881541961
  0
LINE
  8
EFKV.2a
  6
CONTINUOUS
 62
8
 10
3.9562830457845
 20
9.2714890771596
 11
4.0583385070711
 21
9.3304108252057
  0
LINE
  8
EFKV.2a
  6
CONTINUOUS
 62
8
 10
3.9690596360849
 20
9.5468014046997
 11
3.9690596360849
 21
9.3674483221742
  0
LINE
  8
EFKV.2a
  6
CONTINUOUS
 62
8
 10
3.954041337657
 20
9.3735303509761
 11
3.8773264888966
 21
9.4178216895588
  0
LINE
  8
EFKV.2a
  6
CONTINUOUS
 62
8
 10
3.954041337657
 20
9.1821398512937
 11
3.954041337657
 21
9.149359487025
  0
LINE
  8
EFKV.2a
  6
CONTINUOUS
 62
8
 10
3.864800706536
 20
9.2354648408638
 11
3.9167055855224
 21
9.2654321367188
  0
LINE
  8
EFKV.2a
  6
CONTINUOUS
 62
8
 10
4.0670746975927
 20
9.2483693390611
 11
4.004451866757
 21
9.2845246473015
  0
LINE
  8
EFKV.2a
  6
CONTINUOUS
 62
8
 10
4.147791337657
 20
9.551860200043
 11
4.147791337657
 21
9.1631072261851
  0
LINE
  8
EFKV.2a
  6
CONTINUOUS
 62
8
 10
3.8366670426223
 20
9.7314878955327
 11
4.147791337657
 21
9.551860200043
  0
LINE
  8
EFKV.2a
  6
CONTINUOUS
 62
8
 10
4.0500269534237
 20
9.3077441080296
 11
4.0500269534237
 21
9.3032045085378
  0
LINE
  8
EFKV.2a
  6
CONTINUOUS
 62
8
 10
4.0500269534237
 20
9.3032045085378
 11
4.0628222290143
 21
9.3105918643443
  0
LINE
  8
EFKV.2a
  6
CONTINUOUS
 62
8
 10
4.0628222290143
 20
9.3268124258034
 11
4.0628222290143
 21
9.3105918643443
  0
LINE
  8
EFKV.2a
  6
CONTINUOUS
 62
8
 10
3.954041337657
 20
9.3587775035341
 11
3.9816236583107
 21
9.3747021637884
  0
LINE
  8
EFKV.2a
  6
CONTINUOUS
 62
8
 10
4.0611425845447
 20
9.3307383194323
 11
3.9844277357843
 21
9.375029658015
  0
LINE
  8
EFKV.2a
  6
CONTINUOUS
 62
8
 10
4.0628222290143
 20
9.3268124258034
 11
4.0626310358421
 21
9.3286761469883
  0
LINE
  8
EFKV.2a
  6
CONTINUOUS
 62
8
 10
4.0626310358421
 20
9.3286761469883
 11
4.0620657334454
 21
9.3299974486793
  0
LINE
  8
EFKV.2a
  6
CONTINUOUS
 62
8
 10
4.0620657334454
 20
9.3299974486793
 11
4.0611425845447
 21
9.3307383194323
  0
LINE
  8
EFKV.2a
  6
CONTINUOUS
 62
8
 10
4.0611425845447
 20
9.3307383194323
 11
4.0598881464533
 21
9.3308774457447
  0
LINE
  8
EFKV.2a
  6
CONTINUOUS
 62
8
 10
4.0598881464533
 20
9.3308774457447
 11
4.0583385070711
 21
9.3304108252057
  0
LINE
  8
EFKV.2a
  6
CONTINUOUS
 62
8
 10
4.0500269534237
 20
9.3077441080296
 11
4.0499313633552
 21
9.3086759050903
  0
LINE
  8
EFKV.2a
  6
CONTINUOUS
 62
8
 10
4.0499313633552
 20
9.3086759050903
 11
4.0496487314272
 21
9.3093365108943
  0
LINE
  8
EFKV.2a
  6
CONTINUOUS
 62
8
 10
4.0496487314272
 20
9.3093365108943
 11
4.0491871884458
 21
9.3097069210155
  0
LINE
  8
EFKV.2a
  6
CONTINUOUS
 62
8
 10
4.0491871884458
 20
9.3097069210155
 11
4.0485600121622
 21
9.3097764794291
  0
LINE
  8
EFKV.2a
  6
CONTINUOUS
 62
8
 10
4.0485600121622
 20
9.3097764794291
 11
4.0477852452963
 21
9.3095431850661
  0
LINE
  8
EFKV.2a
  6
CONTINUOUS
 62
8
 10
3.9844277357843
 20
9.375029658015
 11
3.9831732976929
 21
9.3751687843274
  0
LINE
  8
EFKV.2a
  6
CONTINUOUS
 62
8
 10
3.9831732976929
 20
9.3751687843274
 11
3.9816236583107
 21
9.3747021637884
  0
LINE
  8
EFKV.2a
  6
CONTINUOUS
 62
8
 10
4.0500269534237
 20
9.2536722592544
 11
4.0500269534237
 21
9.2582118587462
  0
LINE
  8
EFKV.2a
  6
CONTINUOUS
 62
8
 10
4.0628222290143
 20
9.2493786530937
 11
4.0626310358421
 21
9.2475149319087
  0
LINE
  8
EFKV.2a
  6
CONTINUOUS
 62
8
 10
4.0626310358421
 20
9.2475149319087
 11
4.0620657334454
 21
9.2461936302178
  0
LINE
  8
EFKV.2a
  6
CONTINUOUS
 62
8
 10
4.0620657334454
 20
9.2461936302178
 11
4.0611425845447
 21
9.2454527594648
  0
LINE
  8
EFKV.2a
  6
CONTINUOUS
 62
8
 10
4.0500269534237
 20
9.2536722592544
 11
4.0499313633552
 21
9.2527404621937
  0
LINE
  8
EFKV.2a
  6
CONTINUOUS
 62
8
 10
4.0499313633552
 20
9.2527404621937
 11
4.0496487314272
 21
9.2520798563896
  0
LINE
  8
EFKV.2a
  6
CONTINUOUS
 62
8
 10
4.0496487314272
 20
9.2520798563896
 11
4.0491871884458
 21
9.2517094462684
  0
LINE
  8
EFKV.2a
  6
CONTINUOUS
 62
8
 10
4.0628222290143
 20
9.2493786530937
 11
4.0628222290143
 21
9.2508245029396
  0
LINE
  8
EFKV.2a
  6
CONTINUOUS
 62
8
 10
3.9548811026349
 20
9.1841026642797
 11
4.0611425845447
 21
9.2454527594648
  0
LINE
  8
EFKV.2a
  6
CONTINUOUS
 62
8
 10
3.942925706536
 20
9.1903593510833
 11
4.0491871884458
 21
9.2517094462684
  0
LINE
  8
EFKV.2a
  6
CONTINUOUS
 62
8
 10
3.9412460620665
 20
9.2542198364223
 11
3.9414372552386
 21
9.2523561152374
  0
LINE
  8
EFKV.2a
  6
CONTINUOUS
 62
8
 10
3.9414372552386
 20
9.2523561152374
 11
3.9420025576354
 21
9.2510348135464
  0
LINE
  8
EFKV.2a
  6
CONTINUOUS
 62
8
 10
3.9420025576354
 20
9.2510348135464
 11
3.942925706536
 21
9.2502939427934
  0
LINE
  8
EFKV.2a
  6
CONTINUOUS
 62
8
 10
3.942925706536
 20
9.2502939427934
 11
3.9441801446274
 21
9.250154816481
  0
LINE
  8
EFKV.2a
  6
CONTINUOUS
 62
8
 10
3.9441801446274
 20
9.250154816481
 11
3.9457297840096
 21
9.25062143702
  0
LINE
  8
EFKV.2a
  6
CONTINUOUS
 62
8
 10
3.954041337657
 20
9.2732881541961
 11
3.9541369277256
 21
9.2723563571354
  0
LINE
  8
EFKV.2a
  6
CONTINUOUS
 62
8
 10
3.9541369277256
 20
9.2723563571354
 11
3.9544195596535
 21
9.2716957513314
  0
LINE
  8
EFKV.2a
  6
CONTINUOUS
 62
8
 10
3.9544195596535
 20
9.2716957513314
 11
3.9548811026349
 21
9.2713253412102
  0
LINE
  8
EFKV.2a
  6
CONTINUOUS
 62
8
 10
3.9548811026349
 20
9.2713253412102
 11
3.9555082789185
 21
9.2712557827966
  0
LINE
  8
EFKV.2a
  6
CONTINUOUS
 62
8
 10
3.9555082789185
 20
9.2712557827966
 11
3.9562830457845
 21
9.2714890771596
  0
LINE
  8
EFKV.2a
  6
CONTINUOUS
 62
8
 10
3.864531213306
 20
9.298511175005
 11
3.8647224064782
 21
9.29664745382
  0
LINE
  8
EFKV.2a
  6
CONTINUOUS
 62
8
 10
3.8647224064782
 20
9.29664745382
 11
3.8652877088749
 21
9.2953261521291
  0
LINE
  8
EFKV.2a
  6
CONTINUOUS
 62
8
 10
3.8652877088749
 20
9.2953261521291
 11
3.8662108577756
 21
9.2945852813761
  0
LINE
  8
EFKV.2a
  6
CONTINUOUS
 62
8
 10
3.954041337657
 20
9.1821398512937
 11
3.9541369277256
 21
9.1830716483544
  0
LINE
  8
EFKV.2a
  6
CONTINUOUS
 62
8
 10
3.9541369277256
 20
9.1830716483544
 11
3.9544195596535
 21
9.1837322541585
  0
LINE
  8
EFKV.2a
  6
CONTINUOUS
 62
8
 10
3.9544195596535
 20
9.1837322541585
 11
3.9548811026349
 21
9.1841026642797
  0
LINE
  8
EFKV.2a
  6
CONTINUOUS
 62
8
 10
3.8631210620665
 20
9.2315389472348
 11
3.8633122552386
 21
9.2334026684198
  0
LINE
  8
EFKV.2a
  6
CONTINUOUS
 62
8
 10
3.8633122552386
 20
9.2334026684198
 11
3.8638775576354
 21
9.2347239701108
  0
LINE
  8
EFKV.2a
  6
CONTINUOUS
 62
8
 10
3.8638775576354
 20
9.2347239701108
 11
3.864800706536
 21
9.2354648408638
  0
LINE
  8
EFKV.2a
  6
CONTINUOUS
 62
8
 10
3.9412460620665
 20
9.1864334574544
 11
3.9414372552386
 21
9.1882971786394
  0
LINE
  8
EFKV.2a
  6
CONTINUOUS
 62
8
 10
3.9414372552386
 20
9.1882971786394
 11
3.9420025576354
 21
9.1896184803303
  0
LINE
  8
EFKV.2a
  6
CONTINUOUS
 62
8
 10
3.9420025576354
 20
9.1896184803303
 11
3.942925706536
 21
9.1903593510833
  0
LINE
  8
EFKV.2a
  6
CONTINUOUS
 62
8
 10
3.7770063991649
 20
9.3948668337398
 11
3.7770063991649
 21
9.377180010235
  0
LINE
  8
EFKV.2a
  6
CONTINUOUS
 62
8
 10
3.8465095623074
 20
9.5927396019793
 11
3.846799079395
 21
9.5869714638453
  0
LINE
  8
EFKV.2a
  6
CONTINUOUS
 62
8
 10
3.846799079395
 20
9.5869714638453
 11
3.8476593017784
 21
9.5813692645435
  0
LINE
  8
EFKV.2a
  6
CONTINUOUS
 62
8
 10
3.8476593017784
 20
9.5813692645435
 11
3.8490654824258
 21
9.5760941691477
  0
LINE
  8
EFKV.2a
  6
CONTINUOUS
 62
8
 10
3.8490654824258
 20
9.5760941691477
 11
3.8509771680802
 21
9.5712979325483
  0
LINE
  8
EFKV.2a
  6
CONTINUOUS
 62
8
 10
3.8509771680802
 20
9.5712979325483
 11
3.8533393630259
 21
9.5671185337396
  0
LINE
  8
EFKV.2a
  6
CONTINUOUS
 62
8
 10
3.8533393630259
 20
9.5671185337396
 11
3.8560841112152
 21
9.563676206416
  0
LINE
  8
EFKV.2a
  6
CONTINUOUS
 62
8
 10
3.8560841112152
 20
9.563676206416
 11
3.85913245124
 21
9.5610699800672
  0
LINE
  8
EFKV.2a
  6
CONTINUOUS
 62
8
 10
3.85913245124
 20
9.5610699800672
 11
3.8623966879079
 21
9.5593748310801
  0
LINE
  8
EFKV.2a
  6
CONTINUOUS
 62
8
 10
3.8623966879079
 20
9.5593748310801
 11
3.8657829150732
 21
9.5586395258046
  0
LINE
  8
EFKV.2a
  6
CONTINUOUS
 62
8
 10
3.8657829150732
 20
9.5586395258046
 11
3.8691937171455
 21
9.5588852176349
  0
LINE
  8
EFKV.2a
  6
CONTINUOUS
 62
8
 10
3.8691937171455
 20
9.5588852176349
 11
3.8725309715594
 21
9.5601048384642
  0
LINE
  8
EFKV.2a
  6
CONTINUOUS
 62
8
 10
3.8725309715594
 20
9.5601048384642
 11
3.8756986715814
 21
9.5622633020218
  0
LINE
  8
EFKV.2a
  6
CONTINUOUS
 62
8
 10
3.8756986715814
 20
9.5622633020218
 11
3.8786056882493
 21
9.5652985132412
  0
LINE
  8
EFKV.2a
  6
CONTINUOUS
 62
8
 10
3.8786056882493
 20
9.5652985132412
 11
3.8811683919863
 21
9.5691231546217
  0
LINE
  8
EFKV.2a
  6
CONTINUOUS
 62
8
 10
3.8811683919863
 20
9.5691231546217
 11
3.883313058472
 21
9.5736271981944
  0
LINE
  8
EFKV.2a
  6
CONTINUOUS
 62
8
 10
3.883313058472
 20
9.5736271981944
 11
3.8849779895562
 21
9.578681070826
  0
LINE
  8
EFKV.2a
  6
CONTINUOUS
 62
8
 10
3.8849779895562
 20
9.578681070826
 11
3.886115288203
 21
9.5841393818027
  0
LINE
  8
EFKV.2a
  6
CONTINUOUS
 62
8
 10
3.886115288203
 20
9.5841393818027
 11
3.886692236401
 21
9.5898451054554
  0
LINE
  8
EFKV.2a
  6
CONTINUOUS
 62
8
 10
3.886692236401
 20
9.6095301448255
 11
3.886692236401
 21
9.6153191378732
  0
LINE
  8
EFKV.2a
  6
CONTINUOUS
 62
8
 10
3.886692236401
 20
9.6153191378732
 11
3.886115288203
 21
9.6210248615259
  0
LINE
  8
EFKV.2a
  6
CONTINUOUS
 62
8
 10
3.886115288203
 20
9.6210248615259
 11
3.8849779895562
 21
9.6264831725026
  0
LINE
  8
EFKV.2a
  6
CONTINUOUS
 62
8
 10
3.8849779895562
 20
9.6264831725026
 11
3.883313058472
 21
9.6315370451342
  0
LINE
  8
EFKV.2a
  6
CONTINUOUS
 62
8
 10
3.883313058472
 20
9.6315370451342
 11
3.8811683919863
 21
9.6360410887069
  0
LINE
  8
EFKV.2a
  6
CONTINUOUS
 62
8
 10
3.8811683919863
 20
9.6360410887069
 11
3.8786056882493
 21
9.6398657300874
  0
LINE
  8
EFKV.2a
  6
CONTINUOUS
 62
8
 10
3.8786056882493
 20
9.6398657300874
 11
3.8756986715814
 21
9.6429009413068
  0
LINE
  8
EFKV.2a
  6
CONTINUOUS
 62
8
 10
3.8756986715814
 20
9.6429009413068
 11
3.8725309715594
 21
9.6450594048644
  0
LINE
  8
EFKV.2a
  6
CONTINUOUS
 62
8
 10
3.8725309715594
 20
9.6450594048644
 11
3.8691937171455
 21
9.6462790256937
  0
LINE
  8
EFKV.2a
  6
CONTINUOUS
 62
8
 10
3.8691937171455
 20
9.6462790256937
 11
3.8657829150732
 21
9.646524717524
  0
LINE
  8
EFKV.2a
  6
CONTINUOUS
 62
8
 10
3.8657829150732
 20
9.646524717524
 11
3.8623966879079
 21
9.6457894122485
  0
LINE
  8
EFKV.2a
  6
CONTINUOUS
 62
8
 10
3.8623966879079
 20
9.6457894122485
 11
3.85913245124
 21
9.6440942632614
  0
LINE
  8
EFKV.2a
  6
CONTINUOUS
 62
8
 10
3.85913245124
 20
9.6440942632614
 11
3.8560841112152
 21
9.6414880369126
  0
LINE
  8
EFKV.2a
  6
CONTINUOUS
 62
8
 10
3.8560841112152
 20
9.6414880369126
 11
3.8533393630259
 21
9.638045709589
  0
LINE
  8
EFKV.2a
  6
CONTINUOUS
 62
8
 10
3.8533393630259
 20
9.638045709589
 11
3.8509771680802
 21
9.6338663107803
  0
LINE
  8
EFKV.2a
  6
CONTINUOUS
 62
8
 10
3.8509771680802
 20
9.6338663107803
 11
3.8490654824258
 21
9.6290700741809
  0
LINE
  8
EFKV.2a
  6
CONTINUOUS
 62
8
 10
3.8490654824258
 20
9.6290700741809
 11
3.8476593017784
 21
9.6237949787851
  0
LINE
  8
EFKV.2a
  6
CONTINUOUS
 62
8
 10
3.8476593017784
 20
9.6237949787851
 11
3.846799079395
 21
9.6181927794833
  0
LINE
  8
EFKV.2a
  6
CONTINUOUS
 62
8
 10
3.846799079395
 20
9.6181927794833
 11
3.8465095623074
 21
9.6124246413493
  0
LINE
  8
EFKV.2a
  6
CONTINUOUS
 62
8
 10
3.8465095623074
 20
9.6124246413493
 11
3.8465095623074
 21
9.5927396019793
  0
LINE
  8
EFKV.2a
  6
CONTINUOUS
 62
8
 10
3.886692236401
 20
9.6095301448255
 11
3.886692236401
 21
9.5898451054554
  0
LINE
  8
EFKV.2a
  6
CONTINUOUS
 62
8
 10
4.0809077878424
 20
9.2529142275462
 11
4.08119730493
 21
9.2471460894122
  0
LINE
  8
EFKV.2a
  6
CONTINUOUS
 62
8
 10
4.08119730493
 20
9.2471460894122
 11
4.0820575273134
 21
9.2415438901104
  0
LINE
  8
EFKV.2a
  6
CONTINUOUS
 62
8
 10
4.0820575273134
 20
9.2415438901104
 11
4.0834637079608
 21
9.2362687947146
  0
LINE
  8
EFKV.2a
  6
CONTINUOUS
 62
8
 10
4.0834637079608
 20
9.2362687947146
 11
4.0853753936152
 21
9.2314725581152
  0
LINE
  8
EFKV.2a
  6
CONTINUOUS
 62
8
 10
4.0853753936152
 20
9.2314725581152
 11
4.0877375885609
 21
9.2272931593065
  0
LINE
  8
EFKV.2a
  6
CONTINUOUS
 62
8
 10
4.0877375885609
 20
9.2272931593065
 11
4.0904823367502
 21
9.2238508319829
  0
LINE
  8
EFKV.2a
  6
CONTINUOUS
 62
8
 10
4.0904823367502
 20
9.2238508319829
 11
4.093530676775
 21
9.2212446056341
  0
LINE
  8
EFKV.2a
  6
CONTINUOUS
 62
8
 10
4.093530676775
 20
9.2212446056341
 11
4.096794913443
 21
9.219549456647
  0
LINE
  8
EFKV.2a
  6
CONTINUOUS
 62
8
 10
4.096794913443
 20
9.219549456647
 11
4.1001811406082
 21
9.2188141513715
  0
LINE
  8
EFKV.2a
  6
CONTINUOUS
 62
8
 10
4.1001811406082
 20
9.2188141513715
 11
4.1035919426806
 21
9.2190598432018
  0
LINE
  8
EFKV.2a
  6
CONTINUOUS
 62
8
 10
4.1035919426806
 20
9.2190598432018
 11
4.1069291970944
 21
9.2202794640311
  0
LINE
  8
EFKV.2a
  6
CONTINUOUS
 62
8
 10
4.1069291970944
 20
9.2202794640311
 11
4.1100968971164
 21
9.2224379275888
  0
LINE
  8
EFKV.2a
  6
CONTINUOUS
 62
8
 10
4.1100968971164
 20
9.2224379275888
 11
4.1130039137843
 21
9.2254731388081
  0
LINE
  8
EFKV.2a
  6
CONTINUOUS
 62
8
 10
4.1130039137843
 20
9.2254731388081
 11
4.1155666175214
 21
9.2292977801887
  0
LINE
  8
EFKV.2a
  6
CONTINUOUS
 62
8
 10
4.1155666175214
 20
9.2292977801887
 11
4.117711284007
 21
9.2338018237613
  0
LINE
  8
EFKV.2a
  6
CONTINUOUS
 62
8
 10
4.117711284007
 20
9.2338018237613
 11
4.1193762150912
 21
9.2388556963929
  0
LINE
  8
EFKV.2a
  6
CONTINUOUS
 62
8
 10
4.1193762150912
 20
9.2388556963929
 11
4.120513513738
 21
9.2443140073696
  0
LINE
  8
EFKV.2a
  6
CONTINUOUS
 62
8
 10
4.120513513738
 20
9.2443140073696
 11
4.121090461936
 21
9.2500197310223
  0
LINE
  8
EFKV.2a
  6
CONTINUOUS
 62
8
 10
4.121090461936
 20
9.2500197310223
 11
4.121090461936
 21
9.25580872407
  0
LINE
  8
EFKV.2a
  6
CONTINUOUS
 62
8
 10
4.121090461936
 20
9.25580872407
 11
4.120513513738
 21
9.2615144477228
  0
LINE
  8
EFKV.2a
  6
CONTINUOUS
 62
8
 10
4.120513513738
 20
9.2615144477228
 11
4.1193762150912
 21
9.2669727586994
  0
LINE
  8
EFKV.2a
  6
CONTINUOUS
 62
8
 10
4.1193762150912
 20
9.2669727586994
 11
4.117711284007
 21
9.2720266313311
  0
LINE
  8
EFKV.2a
  6
CONTINUOUS
 62
8
 10
4.117711284007
 20
9.2720266313311
 11
4.1155666175214
 21
9.2765306749037
  0
LINE
  8
EFKV.2a
  6
CONTINUOUS
 62
8
 10
4.1155666175214
 20
9.2765306749037
 11
4.1130039137843
 21
9.2803553162842
  0
LINE
  8
EFKV.2a
  6
CONTINUOUS
 62
8
 10
4.1130039137843
 20
9.2803553162842
 11
4.1100968971164
 21
9.2833905275036
  0
LINE
  8
EFKV.2a
  6
CONTINUOUS
 62
8
 10
4.1100968971164
 20
9.2833905275036
 11
4.1069291970944
 21
9.2855489910613
  0
LINE
  8
EFKV.2a
  6
CONTINUOUS
 62
8
 10
4.1069291970944
 20
9.2855489910613
 11
4.1035919426806
 21
9.2867686118906
  0
LINE
  8
EFKV.2a
  6
CONTINUOUS
 62
8
 10
4.1035919426806
 20
9.2867686118906
 11
4.1001811406082
 21
9.2870143037208
  0
LINE
  8
EFKV.2a
  6
CONTINUOUS
 62
8
 10
4.1001811406082
 20
9.2870143037208
 11
4.096794913443
 21
9.2862789984454
  0
LINE
  8
EFKV.2a
  6
CONTINUOUS
 62
8
 10
4.096794913443
 20
9.2862789984454
 11
4.093530676775
 21
9.2845838494582
  0
LINE
  8
EFKV.2a
  6
CONTINUOUS
 62
8
 10
4.093530676775
 20
9.2845838494582
 11
4.0904823367502
 21
9.2819776231094
  0
LINE
  8
EFKV.2a
  6
CONTINUOUS
 62
8
 10
4.0904823367502
 20
9.2819776231094
 11
4.0877375885609
 21
9.2785352957858
  0
LINE
  8
EFKV.2a
  6
CONTINUOUS
 62
8
 10
4.0877375885609
 20
9.2785352957858
 11
4.0853753936152
 21
9.2743558969772
  0
LINE
  8
EFKV.2a
  6
CONTINUOUS
 62
8
 10
4.0853753936152
 20
9.2743558969772
 11
4.0834637079608
 21
9.2695596603777
  0
LINE
  8
EFKV.2a
  6
CONTINUOUS
 62
8
 10
4.0834637079608
 20
9.2695596603777
 11
4.0820575273134
 21
9.264284564982
  0
LINE
  8
EFKV.2a
  6
CONTINUOUS
 62
8
 10
4.0820575273134
 20
9.264284564982
 11
4.08119730493
 21
9.2586823656801
  0
LINE
  8
EFKV.2a
  6
CONTINUOUS
 62
8
 10
4.08119730493
 20
9.2586823656801
 11
4.0809077878424
 21
9.2529142275462
  0
LINE
  8
EFKV.2a
  6
CONTINUOUS
 62
8
 10
4.0828762917794
 20
9.2517777112682
 11
4.083165808867
 21
9.2460095731343
  0
LINE
  8
EFKV.2a
  6
CONTINUOUS
 62
8
 10
4.083165808867
 20
9.2460095731343
 11
4.0840260312504
 21
9.2404073738324
  0
LINE
  8
EFKV.2a
  6
CONTINUOUS
 62
8
 10
4.0840260312504
 20
9.2404073738324
 11
4.0854322118978
 21
9.2351322784367
  0
LINE
  8
EFKV.2a
  6
CONTINUOUS
 62
8
 10
4.0854322118978
 20
9.2351322784367
 11
4.0873438975522
 21
9.2303360418372
  0
LINE
  8
EFKV.2a
  6
CONTINUOUS
 62
8
 10
4.0873438975522
 20
9.2303360418372
 11
4.0897060924979
 21
9.2261566430286
  0
LINE
  8
EFKV.2a
  6
CONTINUOUS
 62
8
 10
4.0897060924979
 20
9.2261566430286
 11
4.0924508406872
 21
9.222714315705
  0
LINE
  8
EFKV.2a
  6
CONTINUOUS
 62
8
 10
4.0924508406872
 20
9.222714315705
 11
4.0951361033244
 21
9.2204185080912
  0
LINE
  8
EFKV.2a
  6
CONTINUOUS
 62
8
 10
4.1081992226965
 20
9.2846677381287
 11
4.1055604466176
 21
9.2856320956126
  0
LINE
  8
EFKV.2a
  6
CONTINUOUS
 62
8
 10
4.1055604466176
 20
9.2856320956126
 11
4.1021496445452
 21
9.2858777874429
  0
LINE
  8
EFKV.2a
  6
CONTINUOUS
 62
8
 10
4.1021496445452
 20
9.2858777874429
 11
4.09876341738
 21
9.2851424821674
  0
LINE
  8
EFKV.2a
  6
CONTINUOUS
 62
8
 10
4.09876341738
 20
9.2851424821674
 11
4.095499180712
 21
9.2834473331803
  0
LINE
  8
EFKV.2a
  6
CONTINUOUS
 62
8
 10
4.095499180712
 20
9.2834473331803
 11
4.0924508406872
 21
9.2808411068315
  0
LINE
  8
EFKV.2a
  6
CONTINUOUS
 62
8
 10
4.0924508406872
 20
9.2808411068315
 11
4.0897060924979
 21
9.2773987795079
  0
LINE
  8
EFKV.2a
  6
CONTINUOUS
 62
8
 10
4.0897060924979
 20
9.2773987795079
 11
4.0873438975522
 21
9.2732193806992
  0
LINE
  8
EFKV.2a
  6
CONTINUOUS
 62
8
 10
4.0873438975522
 20
9.2732193806992
 11
4.0854322118978
 21
9.2684231440998
  0
LINE
  8
EFKV.2a
  6
CONTINUOUS
 62
8
 10
4.0854322118978
 20
9.2684231440998
 11
4.0840260312504
 21
9.263148048704
  0
LINE
  8
EFKV.2a
  6
CONTINUOUS
 62
8
 10
4.0840260312504
 20
9.263148048704
 11
4.083165808867
 21
9.2575458494022
  0
LINE
  8
EFKV.2a
  6
CONTINUOUS
 62
8
 10
4.083165808867
 20
9.2575458494022
 11
4.0828762917794
 21
9.2517777112682
  0
LINE
  8
EFKV.2a
  6
CONTINUOUS
 62
8
 10
4.0848447957164
 20
9.2506411949903
 11
4.085134312804
 21
9.2448730568564
  0
LINE
  8
EFKV.2a
  6
CONTINUOUS
 62
8
 10
4.085134312804
 20
9.2448730568564
 11
4.0859945351874
 21
9.2392708575545
  0
LINE
  8
EFKV.2a
  6
CONTINUOUS
 62
8
 10
4.0859945351874
 20
9.2392708575545
 11
4.0874007158348
 21
9.2339957621588
  0
LINE
  8
EFKV.2a
  6
CONTINUOUS
 62
8
 10
4.0874007158348
 20
9.2339957621588
 11
4.0893124014892
 21
9.2291995255593
  0
LINE
  8
EFKV.2a
  6
CONTINUOUS
 62
8
 10
4.0893124014892
 20
9.2291995255593
 11
4.091674596435
 21
9.2250201267506
  0
LINE
  8
EFKV.2a
  6
CONTINUOUS
 62
8
 10
4.091674596435
 20
9.2250201267506
 11
4.0944193446242
 21
9.2215777994271
  0
LINE
  8
EFKV.2a
  6
CONTINUOUS
 62
8
 10
4.0944193446242
 20
9.2215777994271
 11
4.0967769362435
 21
9.2195621393144
  0
LINE
  8
EFKV.2a
  6
CONTINUOUS
 62
8
 10
4.1095726018673
 20
9.2837487139778
 11
4.1075289505546
 21
9.2844955793347
  0
LINE
  8
EFKV.2a
  6
CONTINUOUS
 62
8
 10
4.1075289505546
 20
9.2844955793347
 11
4.1041181484822
 21
9.2847412711649
  0
LINE
  8
EFKV.2a
  6
CONTINUOUS
 62
8
 10
4.1041181484822
 20
9.2847412711649
 11
4.100731921317
 21
9.2840059658895
  0
LINE
  8
EFKV.2a
  6
CONTINUOUS
 62
8
 10
4.100731921317
 20
9.2840059658895
 11
4.0974676846491
 21
9.2823108169024
  0
LINE
  8
EFKV.2a
  6
CONTINUOUS
 62
8
 10
4.0974676846491
 20
9.2823108169024
 11
4.0944193446242
 21
9.2797045905535
  0
LINE
  8
EFKV.2a
  6
CONTINUOUS
 62
8
 10
4.0944193446242
 20
9.2797045905535
 11
4.091674596435
 21
9.27626226323
  0
LINE
  8
EFKV.2a
  6
CONTINUOUS
 62
8
 10
4.091674596435
 20
9.27626226323
 11
4.0893124014892
 21
9.2720828644213
  0
LINE
  8
EFKV.2a
  6
CONTINUOUS
 62
8
 10
4.0893124014892
 20
9.2720828644213
 11
4.0874007158348
 21
9.2672866278219
  0
LINE
  8
EFKV.2a
  6
CONTINUOUS
 62
8
 10
4.0874007158348
 20
9.2672866278219
 11
4.0859945351874
 21
9.2620115324261
  0
LINE
  8
EFKV.2a
  6
CONTINUOUS
 62
8
 10
4.0859945351874
 20
9.2620115324261
 11
4.085134312804
 21
9.2564093331243
  0
LINE
  8
EFKV.2a
  6
CONTINUOUS
 62
8
 10
4.085134312804
 20
9.2564093331243
 11
4.0848447957164
 21
9.2506411949903
  0
LINE
  8
EFKV.2a
  6
CONTINUOUS
 62
8
 10
4.0868132996534
 20
9.2495046787124
 11
4.087102816741
 21
9.2437365405784
  0
LINE
  8
EFKV.2a
  6
CONTINUOUS
 62
8
 10
4.087102816741
 20
9.2437365405784
 11
4.0879630391244
 21
9.2381343412766
  0
LINE
  8
EFKV.2a
  6
CONTINUOUS
 62
8
 10
4.0879630391244
 20
9.2381343412766
 11
4.0893692197718
 21
9.2328592458808
  0
LINE
  8
EFKV.2a
  6
CONTINUOUS
 62
8
 10
4.0893692197718
 20
9.2328592458808
 11
4.0912809054262
 21
9.2280630092814
  0
LINE
  8
EFKV.2a
  6
CONTINUOUS
 62
8
 10
4.0912809054262
 20
9.2280630092814
 11
4.093643100372
 21
9.2238836104727
  0
LINE
  8
EFKV.2a
  6
CONTINUOUS
 62
8
 10
4.093643100372
 20
9.2238836104727
 11
4.0963878485613
 21
9.2204412831491
  0
LINE
  8
EFKV.2a
  6
CONTINUOUS
 62
8
 10
4.1094974544916
 20
9.2833590630568
 11
4.1060866524192
 21
9.283604754887
  0
LINE
  8
EFKV.2a
  6
CONTINUOUS
 62
8
 10
4.1060866524192
 20
9.283604754887
 11
4.102700425254
 21
9.2828694496116
  0
LINE
  8
EFKV.2a
  6
CONTINUOUS
 62
8
 10
4.102700425254
 20
9.2828694496116
 11
4.0994361885861
 21
9.2811743006244
  0
LINE
  8
EFKV.2a
  6
CONTINUOUS
 62
8
 10
4.0994361885861
 20
9.2811743006244
 11
4.0963878485613
 21
9.2785680742756
  0
LINE
  8
EFKV.2a
  6
CONTINUOUS
 62
8
 10
4.0963878485613
 20
9.2785680742756
 11
4.093643100372
 21
9.275125746952
  0
LINE
  8
EFKV.2a
  6
CONTINUOUS
 62
8
 10
4.093643100372
 20
9.275125746952
 11
4.0912809054262
 21
9.2709463481434
  0
LINE
  8
EFKV.2a
  6
CONTINUOUS
 62
8
 10
4.0912809054262
 20
9.2709463481434
 11
4.0893692197718
 21
9.2661501115439
  0
LINE
  8
EFKV.2a
  6
CONTINUOUS
 62
8
 10
4.0893692197718
 20
9.2661501115439
 11
4.0879630391244
 21
9.2608750161482
  0
LINE
  8
EFKV.2a
  6
CONTINUOUS
 62
8
 10
4.0879630391244
 20
9.2608750161482
 11
4.087102816741
 21
9.2552728168463
  0
LINE
  8
EFKV.2a
  6
CONTINUOUS
 62
8
 10
4.087102816741
 20
9.2552728168463
 11
4.0868132996534
 21
9.2495046787124
  0
LINE
  8
EFKV.2a
  6
CONTINUOUS
 62
8
 10
4.110474496713
 20
9.2830019967692
 11
4.1094974544916
 21
9.2833590630568
  0
LINE
  8
EFKV.2a
  6
CONTINUOUS
 62
8
 10
4.0963878485613
 20
9.2204412831491
 11
4.0976551977442
 21
9.2193577429906
  0
LINE
  8
EFKV.2a
  6
CONTINUOUS
 62
8
 10
3.8465077878424
 20
9.3816847169473
 11
3.84679730493
 21
9.3759165788133
  0
LINE
  8
EFKV.2a
  6
CONTINUOUS
 62
8
 10
3.84679730493
 20
9.3759165788133
 11
3.8476575273134
 21
9.3703143795115
  0
LINE
  8
EFKV.2a
  6
CONTINUOUS
 62
8
 10
3.8476575273134
 20
9.3703143795115
 11
3.8490637079608
 21
9.3650392841157
  0
LINE
  8
EFKV.2a
  6
CONTINUOUS
 62
8
 10
3.8490637079608
 20
9.3650392841157
 11
3.8509753936152
 21
9.3602430475163
  0
LINE
  8
EFKV.2a
  6
CONTINUOUS
 62
8
 10
3.8509753936152
 20
9.3602430475163
 11
3.8533375885609
 21
9.3560636487076
  0
LINE
  8
EFKV.2a
  6
CONTINUOUS
 62
8
 10
3.8533375885609
 20
9.3560636487076
 11
3.8560823367502
 21
9.352621321384
  0
LINE
  8
EFKV.2a
  6
CONTINUOUS
 62
8
 10
3.8560823367502
 20
9.352621321384
 11
3.859130676775
 21
9.3500150950352
  0
LINE
  8
EFKV.2a
  6
CONTINUOUS
 62
8
 10
3.859130676775
 20
9.3500150950352
 11
3.862394913443
 21
9.3483199460481
  0
LINE
  8
EFKV.2a
  6
CONTINUOUS
 62
8
 10
3.862394913443
 20
9.3483199460481
 11
3.864531213306
 21
9.3478560573358
  0
LINE
  8
EFKV.2a
  6
CONTINUOUS
 62
8
 10
3.8691919426806
 20
9.4155391012917
 11
3.8657811406082
 21
9.4157847931219
  0
LINE
  8
EFKV.2a
  6
CONTINUOUS
 62
8
 10
3.8657811406082
 20
9.4157847931219
 11
3.862394913443
 21
9.4150494878464
  0
LINE
  8
EFKV.2a
  6
CONTINUOUS
 62
8
 10
3.862394913443
 20
9.4150494878464
 11
3.859130676775
 21
9.4133543388593
  0
LINE
  8
EFKV.2a
  6
CONTINUOUS
 62
8
 10
3.859130676775
 20
9.4133543388593
 11
3.8560823367502
 21
9.4107481125105
  0
LINE
  8
EFKV.2a
  6
CONTINUOUS
 62
8
 10
3.8560823367502
 20
9.4107481125105
 11
3.8533375885609
 21
9.4073057851869
  0
LINE
  8
EFKV.2a
  6
CONTINUOUS
 62
8
 10
3.8533375885609
 20
9.4073057851869
 11
3.8509753936152
 21
9.4031263863783
  0
LINE
  8
EFKV.2a
  6
CONTINUOUS
 62
8
 10
3.8509753936152
 20
9.4031263863783
 11
3.8490637079608
 21
9.3983301497788
  0
LINE
  8
EFKV.2a
  6
CONTINUOUS
 62
8
 10
3.8490637079608
 20
9.3983301497788
 11
3.8476575273134
 21
9.3930550543831
  0
LINE
  8
EFKV.2a
  6
CONTINUOUS
 62
8
 10
3.8476575273134
 20
9.3930550543831
 11
3.84679730493
 21
9.3874528550812
  0
LINE
  8
EFKV.2a
  6
CONTINUOUS
 62
8
 10
3.84679730493
 20
9.3874528550812
 11
3.8465077878424
 21
9.3816847169473
  0
LINE
  8
EFKV.2a
  6
CONTINUOUS
 62
8
 10
3.8484762917794
 20
9.3805482006693
 11
3.848765808867
 21
9.3747800625354
  0
LINE
  8
EFKV.2a
  6
CONTINUOUS
 62
8
 10
3.848765808867
 20
9.3747800625354
 11
3.8496260312504
 21
9.3691778632335
  0
LINE
  8
EFKV.2a
  6
CONTINUOUS
 62
8
 10
3.8496260312504
 20
9.3691778632335
 11
3.8510322118978
 21
9.3639027678378
  0
LINE
  8
EFKV.2a
  6
CONTINUOUS
 62
8
 10
3.8510322118978
 20
9.3639027678378
 11
3.8529438975522
 21
9.3591065312383
  0
LINE
  8
EFKV.2a
  6
CONTINUOUS
 62
8
 10
3.8529438975522
 20
9.3591065312383
 11
3.8553060924979
 21
9.3549271324297
  0
LINE
  8
EFKV.2a
  6
CONTINUOUS
 62
8
 10
3.8553060924979
 20
9.3549271324297
 11
3.8580508406872
 21
9.3514848051061
  0
LINE
  8
EFKV.2a
  6
CONTINUOUS
 62
8
 10
3.8580508406872
 20
9.3514848051061
 11
3.8607361033244
 21
9.3491889974923
  0
LINE
  8
EFKV.2a
  6
CONTINUOUS
 62
8
 10
3.8713773624734
 20
9.4143869598169
 11
3.8677496445452
 21
9.414648276844
  0
LINE
  8
EFKV.2a
  6
CONTINUOUS
 62
8
 10
3.8677496445452
 20
9.414648276844
 11
3.86436341738
 21
9.4139129715685
  0
LINE
  8
EFKV.2a
  6
CONTINUOUS
 62
8
 10
3.86436341738
 20
9.4139129715685
 11
3.861099180712
 21
9.4122178225814
  0
LINE
  8
EFKV.2a
  6
CONTINUOUS
 62
8
 10
3.861099180712
 20
9.4122178225814
 11
3.8580508406872
 21
9.4096115962326
  0
LINE
  8
EFKV.2a
  6
CONTINUOUS
 62
8
 10
3.8580508406872
 20
9.4096115962326
 11
3.8553060924979
 21
9.406169268909
  0
LINE
  8
EFKV.2a
  6
CONTINUOUS
 62
8
 10
3.8553060924979
 20
9.406169268909
 11
3.8529438975522
 21
9.4019898701003
  0
LINE
  8
EFKV.2a
  6
CONTINUOUS
 62
8
 10
3.8529438975522
 20
9.4019898701003
 11
3.8510322118978
 21
9.3971936335009
  0
LINE
  8
EFKV.2a
  6
CONTINUOUS
 62
8
 10
3.8510322118978
 20
9.3971936335009
 11
3.8496260312504
 21
9.3919185381051
  0
LINE
  8
EFKV.2a
  6
CONTINUOUS
 62
8
 10
3.8496260312504
 20
9.3919185381051
 11
3.848765808867
 21
9.3863163388033
  0
LINE
  8
EFKV.2a
  6
CONTINUOUS
 62
8
 10
3.848765808867
 20
9.3863163388033
 11
3.8484762917794
 21
9.3805482006693
  0
LINE
  8
EFKV.2a
  6
CONTINUOUS
 62
8
 10
3.8504447957164
 20
9.3794116843914
 11
3.850734312804
 21
9.3736435462575
  0
LINE
  8
EFKV.2a
  6
CONTINUOUS
 62
8
 10
3.850734312804
 20
9.3736435462575
 11
3.8515945351874
 21
9.3680413469556
  0
LINE
  8
EFKV.2a
  6
CONTINUOUS
 62
8
 10
3.8515945351874
 20
9.3680413469556
 11
3.8530007158348
 21
9.3627662515598
  0
LINE
  8
EFKV.2a
  6
CONTINUOUS
 62
8
 10
3.8530007158348
 20
9.3627662515598
 11
3.8549124014892
 21
9.3579700149604
  0
LINE
  8
EFKV.2a
  6
CONTINUOUS
 62
8
 10
3.8549124014892
 20
9.3579700149604
 11
3.857274596435
 21
9.3537906161517
  0
LINE
  8
EFKV.2a
  6
CONTINUOUS
 62
8
 10
3.857274596435
 20
9.3537906161517
 11
3.8600193446242
 21
9.3503482888282
  0
LINE
  8
EFKV.2a
  6
CONTINUOUS
 62
8
 10
3.8600193446242
 20
9.3503482888282
 11
3.8623769362435
 21
9.3483326287155
  0
LINE
  8
EFKV.2a
  6
CONTINUOUS
 62
8
 10
3.869947874704
 20
9.4135616446685
 11
3.866331921317
 21
9.4127764552906
  0
LINE
  8
EFKV.2a
  6
CONTINUOUS
 62
8
 10
3.866331921317
 20
9.4127764552906
 11
3.8630676846491
 21
9.4110813063034
  0
LINE
  8
EFKV.2a
  6
CONTINUOUS
 62
8
 10
3.8630676846491
 20
9.4110813063034
 11
3.8600193446242
 21
9.4084750799546
  0
LINE
  8
EFKV.2a
  6
CONTINUOUS
 62
8
 10
3.8600193446242
 20
9.4084750799546
 11
3.857274596435
 21
9.4050327526311
  0
LINE
  8
EFKV.2a
  6
CONTINUOUS
 62
8
 10
3.857274596435
 20
9.4050327526311
 11
3.8549124014892
 21
9.4008533538224
  0
LINE
  8
EFKV.2a
  6
CONTINUOUS
 62
8
 10
3.8549124014892
 20
9.4008533538224
 11
3.8530007158348
 21
9.3960571172229
  0
LINE
  8
EFKV.2a
  6
CONTINUOUS
 62
8
 10
3.8530007158348
 20
9.3960571172229
 11
3.8515945351874
 21
9.3907820218272
  0
LINE
  8
EFKV.2a
  6
CONTINUOUS
 62
8
 10
3.8515945351874
 20
9.3907820218272
 11
3.850734312804
 21
9.3851798225253
  0
LINE
  8
EFKV.2a
  6
CONTINUOUS
 62
8
 10
3.850734312804
 20
9.3851798225253
 11
3.8504447957164
 21
9.3794116843914
  0
LINE
  8
EFKV.2a
  6
CONTINUOUS
 62
8
 10
3.8524132996534
 20
9.3782751681135
 11
3.852702816741
 21
9.3725070299795
  0
LINE
  8
EFKV.2a
  6
CONTINUOUS
 62
8
 10
3.852702816741
 20
9.3725070299795
 11
3.8535630391244
 21
9.3669048306777
  0
LINE
  8
EFKV.2a
  6
CONTINUOUS
 62
8
 10
3.8535630391244
 20
9.3669048306777
 11
3.8549692197718
 21
9.3616297352819
  0
LINE
  8
EFKV.2a
  6
CONTINUOUS
 62
8
 10
3.8549692197718
 20
9.3616297352819
 11
3.8568809054262
 21
9.3568334986825
  0
LINE
  8
EFKV.2a
  6
CONTINUOUS
 62
8
 10
3.8568809054262
 20
9.3568334986825
 11
3.859243100372
 21
9.3526540998738
  0
LINE
  8
EFKV.2a
  6
CONTINUOUS
 62
8
 10
3.859243100372
 20
9.3526540998738
 11
3.8619878485613
 21
9.3492117725502
  0
LINE
  8
EFKV.2a
  6
CONTINUOUS
 62
8
 10
3.864531213306
 20
9.409513053451
 11
3.8619878485613
 21
9.4073385636767
  0
LINE
  8
EFKV.2a
  6
CONTINUOUS
 62
8
 10
3.8619878485613
 20
9.4073385636767
 11
3.859243100372
 21
9.4038962363531
  0
LINE
  8
EFKV.2a
  6
CONTINUOUS
 62
8
 10
3.859243100372
 20
9.4038962363531
 11
3.8568809054262
 21
9.3997168375445
  0
LINE
  8
EFKV.2a
  6
CONTINUOUS
 62
8
 10
3.8568809054262
 20
9.3997168375445
 11
3.8549692197718
 21
9.394920600945
  0
LINE
  8
EFKV.2a
  6
CONTINUOUS
 62
8
 10
3.8549692197718
 20
9.394920600945
 11
3.8535630391244
 21
9.3896455055493
  0
LINE
  8
EFKV.2a
  6
CONTINUOUS
 62
8
 10
3.8535630391244
 20
9.3896455055493
 11
3.852702816741
 21
9.3840433062474
  0
LINE
  8
EFKV.2a
  6
CONTINUOUS
 62
8
 10
3.852702816741
 20
9.3840433062474
 11
3.8524132996534
 21
9.3782751681135
  0
LINE
  8
EFKV.2a
  6
CONTINUOUS
 62
8
 10
3.8619878485613
 20
9.3492117725502
 11
3.8632551977442
 21
9.3481282323917
  0
LINE
  8
EFKV.2a
  6
CONTINUOUS
 62
8
 10
3.871752270665
 20
9.4146034131623
 11
3.8691919426806
 21
9.4155391012917
  0
LINE
  8
EFKV.2a
  6
CONTINUOUS
 62
8
 10
3.8484780662444
 20
9.5916030857013
 11
3.848767583332
 21
9.5858349475674
  0
LINE
  8
EFKV.2a
  6
CONTINUOUS
 62
8
 10
3.848767583332
 20
9.5858349475674
 11
3.8496278057154
 21
9.5802327482655
  0
LINE
  8
EFKV.2a
  6
CONTINUOUS
 62
8
 10
3.8496278057154
 20
9.5802327482655
 11
3.8510339863628
 21
9.5749576528698
  0
LINE
  8
EFKV.2a
  6
CONTINUOUS
 62
8
 10
3.8510339863628
 20
9.5749576528698
 11
3.8529456720172
 21
9.5701614162703
  0
LINE
  8
EFKV.2a
  6
CONTINUOUS
 62
8
 10
3.8529456720172
 20
9.5701614162703
 11
3.8553078669629
 21
9.5659820174617
  0
LINE
  8
EFKV.2a
  6
CONTINUOUS
 62
8
 10
3.8553078669629
 20
9.5659820174617
 11
3.8580526151522
 21
9.5625396901381
  0
LINE
  8
EFKV.2a
  6
CONTINUOUS
 62
8
 10
3.8580526151522
 20
9.5625396901381
 11
3.8606025513946
 21
9.5603595819583
  0
LINE
  8
EFKV.2a
  6
CONTINUOUS
 62
8
 10
3.873622469276
 20
9.6442433960819
 11
3.8711622210825
 21
9.6451425094158
  0
LINE
  8
EFKV.2a
  6
CONTINUOUS
 62
8
 10
3.8711622210825
 20
9.6451425094158
 11
3.8677514190102
 21
9.645388201246
  0
LINE
  8
EFKV.2a
  6
CONTINUOUS
 62
8
 10
3.8677514190102
 20
9.645388201246
 11
3.8643651918449
 21
9.6446528959706
  0
LINE
  8
EFKV.2a
  6
CONTINUOUS
 62
8
 10
3.8643651918449
 20
9.6446528959706
 11
3.861100955177
 21
9.6429577469835
  0
LINE
  8
EFKV.2a
  6
CONTINUOUS
 62
8
 10
3.861100955177
 20
9.6429577469835
 11
3.8580526151522
 21
9.6403515206346
  0
LINE
  8
EFKV.2a
  6
CONTINUOUS
 62
8
 10
3.8580526151522
 20
9.6403515206346
 11
3.8553078669629
 21
9.6369091933111
  0
LINE
  8
EFKV.2a
  6
CONTINUOUS
 62
8
 10
3.8553078669629
 20
9.6369091933111
 11
3.8529456720172
 21
9.6327297945024
  0
LINE
  8
EFKV.2a
  6
CONTINUOUS
 62
8
 10
3.8529456720172
 20
9.6327297945024
 11
3.8510339863628
 21
9.627933557903
  0
LINE
  8
EFKV.2a
  6
CONTINUOUS
 62
8
 10
3.8510339863628
 20
9.627933557903
 11
3.8496278057154
 21
9.6226584625072
  0
LINE
  8
EFKV.2a
  6
CONTINUOUS
 62
8
 10
3.8496278057154
 20
9.6226584625072
 11
3.848767583332
 21
9.6170562632054
  0
LINE
  8
EFKV.2a
  6
CONTINUOUS
 62
8
 10
3.848767583332
 20
9.6170562632054
 11
3.8484780662444
 21
9.6112881250714
  0
LINE
  8
EFKV.2a
  6
CONTINUOUS
 62
8
 10
3.8484780662444
 20
9.6112881250714
 11
3.8484780662444
 21
9.5916030857013
  0
LINE
  8
EFKV.2a
  6
CONTINUOUS
 62
8
 10
3.8504465701814
 20
9.5904665694234
 11
3.850736087269
 21
9.5846984312895
  0
LINE
  8
EFKV.2a
  6
CONTINUOUS
 62
8
 10
3.850736087269
 20
9.5846984312895
 11
3.8515963096524
 21
9.5790962319876
  0
LINE
  8
EFKV.2a
  6
CONTINUOUS
 62
8
 10
3.8515963096524
 20
9.5790962319876
 11
3.8530024902998
 21
9.5738211365919
  0
LINE
  8
EFKV.2a
  6
CONTINUOUS
 62
8
 10
3.8530024902998
 20
9.5738211365919
 11
3.8549141759542
 21
9.5690248999924
  0
LINE
  8
EFKV.2a
  6
CONTINUOUS
 62
8
 10
3.8549141759542
 20
9.5690248999924
 11
3.8572763708999
 21
9.5648455011837
  0
LINE
  8
EFKV.2a
  6
CONTINUOUS
 62
8
 10
3.8572763708999
 20
9.5648455011837
 11
3.8600211190892
 21
9.5614031738602
  0
LINE
  8
EFKV.2a
  6
CONTINUOUS
 62
8
 10
3.8600211190892
 20
9.5614031738602
 11
3.8622884228763
 21
9.5594647067526
  0
LINE
  8
EFKV.2a
  6
CONTINUOUS
 62
8
 10
3.8749836526169
 20
9.6433288289745
 11
3.8731307250195
 21
9.6440059931379
  0
LINE
  8
EFKV.2a
  6
CONTINUOUS
 62
8
 10
3.8731307250195
 20
9.6440059931379
 11
3.8697199229472
 21
9.6442516849681
  0
LINE
  8
EFKV.2a
  6
CONTINUOUS
 62
8
 10
3.8697199229472
 20
9.6442516849681
 11
3.8663336957819
 21
9.6435163796927
  0
LINE
  8
EFKV.2a
  6
CONTINUOUS
 62
8
 10
3.8663336957819
 20
9.6435163796927
 11
3.863069459114
 21
9.6418212307055
  0
LINE
  8
EFKV.2a
  6
CONTINUOUS
 62
8
 10
3.863069459114
 20
9.6418212307055
 11
3.8600211190892
 21
9.6392150043567
  0
LINE
  8
EFKV.2a
  6
CONTINUOUS
 62
8
 10
3.8600211190892
 20
9.6392150043567
 11
3.8572763708999
 21
9.6357726770331
  0
LINE
  8
EFKV.2a
  6
CONTINUOUS
 62
8
 10
3.8572763708999
 20
9.6357726770331
 11
3.8549141759542
 21
9.6315932782245
  0
LINE
  8
EFKV.2a
  6
CONTINUOUS
 62
8
 10
3.8549141759542
 20
9.6315932782245
 11
3.8530024902998
 21
9.626797041625
  0
LINE
  8
EFKV.2a
  6
CONTINUOUS
 62
8
 10
3.8530024902998
 20
9.626797041625
 11
3.8515963096524
 21
9.6215219462293
  0
LINE
  8
EFKV.2a
  6
CONTINUOUS
 62
8
 10
3.8515963096524
 20
9.6215219462293
 11
3.850736087269
 21
9.6159197469274
  0
LINE
  8
EFKV.2a
  6
CONTINUOUS
 62
8
 10
3.850736087269
 20
9.6159197469274
 11
3.8504465701814
 21
9.6101516087935
  0
LINE
  8
EFKV.2a
  6
CONTINUOUS
 62
8
 10
3.8504465701814
 20
9.6101516087935
 11
3.8504465701814
 21
9.5904665694234
  0
LINE
  8
EFKV.2a
  6
CONTINUOUS
 62
8
 10
3.8524150741184
 20
9.5893300531455
 11
3.852704591206
 21
9.5835619150115
  0
LINE
  8
EFKV.2a
  6
CONTINUOUS
 62
8
 10
3.852704591206
 20
9.5835619150115
 11
3.8535648135894
 21
9.5779597157097
  0
LINE
  8
EFKV.2a
  6
CONTINUOUS
 62
8
 10
3.8535648135894
 20
9.5779597157097
 11
3.8549709942368
 21
9.5726846203139
  0
LINE
  8
EFKV.2a
  6
CONTINUOUS
 62
8
 10
3.8549709942368
 20
9.5726846203139
 11
3.8568826798912
 21
9.5678883837145
  0
LINE
  8
EFKV.2a
  6
CONTINUOUS
 62
8
 10
3.8568826798912
 20
9.5678883837145
 11
3.8592448748369
 21
9.5637089849058
  0
LINE
  8
EFKV.2a
  6
CONTINUOUS
 62
8
 10
3.8592448748369
 20
9.5637089849058
 11
3.8619896230262
 21
9.5602666575822
  0
LINE
  8
EFKV.2a
  6
CONTINUOUS
 62
8
 10
3.8619896230262
 20
9.5602666575822
 11
3.8632563224631
 21
9.5591836729343
  0
LINE
  8
EFKV.2a
  6
CONTINUOUS
 62
8
 10
3.8756495784639
 20
9.6428109588733
 11
3.8716884268842
 21
9.6431151686902
  0
LINE
  8
EFKV.2a
  6
CONTINUOUS
 62
8
 10
3.8716884268842
 20
9.6431151686902
 11
3.8683021997189
 21
9.6423798634147
  0
LINE
  8
EFKV.2a
  6
CONTINUOUS
 62
8
 10
3.8683021997189
 20
9.6423798634147
 11
3.865037963051
 21
9.6406847144276
  0
LINE
  8
EFKV.2a
  6
CONTINUOUS
 62
8
 10
3.865037963051
 20
9.6406847144276
 11
3.8619896230262
 21
9.6380784880788
  0
LINE
  8
EFKV.2a
  6
CONTINUOUS
 62
8
 10
3.8619896230262
 20
9.6380784880788
 11
3.8592448748369
 21
9.6346361607552
  0
LINE
  8
EFKV.2a
  6
CONTINUOUS
 62
8
 10
3.8592448748369
 20
9.6346361607552
 11
3.8568826798912
 21
9.6304567619465
  0
LINE
  8
EFKV.2a
  6
CONTINUOUS
 62
8
 10
3.8568826798912
 20
9.6304567619465
 11
3.8549709942368
 21
9.6256605253471
  0
LINE
  8
EFKV.2a
  6
CONTINUOUS
 62
8
 10
3.8549709942368
 20
9.6256605253471
 11
3.8535648135894
 21
9.6203854299513
  0
LINE
  8
EFKV.2a
  6
CONTINUOUS
 62
8
 10
3.8535648135894
 20
9.6203854299513
 11
3.852704591206
 21
9.6147832306495
  0
LINE
  8
EFKV.2a
  6
CONTINUOUS
 62
8
 10
3.852704591206
 20
9.6147832306495
 11
3.8524150741184
 21
9.6090150925155
  0
LINE
  8
EFKV.2a
  6
CONTINUOUS
 62
8
 10
3.8524150741184
 20
9.6090150925155
 11
3.8524150741184
 21
9.5893300531455
  0
LINE
  8
EFKV.2a
  6
CONTINUOUS
 62
8
 10
4.0670746975927
 20
9.4902123825535
 11
3.9562643604943
 21
9.5541887605063
  0
LINE
  8
EFKV.2a
  6
CONTINUOUS
 62
8
 10
4.7457666516172
 20
10.171625382694
 11
4.3146743074484
 21
9.9227341017425
  0
LINE
  8
EFKV.2a
  6
CONTINUOUS
 62
8
 10
4.7457666516172
 20
10.217086033811
 11
4.8247602093413
 21
10.171479081995
  0
LINE
  8
EFKV.2a
  6
CONTINUOUS
 62
8
 10
4.7457666516172
 20
10.171625382694
 11
4.8247602093413
 21
10.126018430878
  0
LINE
  8
EFKV.2a
  6
CONTINUOUS
 62
8
 10
4.3146743074484
 20
9.9227341017425
 11
4.3146743074484
 21
9.3321829206402
  0
LINE
  8
EFKV.2a
  6
CONTINUOUS
 62
8
 10
4.2753042287083
 20
9.9454644273012
 11
4.2753042287083
 21
9.3549132461988
  0
LINE
  8
EFKV.2a
  6
CONTINUOUS
 62
8
 10
4.2753042287083
 20
9.9454644273012
 11
4.3146743074484
 21
9.9227341017425
  0
LINE
  8
EFKV.2a
  6
CONTINUOUS
 62
8
 10
4.2753042287083
 20
9.3549132461988
 11
4.3146743074484
 21
9.3321829206402
  0
LINE
  8
EFKV.2a
  6
CONTINUOUS
 62
8
 10
4.7457666516172
 20
9.5810742015916
 11
4.3146743074484
 21
9.3321829206402
  0
LINE
  8
EFKV.2a
  6
CONTINUOUS
 62
8
 10
4.7457666516172
 20
9.5810742015916
 11
4.8247602093413
 21
9.5354672497753
  0
LINE
  8
EFKV.2a
  6
CONTINUOUS
 62
8
 10
4.7457666516172
 20
10.171625382694
 11
4.7457666516172
 21
9.5810742015916
  0
LINE
  8
EFKV.2a
  6
CONTINUOUS
 62
8
 10
4.5333785370824
 20
9.4584518664922
 11
4.5333785370824
 21
8.9404883528008
  0
LINE
  8
EFKV.2a
  6
CONTINUOUS
 62
8
 10
4.4726214907842
 20
9.8495959421723
 11
4.4721872151528
 21
9.8582481493732
  0
LINE
  8
EFKV.2a
  6
CONTINUOUS
 62
8
 10
4.4721872151528
 20
9.8582481493732
 11
4.4708968815777
 21
9.866651448326
  0
LINE
  8
EFKV.2a
  6
CONTINUOUS
 62
8
 10
4.4708968815777
 20
9.866651448326
 11
4.4687876106066
 21
9.8745640914196
  0
LINE
  8
EFKV.2a
  6
CONTINUOUS
 62
8
 10
4.4687876106066
 20
9.8745640914196
 11
4.465920082125
 21
9.8817584463188
  0
LINE
  8
EFKV.2a
  6
CONTINUOUS
 62
8
 10
4.465920082125
 20
9.8817584463188
 11
4.4623767897064
 21
9.8880275445318
  0
LINE
  8
EFKV.2a
  6
CONTINUOUS
 62
8
 10
4.4623767897064
 20
9.8880275445318
 11
4.4582596674225
 21
9.8931910355171
  0
LINE
  8
EFKV.2a
  6
CONTINUOUS
 62
8
 10
4.4582596674225
 20
9.8931910355171
 11
4.4536871573853
 21
9.8971003750404
  0
LINE
  8
EFKV.2a
  6
CONTINUOUS
 62
8
 10
4.4536871573853
 20
9.8971003750404
 11
4.4487908023834
 21
9.8996430985211
  0
LINE
  8
EFKV.2a
  6
CONTINUOUS
 62
8
 10
4.4487908023834
 20
9.8996430985211
 11
4.4437114616355
 21
9.9007460564342
  0
LINE
  8
EFKV.2a
  6
CONTINUOUS
 62
8
 10
4.4437114616355
 20
9.9007460564342
 11
4.438595258527
 21
9.9003775186889
  0
LINE
  8
EFKV.2a
  6
CONTINUOUS
 62
8
 10
4.438595258527
 20
9.9003775186889
 11
4.4335893769062
 21
9.8985480874449
  0
LINE
  8
EFKV.2a
  6
CONTINUOUS
 62
8
 10
4.4335893769062
 20
9.8985480874449
 11
4.4288378268732
 21
9.8953103921084
  0
LINE
  8
EFKV.2a
  6
CONTINUOUS
 62
8
 10
4.4288378268732
 20
9.8953103921084
 11
4.4244773018714
 21
9.8907575752793
  0
LINE
  8
EFKV.2a
  6
CONTINUOUS
 62
8
 10
4.4244773018714
 20
9.8907575752793
 11
4.4206332462658
 21
9.8850206132086
  0
LINE
  8
EFKV.2a
  6
CONTINUOUS
 62
8
 10
4.4206332462658
 20
9.8850206132086
 11
4.4174162465373
 21
9.8782645478496
  0
LINE
  8
EFKV.2a
  6
CONTINUOUS
 62
8
 10
4.4174162465373
 20
9.8782645478496
 11
4.414918849911
 21
9.8706837389021
  0
LINE
  8
EFKV.2a
  6
CONTINUOUS
 62
8
 10
4.414918849911
 20
9.8706837389021
 11
4.4132129019408
 21
9.8624962724372
  0
LINE
  8
EFKV.2a
  6
CONTINUOUS
 62
8
 10
4.4132129019408
 20
9.8624962724372
 11
4.4123474796438
 21
9.8539376869581
  0
LINE
  8
EFKV.2a
  6
CONTINUOUS
 62
8
 10
4.4123474796438
 20
9.8539376869581
 11
4.4123474796438
 21
9.8452541973865
  0
LINE
  8
EFKV.2a
  6
CONTINUOUS
 62
8
 10
4.4123474796438
 20
9.8452541973865
 11
4.4132129019408
 21
9.8366956119074
  0
LINE
  8
EFKV.2a
  6
CONTINUOUS
 62
8
 10
4.4132129019408
 20
9.8366956119074
 11
4.414918849911
 21
9.8285081454424
  0
LINE
  8
EFKV.2a
  6
CONTINUOUS
 62
8
 10
4.414918849911
 20
9.8285081454424
 11
4.4174162465373
 21
9.820927336495
  0
LINE
  8
EFKV.2a
  6
CONTINUOUS
 62
8
 10
4.4174162465373
 20
9.820927336495
 11
4.4206332462658
 21
9.814171271136
  0
LINE
  8
EFKV.2a
  6
CONTINUOUS
 62
8
 10
4.4206332462658
 20
9.814171271136
 11
4.4244773018714
 21
9.8084343090652
  0
LINE
  8
EFKV.2a
  6
CONTINUOUS
 62
8
 10
4.4244773018714
 20
9.8084343090652
 11
4.4288378268732
 21
9.8038814922362
  0
LINE
  8
EFKV.2a
  6
CONTINUOUS
 62
8
 10
4.4288378268732
 20
9.8038814922362
 11
4.4335893769062
 21
9.8006437968997
  0
LINE
  8
EFKV.2a
  6
CONTINUOUS
 62
8
 10
4.4335893769062
 20
9.8006437968997
 11
4.438595258527
 21
9.7988143656557
  0
LINE
  8
EFKV.2a
  6
CONTINUOUS
 62
8
 10
4.438595258527
 20
9.7988143656557
 11
4.4437114616355
 21
9.7984458279103
  0
LINE
  8
EFKV.2a
  6
CONTINUOUS
 62
8
 10
4.4437114616355
 20
9.7984458279103
 11
4.4487908023834
 21
9.7995487858235
  0
LINE
  8
EFKV.2a
  6
CONTINUOUS
 62
8
 10
4.4487908023834
 20
9.7995487858235
 11
4.4536871573853
 21
9.8020915093042
  0
LINE
  8
EFKV.2a
  6
CONTINUOUS
 62
8
 10
4.4536871573853
 20
9.8020915093042
 11
4.4582596674225
 21
9.8060008488274
  0
LINE
  8
EFKV.2a
  6
CONTINUOUS
 62
8
 10
4.4582596674225
 20
9.8060008488274
 11
4.4623767897064
 21
9.8111643398128
  0
LINE
  8
EFKV.2a
  6
CONTINUOUS
 62
8
 10
4.4623767897064
 20
9.8111643398128
 11
4.465920082125
 21
9.8174334380258
  0
LINE
  8
EFKV.2a
  6
CONTINUOUS
 62
8
 10
4.465920082125
 20
9.8174334380258
 11
4.4687876106066
 21
9.824627792925
  0
LINE
  8
EFKV.2a
  6
CONTINUOUS
 62
8
 10
4.4687876106066
 20
9.824627792925
 11
4.4708968815777
 21
9.8325404360186
  0
LINE
  8
EFKV.2a
  6
CONTINUOUS
 62
8
 10
4.4708968815777
 20
9.8325404360186
 11
4.4721872151528
 21
9.8409437349714
  0
LINE
  8
EFKV.2a
  6
CONTINUOUS
 62
8
 10
4.4721872151528
 20
9.8409437349714
 11
4.4726214907842
 21
9.8495959421723
  0
LINE
  8
EFKV.2a
  6
CONTINUOUS
 62
8
 10
4.4696687348787
 20
9.8513007165892
 11
4.4692344592473
 21
9.8599529237901
  0
LINE
  8
EFKV.2a
  6
CONTINUOUS
 62
8
 10
4.4692344592473
 20
9.8599529237901
 11
4.4679441256722
 21
9.8683562227429
  0
LINE
  8
EFKV.2a
  6
CONTINUOUS
 62
8
 10
4.4679441256722
 20
9.8683562227429
 11
4.4658348547011
 21
9.8762688658365
  0
LINE
  8
EFKV.2a
  6
CONTINUOUS
 62
8
 10
4.4658348547011
 20
9.8762688658365
 11
4.4629673262195
 21
9.8834632207357
  0
LINE
  8
EFKV.2a
  6
CONTINUOUS
 62
8
 10
4.4629673262195
 20
9.8834632207357
 11
4.4594240338009
 21
9.8897323189487
  0
LINE
  8
EFKV.2a
  6
CONTINUOUS
 62
8
 10
4.4594240338009
 20
9.8897323189487
 11
4.455306911517
 21
9.894895809934
  0
LINE
  8
EFKV.2a
  6
CONTINUOUS
 62
8
 10
4.455306911517
 20
9.894895809934
 11
4.4512790175612
 21
9.8983395213548
  0
LINE
  8
EFKV.2a
  6
CONTINUOUS
 62
8
 10
4.4316843385031
 20
9.8019656762985
 11
4.4356425026215
 21
9.8005191400726
  0
LINE
  8
EFKV.2a
  6
CONTINUOUS
 62
8
 10
4.4356425026215
 20
9.8005191400726
 11
4.44075870573
 21
9.8001506023272
  0
LINE
  8
EFKV.2a
  6
CONTINUOUS
 62
8
 10
4.44075870573
 20
9.8001506023272
 11
4.4458380464779
 21
9.8012535602404
  0
LINE
  8
EFKV.2a
  6
CONTINUOUS
 62
8
 10
4.4458380464779
 20
9.8012535602404
 11
4.4507344014797
 21
9.8037962837211
  0
LINE
  8
EFKV.2a
  6
CONTINUOUS
 62
8
 10
4.4507344014797
 20
9.8037962837211
 11
4.455306911517
 21
9.8077056232443
  0
LINE
  8
EFKV.2a
  6
CONTINUOUS
 62
8
 10
4.455306911517
 20
9.8077056232443
 11
4.4594240338009
 21
9.8128691142297
  0
LINE
  8
EFKV.2a
  6
CONTINUOUS
 62
8
 10
4.4594240338009
 20
9.8128691142297
 11
4.4629673262195
 21
9.8191382124427
  0
LINE
  8
EFKV.2a
  6
CONTINUOUS
 62
8
 10
4.4629673262195
 20
9.8191382124427
 11
4.4658348547011
 21
9.8263325673419
  0
LINE
  8
EFKV.2a
  6
CONTINUOUS
 62
8
 10
4.4658348547011
 20
9.8263325673419
 11
4.4679441256722
 21
9.8342452104355
  0
LINE
  8
EFKV.2a
  6
CONTINUOUS
 62
8
 10
4.4679441256722
 20
9.8342452104355
 11
4.4692344592473
 21
9.8426485093883
  0
LINE
  8
EFKV.2a
  6
CONTINUOUS
 62
8
 10
4.4692344592473
 20
9.8426485093883
 11
4.4696687348787
 21
9.8513007165892
  0
LINE
  8
EFKV.2a
  6
CONTINUOUS
 62
8
 10
4.4667159789732
 20
9.8530054910061
 11
4.4662817033418
 21
9.861657698207
  0
LINE
  8
EFKV.2a
  6
CONTINUOUS
 62
8
 10
4.4662817033418
 20
9.861657698207
 11
4.4649913697667
 21
9.8700609971598
  0
LINE
  8
EFKV.2a
  6
CONTINUOUS
 62
8
 10
4.4649913697667
 20
9.8700609971598
 11
4.4628820987956
 21
9.8779736402534
  0
LINE
  8
EFKV.2a
  6
CONTINUOUS
 62
8
 10
4.4628820987956
 20
9.8779736402534
 11
4.460014570314
 21
9.8851679951526
  0
LINE
  8
EFKV.2a
  6
CONTINUOUS
 62
8
 10
4.460014570314
 20
9.8851679951526
 11
4.4564712778954
 21
9.8914370933656
  0
LINE
  8
EFKV.2a
  6
CONTINUOUS
 62
8
 10
4.4564712778954
 20
9.8914370933656
 11
4.4523541556114
 21
9.8966005843509
  0
LINE
  8
EFKV.2a
  6
CONTINUOUS
 62
8
 10
4.4523541556114
 20
9.8966005843509
 11
4.4488177681826
 21
9.8996240745199
  0
LINE
  8
EFKV.2a
  6
CONTINUOUS
 62
8
 10
4.4296242697468
 20
9.8033442125249
 11
4.432689746716
 21
9.8022239144895
  0
LINE
  8
EFKV.2a
  6
CONTINUOUS
 62
8
 10
4.432689746716
 20
9.8022239144895
 11
4.4378059498245
 21
9.8018553767441
  0
LINE
  8
EFKV.2a
  6
CONTINUOUS
 62
8
 10
4.4378059498245
 20
9.8018553767441
 11
4.4428852905724
 21
9.8029583346573
  0
LINE
  8
EFKV.2a
  6
CONTINUOUS
 62
8
 10
4.4428852905724
 20
9.8029583346573
 11
4.4477816455742
 21
9.805501058138
  0
LINE
  8
EFKV.2a
  6
CONTINUOUS
 62
8
 10
4.4477816455742
 20
9.805501058138
 11
4.4523541556114
 21
9.8094103976612
  0
LINE
  8
EFKV.2a
  6
CONTINUOUS
 62
8
 10
4.4523541556114
 20
9.8094103976612
 11
4.4564712778954
 21
9.8145738886466
  0
LINE
  8
EFKV.2a
  6
CONTINUOUS
 62
8
 10
4.4564712778954
 20
9.8145738886466
 11
4.460014570314
 21
9.8208429868596
  0
LINE
  8
EFKV.2a
  6
CONTINUOUS
 62
8
 10
4.460014570314
 20
9.8208429868596
 11
4.4628820987956
 21
9.8280373417588
  0
LINE
  8
EFKV.2a
  6
CONTINUOUS
 62
8
 10
4.4628820987956
 20
9.8280373417588
 11
4.4649913697667
 21
9.8359499848524
  0
LINE
  8
EFKV.2a
  6
CONTINUOUS
 62
8
 10
4.4649913697667
 20
9.8359499848524
 11
4.4662817033418
 21
9.8443532838052
  0
LINE
  8
EFKV.2a
  6
CONTINUOUS
 62
8
 10
4.4662817033418
 20
9.8443532838052
 11
4.4667159789732
 21
9.8530054910061
  0
LINE
  8
EFKV.2a
  6
CONTINUOUS
 62
8
 10
4.4637632230677
 20
9.854710265423
 11
4.4633289474363
 21
9.8633624726239
  0
LINE
  8
EFKV.2a
  6
CONTINUOUS
 62
8
 10
4.4633289474363
 20
9.8633624726239
 11
4.4620386138612
 21
9.8717657715767
  0
LINE
  8
EFKV.2a
  6
CONTINUOUS
 62
8
 10
4.4620386138612
 20
9.8717657715767
 11
4.4599293428901
 21
9.8796784146703
  0
LINE
  8
EFKV.2a
  6
CONTINUOUS
 62
8
 10
4.4599293428901
 20
9.8796784146703
 11
4.4570618144085
 21
9.8868727695695
  0
LINE
  8
EFKV.2a
  6
CONTINUOUS
 62
8
 10
4.4570618144085
 20
9.8868727695695
 11
4.4535185219899
 21
9.8931418677825
  0
LINE
  8
EFKV.2a
  6
CONTINUOUS
 62
8
 10
4.4535185219899
 20
9.8931418677825
 11
4.4494013997059
 21
9.8983053587678
  0
LINE
  8
EFKV.2a
  6
CONTINUOUS
 62
8
 10
4.4297369908104
 20
9.8039286889064
 11
4.434853193919
 21
9.803560151161
  0
LINE
  8
EFKV.2a
  6
CONTINUOUS
 62
8
 10
4.434853193919
 20
9.803560151161
 11
4.4399325346669
 21
9.8046631090742
  0
LINE
  8
EFKV.2a
  6
CONTINUOUS
 62
8
 10
4.4399325346669
 20
9.8046631090742
 11
4.4448288896687
 21
9.8072058325549
  0
LINE
  8
EFKV.2a
  6
CONTINUOUS
 62
8
 10
4.4448288896687
 20
9.8072058325549
 11
4.4494013997059
 21
9.8111151720781
  0
LINE
  8
EFKV.2a
  6
CONTINUOUS
 62
8
 10
4.4494013997059
 20
9.8111151720781
 11
4.4535185219899
 21
9.8162786630635
  0
LINE
  8
EFKV.2a
  6
CONTINUOUS
 62
8
 10
4.4535185219899
 20
9.8162786630635
 11
4.4570618144085
 21
9.8225477612765
  0
LINE
  8
EFKV.2a
  6
CONTINUOUS
 62
8
 10
4.4570618144085
 20
9.8225477612765
 11
4.4599293428901
 21
9.8297421161757
  0
LINE
  8
EFKV.2a
  6
CONTINUOUS
 62
8
 10
4.4599293428901
 20
9.8297421161757
 11
4.4620386138612
 21
9.8376547592693
  0
LINE
  8
EFKV.2a
  6
CONTINUOUS
 62
8
 10
4.4620386138612
 20
9.8376547592693
 11
4.4633289474363
 21
9.8460580582221
  0
LINE
  8
EFKV.2a
  6
CONTINUOUS
 62
8
 10
4.4633289474363
 20
9.8460580582221
 11
4.4637632230677
 21
9.854710265423
  0
LINE
  8
EFKV.2a
  6
CONTINUOUS
 62
8
 10
4.4282714274784
 20
9.8044642883378
 11
4.4297369908104
 21
9.8039286889064
  0
LINE
  8
EFKV.2a
  6
CONTINUOUS
 62
8
 10
4.4494013997059
 20
9.8983053587678
 11
4.4475003759315
 21
9.8999306690056
  0
LINE
  8
EFKV.2a
  6
CONTINUOUS
 62
8
 10
4.4710887045853
 20
9.8654022007591
 11
4.4140885335138
 21
9.8324931366471
  0
LINE
  8
EFKV.2a
  6
CONTINUOUS
 62
8
 10
4.4710887045853
 20
9.5701266102079
 11
4.4140885335138
 21
9.5372175460959
  0
LINE
  8
EFKV.2a
  6
CONTINUOUS
 62
8
 10
4.4437114616355
 20
9.9007460564342
 11
4.4437114616355
 21
9.7984458279103
  0
LINE
  8
EFKV.2a
  6
CONTINUOUS
 62
8
 10
4.4726214907842
 20
9.5543203516211
 11
4.4721872151528
 21
9.562972558822
  0
LINE
  8
EFKV.2a
  6
CONTINUOUS
 62
8
 10
4.4721872151528
 20
9.562972558822
 11
4.4708968815777
 21
9.5713758577748
  0
LINE
  8
EFKV.2a
  6
CONTINUOUS
 62
8
 10
4.4708968815777
 20
9.5713758577748
 11
4.4687876106066
 21
9.5792885008684
  0
LINE
  8
EFKV.2a
  6
CONTINUOUS
 62
8
 10
4.4687876106066
 20
9.5792885008684
 11
4.465920082125
 21
9.5864828557676
  0
LINE
  8
EFKV.2a
  6
CONTINUOUS
 62
8
 10
4.465920082125
 20
9.5864828557676
 11
4.4623767897064
 21
9.5927519539806
  0
LINE
  8
EFKV.2a
  6
CONTINUOUS
 62
8
 10
4.4623767897064
 20
9.5927519539806
 11
4.4582596674225
 21
9.597915444966
  0
LINE
  8
EFKV.2a
  6
CONTINUOUS
 62
8
 10
4.4582596674225
 20
9.597915444966
 11
4.4536871573853
 21
9.6018247844892
  0
LINE
  8
EFKV.2a
  6
CONTINUOUS
 62
8
 10
4.4536871573853
 20
9.6018247844892
 11
4.4487908023834
 21
9.6043675079699
  0
LINE
  8
EFKV.2a
  6
CONTINUOUS
 62
8
 10
4.4487908023834
 20
9.6043675079699
 11
4.4437114616355
 21
9.6054704658831
  0
LINE
  8
EFKV.2a
  6
CONTINUOUS
 62
8
 10
4.4437114616355
 20
9.6054704658831
 11
4.438595258527
 21
9.6051019281377
  0
LINE
  8
EFKV.2a
  6
CONTINUOUS
 62
8
 10
4.438595258527
 20
9.6051019281377
 11
4.4335893769062
 21
9.6032724968937
  0
LINE
  8
EFKV.2a
  6
CONTINUOUS
 62
8
 10
4.4335893769062
 20
9.6032724968937
 11
4.4288378268732
 21
9.6000348015572
  0
LINE
  8
EFKV.2a
  6
CONTINUOUS
 62
8
 10
4.4288378268732
 20
9.6000348015572
 11
4.4244773018714
 21
9.5954819847282
  0
LINE
  8
EFKV.2a
  6
CONTINUOUS
 62
8
 10
4.4244773018714
 20
9.5954819847282
 11
4.4206332462658
 21
9.5897450226574
  0
LINE
  8
EFKV.2a
  6
CONTINUOUS
 62
8
 10
4.4206332462658
 20
9.5897450226574
 11
4.4174162465373
 21
9.5829889572984
  0
LINE
  8
EFKV.2a
  6
CONTINUOUS
 62
8
 10
4.4174162465373
 20
9.5829889572984
 11
4.414918849911
 21
9.575408148351
  0
LINE
  8
EFKV.2a
  6
CONTINUOUS
 62
8
 10
4.414918849911
 20
9.575408148351
 11
4.4132129019408
 21
9.567220681886
  0
LINE
  8
EFKV.2a
  6
CONTINUOUS
 62
8
 10
4.4132129019408
 20
9.567220681886
 11
4.4123474796438
 21
9.5586620964069
  0
LINE
  8
EFKV.2a
  6
CONTINUOUS
 62
8
 10
4.4123474796438
 20
9.5586620964069
 11
4.4123474796438
 21
9.5499786068353
  0
LINE
  8
EFKV.2a
  6
CONTINUOUS
 62
8
 10
4.4123474796438
 20
9.5499786068353
 11
4.4132129019408
 21
9.5414200213562
  0
LINE
  8
EFKV.2a
  6
CONTINUOUS
 62
8
 10
4.4132129019408
 20
9.5414200213562
 11
4.414918849911
 21
9.5332325548913
  0
LINE
  8
EFKV.2a
  6
CONTINUOUS
 62
8
 10
4.414918849911
 20
9.5332325548913
 11
4.4174162465373
 21
9.5256517459438
  0
LINE
  8
EFKV.2a
  6
CONTINUOUS
 62
8
 10
4.4174162465373
 20
9.5256517459438
 11
4.4206332462658
 21
9.5188956805848
  0
LINE
  8
EFKV.2a
  6
CONTINUOUS
 62
8
 10
4.4206332462658
 20
9.5188956805848
 11
4.4244773018714
 21
9.5131587185141
  0
LINE
  8
EFKV.2a
  6
CONTINUOUS
 62
8
 10
4.4244773018714
 20
9.5131587185141
 11
4.4288378268732
 21
9.508605901685
  0
LINE
  8
EFKV.2a
  6
CONTINUOUS
 62
8
 10
4.4288378268732
 20
9.508605901685
 11
4.4335893769062
 21
9.5053682063485
  0
LINE
  8
EFKV.2a
  6
CONTINUOUS
 62
8
 10
4.4335893769062
 20
9.5053682063485
 11
4.438595258527
 21
9.5035387751045
  0
LINE
  8
EFKV.2a
  6
CONTINUOUS
 62
8
 10
4.438595258527
 20
9.5035387751045
 11
4.4437114616355
 21
9.5031702373592
  0
LINE
  8
EFKV.2a
  6
CONTINUOUS
 62
8
 10
4.4437114616355
 20
9.5031702373592
 11
4.4487908023834
 21
9.5042731952723
  0
LINE
  8
EFKV.2a
  6
CONTINUOUS
 62
8
 10
4.4487908023834
 20
9.5042731952723
 11
4.4536871573853
 21
9.506815918753
  0
LINE
  8
EFKV.2a
  6
CONTINUOUS
 62
8
 10
4.4536871573853
 20
9.506815918753
 11
4.4582596674225
 21
9.5107252582763
  0
LINE
  8
EFKV.2a
  6
CONTINUOUS
 62
8
 10
4.4582596674225
 20
9.5107252582763
 11
4.4623767897064
 21
9.5158887492616
  0
LINE
  8
EFKV.2a
  6
CONTINUOUS
 62
8
 10
4.4623767897064
 20
9.5158887492616
 11
4.465920082125
 21
9.5221578474746
  0
LINE
  8
EFKV.2a
  6
CONTINUOUS
 62
8
 10
4.465920082125
 20
9.5221578474746
 11
4.4687876106066
 21
9.5293522023738
  0
LINE
  8
EFKV.2a
  6
CONTINUOUS
 62
8
 10
4.4687876106066
 20
9.5293522023738
 11
4.4708968815777
 21
9.5372648454674
  0
LINE
  8
EFKV.2a
  6
CONTINUOUS
 62
8
 10
4.4708968815777
 20
9.5372648454674
 11
4.4721872151528
 21
9.5456681444202
  0
LINE
  8
EFKV.2a
  6
CONTINUOUS
 62
8
 10
4.4721872151528
 20
9.5456681444202
 11
4.4726214907842
 21
9.5543203516211
  0
LINE
  8
EFKV.2a
  6
CONTINUOUS
 62
8
 10
4.4696687348787
 20
9.556025126038
 11
4.4692344592473
 21
9.5646773332389
  0
LINE
  8
EFKV.2a
  6
CONTINUOUS
 62
8
 10
4.4692344592473
 20
9.5646773332389
 11
4.4679441256722
 21
9.5730806321917
  0
LINE
  8
EFKV.2a
  6
CONTINUOUS
 62
8
 10
4.4679441256722
 20
9.5730806321917
 11
4.4658348547011
 21
9.5809932752853
  0
LINE
  8
EFKV.2a
  6
CONTINUOUS
 62
8
 10
4.4658348547011
 20
9.5809932752853
 11
4.4629673262195
 21
9.5881876301845
  0
LINE
  8
EFKV.2a
  6
CONTINUOUS
 62
8
 10
4.4629673262195
 20
9.5881876301845
 11
4.4594240338009
 21
9.5944567283975
  0
LINE
  8
EFKV.2a
  6
CONTINUOUS
 62
8
 10
4.4594240338009
 20
9.5944567283975
 11
4.455306911517
 21
9.5996202193829
  0
LINE
  8
EFKV.2a
  6
CONTINUOUS
 62
8
 10
4.455306911517
 20
9.5996202193829
 11
4.4512790175612
 21
9.6030639308036
  0
LINE
  8
EFKV.2a
  6
CONTINUOUS
 62
8
 10
4.4316843385031
 20
9.5066900857473
 11
4.4356425026215
 21
9.5052435495214
  0
LINE
  8
EFKV.2a
  6
CONTINUOUS
 62
8
 10
4.4356425026215
 20
9.5052435495214
 11
4.44075870573
 21
9.5048750117761
  0
LINE
  8
EFKV.2a
  6
CONTINUOUS
 62
8
 10
4.44075870573
 20
9.5048750117761
 11
4.4458380464779
 21
9.5059779696892
  0
LINE
  8
EFKV.2a
  6
CONTINUOUS
 62
8
 10
4.4458380464779
 20
9.5059779696892
 11
4.4507344014797
 21
9.5085206931699
  0
LINE
  8
EFKV.2a
  6
CONTINUOUS
 62
8
 10
4.4507344014797
 20
9.5085206931699
 11
4.455306911517
 21
9.5124300326932
  0
LINE
  8
EFKV.2a
  6
CONTINUOUS
 62
8
 10
4.455306911517
 20
9.5124300326932
 11
4.4594240338009
 21
9.5175935236785
  0
LINE
  8
EFKV.2a
  6
CONTINUOUS
 62
8
 10
4.4594240338009
 20
9.5175935236785
 11
4.4629673262195
 21
9.5238626218915
  0
LINE
  8
EFKV.2a
  6
CONTINUOUS
 62
8
 10
4.4629673262195
 20
9.5238626218915
 11
4.4658348547011
 21
9.5310569767907
  0
LINE
  8
EFKV.2a
  6
CONTINUOUS
 62
8
 10
4.4658348547011
 20
9.5310569767907
 11
4.4679441256722
 21
9.5389696198843
  0
LINE
  8
EFKV.2a
  6
CONTINUOUS
 62
8
 10
4.4679441256722
 20
9.5389696198843
 11
4.4692344592473
 21
9.5473729188371
  0
LINE
  8
EFKV.2a
  6
CONTINUOUS
 62
8
 10
4.4692344592473
 20
9.5473729188371
 11
4.4696687348787
 21
9.556025126038
  0
LINE
  8
EFKV.2a
  6
CONTINUOUS
 62
8
 10
4.4667159789732
 20
9.5577299004549
 11
4.4662817033418
 21
9.5663821076558
  0
LINE
  8
EFKV.2a
  6
CONTINUOUS
 62
8
 10
4.4662817033418
 20
9.5663821076558
 11
4.4649913697667
 21
9.5747854066086
  0
LINE
  8
EFKV.2a
  6
CONTINUOUS
 62
8
 10
4.4649913697667
 20
9.5747854066086
 11
4.4628820987956
 21
9.5826980497022
  0
LINE
  8
EFKV.2a
  6
CONTINUOUS
 62
8
 10
4.4628820987956
 20
9.5826980497022
 11
4.460014570314
 21
9.5898924046014
  0
LINE
  8
EFKV.2a
  6
CONTINUOUS
 62
8
 10
4.460014570314
 20
9.5898924046014
 11
4.4564712778954
 21
9.5961615028144
  0
LINE
  8
EFKV.2a
  6
CONTINUOUS
 62
8
 10
4.4564712778954
 20
9.5961615028144
 11
4.4523541556114
 21
9.6013249937998
  0
LINE
  8
EFKV.2a
  6
CONTINUOUS
 62
8
 10
4.4523541556114
 20
9.6013249937998
 11
4.4488177681826
 21
9.6043484839687
  0
LINE
  8
EFKV.2a
  6
CONTINUOUS
 62
8
 10
4.4296242697468
 20
9.5080686219737
 11
4.432689746716
 21
9.5069483239383
  0
LINE
  8
EFKV.2a
  6
CONTINUOUS
 62
8
 10
4.432689746716
 20
9.5069483239383
 11
4.4378059498245
 21
9.506579786193
  0
LINE
  8
EFKV.2a
  6
CONTINUOUS
 62
8
 10
4.4378059498245
 20
9.506579786193
 11
4.4428852905724
 21
9.5076827441061
  0
LINE
  8
EFKV.2a
  6
CONTINUOUS
 62
8
 10
4.4428852905724
 20
9.5076827441061
 11
4.4477816455742
 21
9.5102254675868
  0
LINE
  8
EFKV.2a
  6
CONTINUOUS
 62
8
 10
4.4477816455742
 20
9.5102254675868
 11
4.4523541556114
 21
9.5141348071101
  0
LINE
  8
EFKV.2a
  6
CONTINUOUS
 62
8
 10
4.4523541556114
 20
9.5141348071101
 11
4.4564712778954
 21
9.5192982980954
  0
LINE
  8
EFKV.2a
  6
CONTINUOUS
 62
8
 10
4.4564712778954
 20
9.5192982980954
 11
4.460014570314
 21
9.5255673963084
  0
LINE
  8
EFKV.2a
  6
CONTINUOUS
 62
8
 10
4.460014570314
 20
9.5255673963084
 11
4.4628820987956
 21
9.5327617512076
  0
LINE
  8
EFKV.2a
  6
CONTINUOUS
 62
8
 10
4.4628820987956
 20
9.5327617512076
 11
4.4649913697667
 21
9.5406743943012
  0
LINE
  8
EFKV.2a
  6
CONTINUOUS
 62
8
 10
4.4649913697667
 20
9.5406743943012
 11
4.4662817033418
 21
9.549077693254
  0
LINE
  8
EFKV.2a
  6
CONTINUOUS
 62
8
 10
4.4662817033418
 20
9.549077693254
 11
4.4667159789732
 21
9.5577299004549
  0
LINE
  8
EFKV.2a
  6
CONTINUOUS
 62
8
 10
4.4637632230677
 20
9.5594346748718
 11
4.4633289474363
 21
9.5680868820727
  0
LINE
  8
EFKV.2a
  6
CONTINUOUS
 62
8
 10
4.4633289474363
 20
9.5680868820727
 11
4.4620386138612
 21
9.5764901810255
  0
LINE
  8
EFKV.2a
  6
CONTINUOUS
 62
8
 10
4.4620386138612
 20
9.5764901810255
 11
4.4599293428901
 21
9.5844028241191
  0
LINE
  8
EFKV.2a
  6
CONTINUOUS
 62
8
 10
4.4599293428901
 20
9.5844028241191
 11
4.4570618144085
 21
9.5915971790183
  0
LINE
  8
EFKV.2a
  6
CONTINUOUS
 62
8
 10
4.4570618144085
 20
9.5915971790183
 11
4.4535185219899
 21
9.5978662772313
  0
LINE
  8
EFKV.2a
  6
CONTINUOUS
 62
8
 10
4.4535185219899
 20
9.5978662772313
 11
4.4494013997059
 21
9.6030297682167
  0
LINE
  8
EFKV.2a
  6
CONTINUOUS
 62
8
 10
4.4297369908104
 20
9.5086530983552
 11
4.434853193919
 21
9.5082845606099
  0
LINE
  8
EFKV.2a
  6
CONTINUOUS
 62
8
 10
4.434853193919
 20
9.5082845606099
 11
4.4399325346669
 21
9.509387518523
  0
LINE
  8
EFKV.2a
  6
CONTINUOUS
 62
8
 10
4.4399325346669
 20
9.509387518523
 11
4.4448288896687
 21
9.5119302420037
  0
LINE
  8
EFKV.2a
  6
CONTINUOUS
 62
8
 10
4.4448288896687
 20
9.5119302420037
 11
4.4494013997059
 21
9.515839581527
  0
LINE
  8
EFKV.2a
  6
CONTINUOUS
 62
8
 10
4.4494013997059
 20
9.515839581527
 11
4.4535185219899
 21
9.5210030725123
  0
LINE
  8
EFKV.2a
  6
CONTINUOUS
 62
8
 10
4.4535185219899
 20
9.5210030725123
 11
4.4570618144085
 21
9.5272721707253
  0
LINE
  8
EFKV.2a
  6
CONTINUOUS
 62
8
 10
4.4570618144085
 20
9.5272721707253
 11
4.4599293428901
 21
9.5344665256245
  0
LINE
  8
EFKV.2a
  6
CONTINUOUS
 62
8
 10
4.4599293428901
 20
9.5344665256245
 11
4.4620386138612
 21
9.5423791687181
  0
LINE
  8
EFKV.2a
  6
CONTINUOUS
 62
8
 10
4.4620386138612
 20
9.5423791687181
 11
4.4633289474363
 21
9.5507824676709
  0
LINE
  8
EFKV.2a
  6
CONTINUOUS
 62
8
 10
4.4633289474363
 20
9.5507824676709
 11
4.4637632230677
 21
9.5594346748718
  0
LINE
  8
EFKV.2a
  6
CONTINUOUS
 62
8
 10
4.4282714274784
 20
9.5091886977866
 11
4.4297369908104
 21
9.5086530983552
  0
LINE
  8
EFKV.2a
  6
CONTINUOUS
 62
8
 10
4.4494013997059
 20
9.6030297682167
 11
4.4475003759315
 21
9.6046550784544
  0
LINE
  8
EFKV.2a
  6
CONTINUOUS
 62
8
 10
4.4437114616355
 20
9.6054704658831
 11
4.4437114616355
 21
9.5031702373592
  0
POLYLINE
  8
EFKV.2a
  6
CONTINUOUS
 62
7
 70
0
 66
1
  0
VERTEX
  8
EFKV.2a
  6
CONTINUOUS
 62
7
 10
3.7509177921734
 20
8.8568394675842
  0
VERTEX
  8
EFKV.2a
  6
CONTINUOUS
 62
7
 10
3.7484177921734
 20
8.8645394675842
  0
VERTEX
  8
EFKV.2a
  6
CONTINUOUS
 62
7
 10
3.7586177921734
 20
8.8568394675842
  0
VERTEX
  8
EFKV.2a
  6
CONTINUOUS
 62
7
 10
3.7509177921734
 20
8.8568394675842
  0
SEQEND
  0
POLYLINE
  8
EFKV.2a
  6
CONTINUOUS
 62
7
 70
0
 66
1
  0
VERTEX
  8
EFKV.2a
  6
CONTINUOUS
 62
7
 10
3.777812880729
 20
8.9946767964317
  0
VERTEX
  8
EFKV.2a
  6
CONTINUOUS
 62
7
 10
3.775312880729
 20
9.0023767964317
  0
VERTEX
  8
EFKV.2a
  6
CONTINUOUS
 62
7
 10
3.785512880729
 20
8.9946767964317
  0
VERTEX
  8
EFKV.2a
  6
CONTINUOUS
 62
7
 10
3.777812880729
 20
8.9946767964317
  0
SEQEND
  0
POLYLINE
  8
EFKV.2a
  6
CONTINUOUS
 62
7
 70
0
 66
1
  0
VERTEX
  8
EFKV.2a
  6
CONTINUOUS
 62
7
 10
3.9223739817153
 20
8.8904583282787
  0
VERTEX
  8
EFKV.2a
  6
CONTINUOUS
 62
7
 10
3.9198739817153
 20
8.8981583282787
  0
VERTEX
  8
EFKV.2a
  6
CONTINUOUS
 62
7
 10
3.9300739817153
 20
8.8904583282787
  0
VERTEX
  8
EFKV.2a
  6
CONTINUOUS
 62
7
 10
3.9223739817153
 20
8.8904583282787
  0
SEQEND
  0
POLYLINE
  8
EFKV.2a
  6
CONTINUOUS
 62
7
 70
0
 66
1
  0
VERTEX
  8
EFKV.2a
  6
CONTINUOUS
 62
7
 10
4.1677916647851
 20
8.8232206068897
  0
VERTEX
  8
EFKV.2a
  6
CONTINUOUS
 62
7
 10
4.1652916647851
 20
8.8309206068897
  0
VERTEX
  8
EFKV.2a
  6
CONTINUOUS
 62
7
 10
4.1754916647851
 20
8.8232206068897
  0
VERTEX
  8
EFKV.2a
  6
CONTINUOUS
 62
7
 10
4.1677916647851
 20
8.8232206068897
  0
SEQEND
  0
POLYLINE
  8
EFKV.2a
  6
CONTINUOUS
 62
7
 70
0
 66
1
  0
VERTEX
  8
EFKV.2a
  6
CONTINUOUS
 62
7
 10
3.4395623877145
 20
9.0030743407095
  0
VERTEX
  8
EFKV.2a
  6
CONTINUOUS
 62
7
 10
3.4395623877145
 20
9.0157743407095
  0
VERTEX
  8
EFKV.2a
  6
CONTINUOUS
 62
7
 10
3.4421623877145
 20
9.0208743407095
  0
VERTEX
  8
EFKV.2a
  6
CONTINUOUS
 62
7
 10
3.4395623877145
 20
9.0030743407095
  0
SEQEND
  0
POLYLINE
  8
EFKV.2a
  6
CONTINUOUS
 62
7
 70
0
 66
1
  0
VERTEX
  8
EFKV.2a
  6
CONTINUOUS
 62
7
 10
3.5206857673119
 20
10.10496108542
  0
VERTEX
  8
EFKV.2a
  6
CONTINUOUS
 62
7
 10
3.5206857673119
 20
10.10746108542
  0
VERTEX
  8
EFKV.2a
  6
CONTINUOUS
 62
7
 10
3.5156857673119
 20
10.11006108542
  0
VERTEX
  8
EFKV.2a
  6
CONTINUOUS
 62
7
 10
3.5206857673119
 20
10.11766108542
  0
VERTEX
  8
EFKV.2a
  6
CONTINUOUS
 62
7
 10
3.5206857673119
 20
10.10496108542
  0
SEQEND
  0
POLYLINE
  8
EFKV.2a
  6
CONTINUOUS
 62
7
 70
0
 66
1
  0
VERTEX
  8
EFKV.2a
  6
CONTINUOUS
 62
7
 10
3.5408570837286
 20
9.8998860351831
  0
VERTEX
  8
EFKV.2a
  6
CONTINUOUS
 62
7
 10
3.5408570837286
 20
9.9023860351831
  0
VERTEX
  8
EFKV.2a
  6
CONTINUOUS
 62
7
 10
3.5358570837286
 20
9.9049860351831
  0
VERTEX
  8
EFKV.2a
  6
CONTINUOUS
 62
7
 10
3.5408570837286
 20
9.9125860351831
  0
VERTEX
  8
EFKV.2a
  6
CONTINUOUS
 62
7
 10
3.5408570837286
 20
9.8998860351831
  0
SEQEND
  0
POLYLINE
  8
EFKV.2a
  6
CONTINUOUS
 62
7
 70
0
 66
1
  0
VERTEX
  8
EFKV.2a
  6
CONTINUOUS
 62
7
 10
3.4400005016451
 20
9.1770805302514
  0
VERTEX
  8
EFKV.2a
  6
CONTINUOUS
 62
7
 10
3.4400005016451
 20
9.1795805302514
  0
VERTEX
  8
EFKV.2a
  6
CONTINUOUS
 62
7
 10
3.4350005016451
 20
9.1821805302514
  0
VERTEX
  8
EFKV.2a
  6
CONTINUOUS
 62
7
 10
3.4400005016451
 20
9.1897805302514
  0
VERTEX
  8
EFKV.2a
  6
CONTINUOUS
 62
7
 10
3.4400005016451
 20
9.1770805302514
  0
SEQEND
  0
POLYLINE
  8
EFKV.2a
  6
CONTINUOUS
 62
7
 70
0
 66
1
  0
VERTEX
  8
EFKV.2a
  6
CONTINUOUS
 62
7
 10
3.3189726031449
 20
9.3250035173072
  0
VERTEX
  8
EFKV.2a
  6
CONTINUOUS
 62
7
 10
3.3189726031449
 20
9.3275035173072
  0
VERTEX
  8
EFKV.2a
  6
CONTINUOUS
 62
7
 10
3.3139726031449
 20
9.3301035173072
  0
VERTEX
  8
EFKV.2a
  6
CONTINUOUS
 62
7
 10
3.3189726031449
 20
9.3377035173072
  0
VERTEX
  8
EFKV.2a
  6
CONTINUOUS
 62
7
 10
3.3189726031449
 20
9.3250035173072
  0
SEQEND
  0
POLYLINE
  8
EFKV.2a
  6
CONTINUOUS
 62
7
 70
0
 66
1
  0
VERTEX
  8
EFKV.2a
  6
CONTINUOUS
 62
7
 10
3.4265529573673
 20
9.5636974282381
  0
VERTEX
  8
EFKV.2a
  6
CONTINUOUS
 62
7
 10
3.4265529573673
 20
9.5661974282381
  0
VERTEX
  8
EFKV.2a
  6
CONTINUOUS
 62
7
 10
3.4215529573673
 20
9.5687974282381
  0
VERTEX
  8
EFKV.2a
  6
CONTINUOUS
 62
7
 10
3.4265529573673
 20
9.5763974282381
  0
VERTEX
  8
EFKV.2a
  6
CONTINUOUS
 62
7
 10
3.4265529573673
 20
9.5636974282381
  0
SEQEND
  0
POLYLINE
  8
EFKV.2a
  6
CONTINUOUS
 62
7
 70
0
 66
1
  0
VERTEX
  8
EFKV.2a
  6
CONTINUOUS
 62
7
 10
3.3189726031449
 20
9.6342970356966
  0
VERTEX
  8
EFKV.2a
  6
CONTINUOUS
 62
7
 10
3.3189726031449
 20
9.6367970356966
  0
VERTEX
  8
EFKV.2a
  6
CONTINUOUS
 62
7
 10
3.3139726031449
 20
9.6393970356966
  0
VERTEX
  8
EFKV.2a
  6
CONTINUOUS
 62
7
 10
3.3189726031449
 20
9.6469970356966
  0
VERTEX
  8
EFKV.2a
  6
CONTINUOUS
 62
7
 10
3.3189726031449
 20
9.6342970356966
  0
SEQEND
  0
POLYLINE
  8
EFKV.2a
  6
CONTINUOUS
 62
7
 70
0
 66
1
  0
VERTEX
  8
EFKV.2a
  6
CONTINUOUS
 62
7
 10
3.4051316409506
 20
10.012078275475
  0
VERTEX
  8
EFKV.2a
  6
CONTINUOUS
 62
7
 10
3.4026316409506
 20
10.022278275475
  0
VERTEX
  8
EFKV.2a
  6
CONTINUOUS
 62
7
 10
3.4051316409506
 20
10.012078275475
  0
SEQEND
  0
POLYLINE
  8
EFKV.2a
  6
CONTINUOUS
 62
7
 70
0
 66
1
  0
VERTEX
  8
EFKV.2a
  6
CONTINUOUS
 62
7
 10
3.5530546280064
 20
9.6960609849467
  0
VERTEX
  8
EFKV.2a
  6
CONTINUOUS
 62
7
 10
3.5505546280064
 20
9.7062609849467
  0
VERTEX
  8
EFKV.2a
  6
CONTINUOUS
 62
7
 10
3.5530546280064
 20
9.6960609849467
  0
SEQEND
  0
POLYLINE
  8
EFKV.2a
  6
CONTINUOUS
 62
7
 70
0
 66
1
  0
VERTEX
  8
EFKV.2a
  6
CONTINUOUS
 62
7
 10
3.7547677921734
 20
9.1010071506541
  0
VERTEX
  8
EFKV.2a
  6
CONTINUOUS
 62
7
 10
3.7522677921734
 20
9.1112071506541
  0
VERTEX
  8
EFKV.2a
  6
CONTINUOUS
 62
7
 10
3.7547677921734
 20
9.1010071506541
  0
SEQEND
  0
POLYLINE
  8
EFKV.2a
  6
CONTINUOUS
 62
7
 70
0
 66
1
  0
VERTEX
  8
EFKV.2a
  6
CONTINUOUS
 62
7
 10
3.8993288931597
 20
8.9665317078761
  0
VERTEX
  8
EFKV.2a
  6
CONTINUOUS
 62
7
 10
3.8968288931597
 20
8.9767317078761
  0
VERTEX
  8
EFKV.2a
  6
CONTINUOUS
 62
7
 10
3.8993288931597
 20
8.9665317078761
  0
SEQEND
  0
POLYLINE
  8
EFKV.2a
  6
CONTINUOUS
 62
7
 70
0
 66
1
  0
VERTEX
  8
EFKV.2a
  6
CONTINUOUS
 62
7
 10
3.337405805631
 20
10.2856410471
  0
VERTEX
  8
EFKV.2a
  6
CONTINUOUS
 62
7
 10
3.334905805631
 20
10.2933410471
  0
VERTEX
  8
EFKV.2a
  6
CONTINUOUS
 62
7
 10
3.345105805631
 20
10.2856410471
  0
VERTEX
  8
EFKV.2a
  6
CONTINUOUS
 62
7
 10
3.337405805631
 20
10.2856410471
  0
SEQEND
  0
POLYLINE
  8
EFKV.2a
  6
CONTINUOUS
 62
7
 70
0
 66
1
  0
VERTEX
  8
EFKV.2a
  6
CONTINUOUS
 62
7
 10
3.3189726031449
 20
8.8476156954453
  0
VERTEX
  8
EFKV.2a
  6
CONTINUOUS
 62
7
 10
3.3189726031449
 20
8.8501156954453
  0
VERTEX
  8
EFKV.2a
  6
CONTINUOUS
 62
7
 10
3.3139726031449
 20
8.8527156954453
  0
VERTEX
  8
EFKV.2a
  6
CONTINUOUS
 62
7
 10
3.3189726031449
 20
8.8603156954453
  0
VERTEX
  8
EFKV.2a
  6
CONTINUOUS
 62
7
 10
3.3189726031449
 20
8.8476156954453
  0
SEQEND
  0
POLYLINE
  8
EFKV.2a
  6
CONTINUOUS
 62
7
 70
0
 66
1
  0
VERTEX
  8
EFKV.2a
  6
CONTINUOUS
 62
7
 10
3.581199716562
 20
9.4292219854601
  0
VERTEX
  8
EFKV.2a
  6
CONTINUOUS
 62
7
 10
3.581199716562
 20
9.4317219854601
  0
VERTEX
  8
EFKV.2a
  6
CONTINUOUS
 62
7
 10
3.576199716562
 20
9.4343219854601
  0
VERTEX
  8
EFKV.2a
  6
CONTINUOUS
 62
7
 10
3.581199716562
 20
9.4419219854601
  0
VERTEX
  8
EFKV.2a
  6
CONTINUOUS
 62
7
 10
3.581199716562
 20
9.4292219854601
  0
SEQEND
  0
LINE
  8
EFKV.2a
  6
CONTINUOUS
 62
8
 10
3.8366670426223
 20
9.9678832813426
 11
4.1753503927751
 21
9.7723443579619
  0
LINE
  8
EFKV.2a
  6
CONTINUOUS
 62
8
 10
3.8366670426223
 20
9.9769754115661
 11
4.1832244085231
 21
9.7768904230736
  0
LINE
  8
EFKV.2a
  6
CONTINUOUS
 62
8
 10
3.8366670426223
 20
9.9860675417895
 11
3.8991196841137
 21
9.9500104924129
  0
LINE
  8
EFKV.2a
  6
CONTINUOUS
 62
8
 10
3.8366670426223
 20
9.995159672013
 11
3.8991196841137
 21
9.9591026226364
  0
LINE
  8
EFKV.2a
  6
CONTINUOUS
 62
8
 10
4.5255045213344
 20
10.293469686352
 11
3.9227417313578
 21
9.9454644273012
  0
LINE
  8
EFKV.2a
  6
CONTINUOUS
 62
8
 10
4.5176305055863
 20
10.298015751463
 11
3.9069936998617
 21
9.9454644273012
  0
LINE
  8
EFKV.2a
  6
CONTINUOUS
 62
8
 10
4.5097564898383
 20
10.302561816575
 11
3.8991196841137
 21
9.9500104924129
  0
LINE
  8
EFKV.2a
  6
CONTINUOUS
 62
8
 10
4.5018824740903
 20
10.307107881687
 11
3.8991196841137
 21
9.9591026226364
  0
LINE
  8
EFKV.2a
  6
CONTINUOUS
 62
8
 10
3.9069936998617
 20
9.9454644273012
 11
4.1910984242712
 21
9.7814364881853
  0
LINE
  8
EFKV.2a
  6
CONTINUOUS
 62
8
 10
3.9227417313578
 20
9.9454644273012
 11
4.1989724400192
 21
9.7859825532971
  0
LINE
  8
EFKV.2a
  6
CONTINUOUS
 62
8
 10
3.9432145660035
 20
9.3672795114475
 11
3.9432145660035
 21
9.250305791505
  0
LINE
  8
EFKV.2a
  6
CONTINUOUS
 62
8
 10
3.9451830699405
 20
9.3684160277254
 11
3.9451830699405
 21
9.2537153403388
  0
LINE
  8
EFKV.2a
  6
CONTINUOUS
 62
8
 10
3.9471515738775
 20
9.3695525440034
 11
3.9471515738775
 21
9.2571248891726
  0
LINE
  8
EFKV.2a
  6
CONTINUOUS
 62
8
 10
3.9491200778145
 20
9.3706890602813
 11
3.9491200778145
 21
9.2605344380063
  0
LINE
  8
EFKV.2a
  6
CONTINUOUS
 62
8
 10
3.9510885817515
 20
9.3718255765592
 11
3.9510885817515
 21
9.2639439868401
  0
LINE
  8
EFKV.2a
  6
CONTINUOUS
 62
8
 10
3.9530570856885
 20
9.3729620928372
 11
3.9530570856885
 21
9.2673535356739
  0
LINE
  8
EFKV.2a
  6
CONTINUOUS
 62
8
 10
3.9530570856885
 20
9.2673535356739
 11
4.0618379770458
 21
9.3301582125818
  0
LINE
  8
EFKV.2a
  6
CONTINUOUS
 62
8
 10
3.9510885817515
 20
9.2639439868401
 11
4.0598694731088
 21
9.326748663748
  0
LINE
  8
EFKV.2a
  6
CONTINUOUS
 62
8
 10
3.9491200778145
 20
9.2605344380063
 11
4.0579009691718
 21
9.3233391149142
  0
LINE
  8
EFKV.2a
  6
CONTINUOUS
 62
8
 10
3.9471515738775
 20
9.2571248891726
 11
4.0559324652348
 21
9.3199295660804
  0
LINE
  8
EFKV.2a
  6
CONTINUOUS
 62
8
 10
3.9451830699405
 20
9.2537153403388
 11
4.0539639612977
 21
9.3165200172466
  0
LINE
  8
EFKV.2a
  6
CONTINUOUS
 62
8
 10
3.9432145660035
 20
9.250305791505
 11
4.0519954573607
 21
9.3131104684128
  0
LINE
  8
EFKV.2a
  6
CONTINUOUS
 62
8
 10
4.0519954573607
 20
9.3131104684128
 11
4.0519954573607
 21
9.3043410248157
  0
LINE
  8
EFKV.2a
  6
CONTINUOUS
 62
8
 10
4.0539639612977
 20
9.3165200172466
 11
4.0539639612977
 21
9.3054775410937
  0
LINE
  8
EFKV.2a
  6
CONTINUOUS
 62
8
 10
4.0559324652348
 20
9.3199295660804
 11
4.0559324652348
 21
9.3066140573716
  0
LINE
  8
EFKV.2a
  6
CONTINUOUS
 62
8
 10
4.0579009691718
 20
9.3233391149142
 11
4.0579009691718
 21
9.3077505736495
  0
LINE
  8
EFKV.2a
  6
CONTINUOUS
 62
8
 10
4.0598694731088
 20
9.326748663748
 11
4.0598694731088
 21
9.3088870899274
  0
LINE
  8
EFKV.2a
  6
CONTINUOUS
 62
8
 10
4.0618379770458
 20
9.3301582125818
 11
4.0618379770458
 21
9.3100236062054
  0
LINE
  8
EFKV.2a
  6
CONTINUOUS
 62
8
 10
3.9439099585045
 20
9.1886545766664
 11
4.0501714404143
 21
9.2500046718515
  0
LINE
  8
EFKV.2a
  6
CONTINUOUS
 62
8
 10
3.9451830699405
 20
9.1871165753408
 11
4.0539639612977
 21
9.2499212522486
  0
LINE
  8
EFKV.2a
  6
CONTINUOUS
 62
8
 10
3.9432145660035
 20
9.1882530916188
 11
4.0519954573607
 21
9.2510577685266
  0
LINE
  8
EFKV.2a
  6
CONTINUOUS
 62
8
 10
3.9471515738775
 20
9.1859800590629
 11
4.0559324652348
 21
9.2487847359707
  0
LINE
  8
EFKV.2a
  6
CONTINUOUS
 62
8
 10
3.9491200778145
 20
9.184843542785
 11
4.0579009691718
 21
9.2476482196928
  0
LINE
  8
EFKV.2a
  6
CONTINUOUS
 62
8
 10
3.9510885817515
 20
9.183707026507
 11
4.0598694731088
 21
9.2465117034148
  0
LINE
  8
EFKV.2a
  6
CONTINUOUS
 62
8
 10
3.9432145660035
 20
9.1882530916188
 11
3.9432145660035
 21
9.1556103265536
  0
LINE
  8
EFKV.2a
  6
CONTINUOUS
 62
8
 10
3.9451830699405
 20
9.1871165753408
 11
3.9451830699405
 21
9.1544738102757
  0
LINE
  8
EFKV.2a
  6
CONTINUOUS
 62
8
 10
3.9471515738775
 20
9.1859800590629
 11
3.9471515738775
 21
9.1533372939977
  0
LINE
  8
EFKV.2a
  6
CONTINUOUS
 62
8
 10
3.9491200778145
 20
9.184843542785
 11
3.9491200778145
 21
9.1522007777198
  0
LINE
  8
EFKV.2a
  6
CONTINUOUS
 62
8
 10
3.9510885817515
 20
9.183707026507
 11
3.9510885817515
 21
9.1510642614419
  0
LINE
  8
EFKV.2a
  6
CONTINUOUS
 62
8
 10
4.0519954573607
 20
9.2510577685266
 11
4.0519954573607
 21
9.2570753424682
  0
LINE
  8
EFKV.2a
  6
CONTINUOUS
 62
8
 10
4.0539639612977
 20
9.2499212522486
 11
4.0539639612977
 21
9.2559388261903
  0
LINE
  8
EFKV.2a
  6
CONTINUOUS
 62
8
 10
4.0559324652348
 20
9.2487847359707
 11
4.0559324652348
 21
9.2548023099124
  0
LINE
  8
EFKV.2a
  6
CONTINUOUS
 62
8
 10
4.0579009691718
 20
9.2476482196928
 11
4.0579009691718
 21
9.2536657936344
  0
LINE
  8
EFKV.2a
  6
CONTINUOUS
 62
8
 10
4.0598694731088
 20
9.2465117034148
 11
4.0598694731088
 21
9.2525292773565
  0
LINE
  8
EFKV.2a
  6
CONTINUOUS
 62
8
 10
3.9582328644313
 20
9.5530522442284
 11
3.9582328644313
 21
9.3611974826456
  0
LINE
  8
EFKV.2a
  6
CONTINUOUS
 62
8
 10
3.9602013683683
 20
9.5519157279504
 11
3.9602013683683
 21
9.3623339989235
  0
LINE
  8
EFKV.2a
  6
CONTINUOUS
 62
8
 10
3.9621698723053
 20
9.5507792116725
 11
3.9621698723053
 21
9.3634705152015
  0
LINE
  8
EFKV.2a
  6
CONTINUOUS
 62
8
 10
3.9641383762423
 20
9.5496426953946
 11
3.9641383762423
 21
9.3646070314794
  0
LINE
  8
EFKV.2a
  6
CONTINUOUS
 62
8
 10
3.9661068801794
 20
9.5485061791166
 11
3.9661068801794
 21
9.3657435477573
  0
LINE
  8
EFKV.2a
  6
CONTINUOUS
 62
8
 10
4.1369645660035
 20
9.5456093605144
 11
4.1369645660035
 21
9.1693580657137
  0
LINE
  8
EFKV.2a
  6
CONTINUOUS
 62
8
 10
4.1389330699405
 20
9.5467458767923
 11
4.1389330699405
 21
9.1682215494358
  0
LINE
  8
EFKV.2a
  6
CONTINUOUS
 62
8
 10
4.1409015738775
 20
9.5478823930702
 11
4.1409015738775
 21
9.1670850331579
  0
LINE
  8
EFKV.2a
  6
CONTINUOUS
 62
8
 10
4.1428700778145
 20
9.5490189093482
 11
4.1428700778145
 21
9.1659485168799
  0
LINE
  8
EFKV.2a
  6
CONTINUOUS
 62
8
 10
4.1448385817515
 20
9.5501554256261
 11
4.1448385817515
 21
9.164812000602
  0
LINE
  8
EFKV.2a
  6
CONTINUOUS
 62
8
 10
4.1468070856885
 20
9.551291941904
 11
4.1468070856885
 21
9.1636754843241
  0
LINE
  8
EFKV.2a
  6
CONTINUOUS
 62
8
 10
3.9680753841164
 20
9.5473696628387
 11
3.9680753841164
 21
9.3668800640353
  0
ENDSEC
  0
EOF
