  0
SECTION
  2
HEADER
  9
$EXTMIN
 10
3.2954781754683
 20
8.5086235066301
  9
$EXTMAX
 10
4.8702813250746
 20
10.083426656236
  9
$LIMMIN
 10
0
 20
0
  9
$LIMMAX
 10
8.2666666666667
 20
11.69
  0
ENDSEC
  0
SECTION
  2
TABLES
  0
TABLE
  2
LTYPE
 70
9
  0
LTYPE
  2
CONTINUOUS
  3
___________________________
 70
64
 72
65
 73
0
 40
0
  0
LTYPE
  2
HIDDEN
  3
_ _ _ _ _ _ _ _ _ _ _ _ _ _ 
 70
64
 72
65
 73
2
 49
0.25
 49
-0.125
 40
0.375
  0
LTYPE
  2
DASHED
  3
__ __ __ __ __ __ __ __ __ 
 70
64
 72
65
 73
2
 49
0.5
 49
-0.25
 40
0.75
  0
LTYPE
  2
CENTER
  3
____ _ ____ _ ____ _ ____ _ 
 70
64
 72
65
 73
4
 49
1.25
 49
-0.25
 49
0.25
 49
-0.25
 40
2
  0
LTYPE
  2
PHANTOM
  3
_____ _ _ _____ _ _ _____ _ _ 
 70
64
 72
65
 73
6
 49
1.25
 49
-0.25
 49
0.25
 49
-0.25
 49
0.25
 49
-0.25
 40
2.5
  0
LTYPE
  2
DOT
  3
...........................
 70
64
 72
65
 73
2
 49
0
 49
-0.25
 40
0.25
  0
LTYPE
  2
DASHDOT
  3
__ . __ . __ . __ . __ . __ . 
 70
64
 72
65
 73
4
 49
0.5
 49
-0.25
 49
0
 49
-0.25
 40
1
  0
LTYPE
  2
DIVIDE
  3
__ . . __ . . __ . . __ . . 
 70
64
 72
65
 73
6
 49
0.5
 49
-0.25
 49
0
 49
-0.25
 49
0
 49
-0.25
 40
1.25
  0
LTYPE
  2
BORDER
  3
__ __ . __ __ . __ __ . __ __ . 
 70
64
 72
65
 73
6
 49
0.5
 49
-0.25
 49
0.5
 49
-0.25
 49
0
 49
-0.25
 40
1.75
  0
ENDTAB
  0
TABLE
  2
LAYER
 70
1
  0
LAYER
  2
EFKV.1b
 62
7
  6
CONTINUOUS
 70
0
  0
ENDTAB
  0
TABLE
  2
STYLE
 70
5
  0
STYLE
  2
ptmarker
 70
1
 40
0
 50
0
 71
0
 41
0
 42
0
  3
ptmarks
  0
STYLE
  2
TXT
 70
0
 40
0
 50
0
 71
0
 41
0
 42
0
  3
TXT
  0
STYLE
  2
ITALIC
 70
0
 40
0
 50
0
 71
0
 41
0
 42
0
  3
ITALIC
  0
STYLE
  2
SIMPLEX
 70
0
 40
0
 50
0
 71
0
 41
0
 42
0
  3
SIMPLEX
  0
STYLE
  2
COMPLEX
 70
0
 40
0
 50
0
 71
0
 41
0
 42
0
  3
COMPLEX
  0
ENDTAB
  0
ENDSEC
  0
SECTION
  2
BLOCKS
  0
ENDSEC
  0
SECTION
  2
ENTITIES
  0
LINE
  8
EFKV.1b
  6
CONTINUOUS
 62
8
 10
3.5725241938608
 20
9.4940563773348
 11
3.6191234654536
 21
9.5209604793329
  0
LINE
  8
EFKV.1b
  6
CONTINUOUS
 62
8
 10
3.5747298566117
 20
9.4930567847619
 11
3.6195287101243
 21
9.5189214148968
  0
POLYLINE
  8
EFKV.1b
  6
CONTINUOUS
 62
7
 70
0
 66
1
  0
VERTEX
  8
EFKV.1b
  6
CONTINUOUS
 62
7
 10
3.5489796650093
 20
9.5489144013583
  0
VERTEX
  8
EFKV.1b
  6
CONTINUOUS
 62
7
 10
3.5464796650093
 20
9.5591144013583
  0
VERTEX
  8
EFKV.1b
  6
CONTINUOUS
 62
7
 10
3.5489796650093
 20
9.5489144013583
  0
SEQEND
  0
POLYLINE
  8
EFKV.1b
  6
CONTINUOUS
 62
7
 70
0
 66
1
  0
VERTEX
  8
EFKV.1b
  6
CONTINUOUS
 62
7
 10
3.7759641955498
 20
9.2771706615169
  0
VERTEX
  8
EFKV.1b
  6
CONTINUOUS
 62
7
 10
3.7734641955498
 20
9.2873706615169
  0
VERTEX
  8
EFKV.1b
  6
CONTINUOUS
 62
7
 10
3.7759641955498
 20
9.2771706615169
  0
SEQEND
  0
POLYLINE
  8
EFKV.1b
  6
CONTINUOUS
 62
7
 70
0
 66
1
  0
VERTEX
  8
EFKV.1b
  6
CONTINUOUS
 62
7
 10
3.4682052884953
 20
9.8868077321792
  0
VERTEX
  8
EFKV.1b
  6
CONTINUOUS
 62
7
 10
3.4657052884953
 20
9.8970077321792
  0
VERTEX
  8
EFKV.1b
  6
CONTINUOUS
 62
7
 10
3.4682052884953
 20
9.8868077321792
  0
SEQEND
  0
POLYLINE
  8
EFKV.1b
  6
CONTINUOUS
 62
7
 70
0
 66
1
  0
VERTEX
  8
EFKV.1b
  6
CONTINUOUS
 62
7
 10
3.4838872710203
 20
9.7917357131209
  0
VERTEX
  8
EFKV.1b
  6
CONTINUOUS
 62
7
 10
3.4813872710203
 20
9.8019357131209
  0
VERTEX
  8
EFKV.1b
  6
CONTINUOUS
 62
7
 10
3.4838872710203
 20
9.7917357131209
  0
SEQEND
  0
POLYLINE
  8
EFKV.1b
  6
CONTINUOUS
 62
7
 70
0
 66
1
  0
VERTEX
  8
EFKV.1b
  6
CONTINUOUS
 62
7
 10
3.7406797348684
 20
9.2879520245029
  0
VERTEX
  8
EFKV.1b
  6
CONTINUOUS
 62
7
 10
3.7381797348684
 20
9.2981520245029
  0
VERTEX
  8
EFKV.1b
  6
CONTINUOUS
 62
7
 10
3.7406797348684
 20
9.2879520245029
  0
SEQEND
  0
POLYLINE
  8
EFKV.1b
  6
CONTINUOUS
 62
7
 70
0
 66
1
  0
VERTEX
  8
EFKV.1b
  6
CONTINUOUS
 62
7
 10
3.6975542829245
 20
9.3153954939218
  0
VERTEX
  8
EFKV.1b
  6
CONTINUOUS
 62
7
 10
3.6950542829245
 20
9.3255954939218
  0
VERTEX
  8
EFKV.1b
  6
CONTINUOUS
 62
7
 10
3.6975542829245
 20
9.3153954939218
  0
SEQEND
  0
POLYLINE
  8
EFKV.1b
  6
CONTINUOUS
 62
7
 70
0
 66
1
  0
VERTEX
  8
EFKV.1b
  6
CONTINUOUS
 62
7
 10
3.5877804052489
 20
9.5359233731806
  0
VERTEX
  8
EFKV.1b
  6
CONTINUOUS
 62
7
 10
3.5852804052489
 20
9.5461233731806
  0
VERTEX
  8
EFKV.1b
  6
CONTINUOUS
 62
7
 10
3.5877804052489
 20
9.5359233731806
  0
SEQEND
  0
POLYLINE
  8
EFKV.1b
  6
CONTINUOUS
 62
7
 70
0
 66
1
  0
VERTEX
  8
EFKV.1b
  6
CONTINUOUS
 62
7
 10
3.5403650503024
 20
9.5009019502946
  0
VERTEX
  8
EFKV.1b
  6
CONTINUOUS
 62
7
 10
3.5378650503024
 20
9.5111019502946
  0
VERTEX
  8
EFKV.1b
  6
CONTINUOUS
 62
7
 10
3.5403650503024
 20
9.5009019502946
  0
SEQEND
  0
POLYLINE
  8
EFKV.1b
  6
CONTINUOUS
 62
7
 70
0
 66
1
  0
VERTEX
  8
EFKV.1b
  6
CONTINUOUS
 62
7
 10
3.5995418921428
 20
9.3673420610361
  0
VERTEX
  8
EFKV.1b
  6
CONTINUOUS
 62
7
 10
3.5970418921428
 20
9.3775420610361
  0
VERTEX
  8
EFKV.1b
  6
CONTINUOUS
 62
7
 10
3.5995418921428
 20
9.3673420610361
  0
SEQEND
  0
POLYLINE
  8
EFKV.1b
  6
CONTINUOUS
 62
7
 70
0
 66
1
  0
VERTEX
  8
EFKV.1b
  6
CONTINUOUS
 62
7
 10
3.672456742283
 20
9.3182919936087
  0
VERTEX
  8
EFKV.1b
  6
CONTINUOUS
 62
7
 10
3.669956742283
 20
9.3259919936087
  0
VERTEX
  8
EFKV.1b
  6
CONTINUOUS
 62
7
 10
3.680156742283
 20
9.3182919936087
  0
VERTEX
  8
EFKV.1b
  6
CONTINUOUS
 62
7
 10
3.672456742283
 20
9.3182919936087
  0
SEQEND
  0
POLYLINE
  8
EFKV.1b
  6
CONTINUOUS
 62
7
 70
0
 66
1
  0
VERTEX
  8
EFKV.1b
  6
CONTINUOUS
 62
7
 10
3.6623198222431
 20
9.3484498306954
  0
VERTEX
  8
EFKV.1b
  6
CONTINUOUS
 62
7
 10
3.6572198222431
 20
9.3611498306954
  0
VERTEX
  8
EFKV.1b
  6
CONTINUOUS
 62
7
 10
3.6648198222431
 20
9.3611498306954
  0
VERTEX
  8
EFKV.1b
  6
CONTINUOUS
 62
7
 10
3.6623198222431
 20
9.3484498306954
  0
SEQEND
  0
POLYLINE
  8
EFKV.1b
  6
CONTINUOUS
 62
7
 70
0
 66
1
  0
VERTEX
  8
EFKV.1b
  6
CONTINUOUS
 62
7
 10
3.4544906989275
 20
9.9658388768544
  0
VERTEX
  8
EFKV.1b
  6
CONTINUOUS
 62
7
 10
3.4493906989275
 20
9.9785388768544
  0
VERTEX
  8
EFKV.1b
  6
CONTINUOUS
 62
7
 10
3.4569906989275
 20
9.9785388768544
  0
VERTEX
  8
EFKV.1b
  6
CONTINUOUS
 62
7
 10
3.4544906989275
 20
9.9658388768544
  0
SEQEND
  0
POLYLINE
  8
EFKV.1b
  6
CONTINUOUS
 62
7
 70
0
 66
1
  0
VERTEX
  8
EFKV.1b
  6
CONTINUOUS
 62
7
 10
3.5240943760582
 20
9.7164571265664
  0
VERTEX
  8
EFKV.1b
  6
CONTINUOUS
 62
7
 10
3.5189943760582
 20
9.7291571265664
  0
VERTEX
  8
EFKV.1b
  6
CONTINUOUS
 62
7
 10
3.5265943760582
 20
9.7291571265664
  0
VERTEX
  8
EFKV.1b
  6
CONTINUOUS
 62
7
 10
3.5240943760582
 20
9.7164571265664
  0
SEQEND
  0
POLYLINE
  8
EFKV.1b
  6
CONTINUOUS
 62
7
 70
0
 66
1
  0
VERTEX
  8
EFKV.1b
  6
CONTINUOUS
 62
7
 10
3.4313054560904
 20
10.011368716288
  0
VERTEX
  8
EFKV.1b
  6
CONTINUOUS
 62
7
 10
3.4262054560904
 20
10.024068716288
  0
VERTEX
  8
EFKV.1b
  6
CONTINUOUS
 62
7
 10
3.4338054560904
 20
10.024068716288
  0
VERTEX
  8
EFKV.1b
  6
CONTINUOUS
 62
7
 10
3.4313054560904
 20
10.011368716288
  0
SEQEND
  0
POLYLINE
  8
EFKV.1b
  6
CONTINUOUS
 62
7
 70
0
 66
1
  0
VERTEX
  8
EFKV.1b
  6
CONTINUOUS
 62
7
 10
3.5470477641594
 20
9.6556598546133
  0
VERTEX
  8
EFKV.1b
  6
CONTINUOUS
 62
7
 10
3.5445477641594
 20
9.6633598546133
  0
VERTEX
  8
EFKV.1b
  6
CONTINUOUS
 62
7
 10
3.5547477641594
 20
9.6556598546133
  0
VERTEX
  8
EFKV.1b
  6
CONTINUOUS
 62
7
 10
3.5470477641594
 20
9.6556598546133
  0
SEQEND
  0
POLYLINE
  8
EFKV.1b
  6
CONTINUOUS
 62
7
 70
0
 66
1
  0
VERTEX
  8
EFKV.1b
  6
CONTINUOUS
 62
7
 10
3.7564322130248
 20
9.2548976877293
  0
VERTEX
  8
EFKV.1b
  6
CONTINUOUS
 62
7
 10
3.7539322130248
 20
9.2625976877293
  0
VERTEX
  8
EFKV.1b
  6
CONTINUOUS
 62
7
 10
3.7641322130248
 20
9.2548976877293
  0
VERTEX
  8
EFKV.1b
  6
CONTINUOUS
 62
7
 10
3.7564322130248
 20
9.2548976877293
  0
SEQEND
  0
POLYLINE
  8
EFKV.1b
  6
CONTINUOUS
 62
7
 70
0
 66
1
  0
VERTEX
  8
EFKV.1b
  6
CONTINUOUS
 62
7
 10
3.498515475807
 20
9.6231140898849
  0
VERTEX
  8
EFKV.1b
  6
CONTINUOUS
 62
7
 10
3.496015475807
 20
9.6308140898849
  0
VERTEX
  8
EFKV.1b
  6
CONTINUOUS
 62
7
 10
3.506215475807
 20
9.6231140898849
  0
VERTEX
  8
EFKV.1b
  6
CONTINUOUS
 62
7
 10
3.498515475807
 20
9.6231140898849
  0
SEQEND
  0
POLYLINE
  8
EFKV.1b
  6
CONTINUOUS
 62
7
 70
0
 66
1
  0
VERTEX
  8
EFKV.1b
  6
CONTINUOUS
 62
7
 10
3.494985874396
 20
9.9254768878562
  0
VERTEX
  8
EFKV.1b
  6
CONTINUOUS
 62
7
 10
3.477185874396
 20
9.9330768878562
  0
VERTEX
  8
EFKV.1b
  6
CONTINUOUS
 62
7
 10
3.477185874396
 20
9.9406768878562
  0
VERTEX
  8
EFKV.1b
  6
CONTINUOUS
 62
7
 10
3.494985874396
 20
9.9254768878562
  0
SEQEND
  0
POLYLINE
  8
EFKV.1b
  6
CONTINUOUS
 62
7
 70
0
 66
1
  0
VERTEX
  8
EFKV.1b
  6
CONTINUOUS
 62
7
 10
3.5034049070593
 20
9.7392715603709
  0
VERTEX
  8
EFKV.1b
  6
CONTINUOUS
 62
7
 10
3.4856049070593
 20
9.7468715603709
  0
VERTEX
  8
EFKV.1b
  6
CONTINUOUS
 62
7
 10
3.4856049070593
 20
9.7544715603709
  0
VERTEX
  8
EFKV.1b
  6
CONTINUOUS
 62
7
 10
3.5034049070593
 20
9.7392715603709
  0
SEQEND
  0
POLYLINE
  8
EFKV.1b
  6
CONTINUOUS
 62
7
 70
0
 66
1
  0
VERTEX
  8
EFKV.1b
  6
CONTINUOUS
 62
7
 10
3.7992961780749
 20
9.236445829112
  0
VERTEX
  8
EFKV.1b
  6
CONTINUOUS
 62
7
 10
3.7814961780749
 20
9.244045829112
  0
VERTEX
  8
EFKV.1b
  6
CONTINUOUS
 62
7
 10
3.7814961780749
 20
9.251645829112
  0
VERTEX
  8
EFKV.1b
  6
CONTINUOUS
 62
7
 10
3.7992961780749
 20
9.236445829112
  0
SEQEND
  0
POLYLINE
  8
EFKV.1b
  6
CONTINUOUS
 62
7
 70
0
 66
1
  0
VERTEX
  8
EFKV.1b
  6
CONTINUOUS
 62
7
 10
3.5763883257264
 20
9.4258864577097
  0
VERTEX
  8
EFKV.1b
  6
CONTINUOUS
 62
7
 10
3.5585883257264
 20
9.4334864577097
  0
VERTEX
  8
EFKV.1b
  6
CONTINUOUS
 62
7
 10
3.5585883257264
 20
9.4410864577097
  0
VERTEX
  8
EFKV.1b
  6
CONTINUOUS
 62
7
 10
3.5763883257264
 20
9.4258864577097
  0
SEQEND
  0
POLYLINE
  8
EFKV.1b
  6
CONTINUOUS
 62
7
 70
0
 66
1
  0
VERTEX
  8
EFKV.1b
  6
CONTINUOUS
 62
7
 10
3.830140886572
 20
9.2406362008355
  0
VERTEX
  8
EFKV.1b
  6
CONTINUOUS
 62
7
 10
3.830140886572
 20
9.2431362008355
  0
VERTEX
  8
EFKV.1b
  6
CONTINUOUS
 62
7
 10
3.825140886572
 20
9.2457362008355
  0
VERTEX
  8
EFKV.1b
  6
CONTINUOUS
 62
7
 10
3.830140886572
 20
9.2533362008355
  0
VERTEX
  8
EFKV.1b
  6
CONTINUOUS
 62
7
 10
3.830140886572
 20
9.2406362008355
  0
SEQEND
  0
POLYLINE
  8
EFKV.1b
  6
CONTINUOUS
 62
7
 70
0
 66
1
  0
VERTEX
  8
EFKV.1b
  6
CONTINUOUS
 62
7
 10
3.3690133933448
 20
10.052768548692
  0
VERTEX
  8
EFKV.1b
  6
CONTINUOUS
 62
7
 10
3.3665133933448
 20
10.060368548692
  0
VERTEX
  8
EFKV.1b
  6
CONTINUOUS
 62
7
 10
3.3792133933448
 20
10.060368548692
  0
VERTEX
  8
EFKV.1b
  6
CONTINUOUS
 62
7
 10
3.3690133933448
 20
10.052768548692
  0
SEQEND
  0
POLYLINE
  8
EFKV.1b
  6
CONTINUOUS
 62
7
 70
0
 66
1
  0
VERTEX
  8
EFKV.1b
  6
CONTINUOUS
 62
7
 10
3.646687839718
 20
9.3077249982905
  0
VERTEX
  8
EFKV.1b
  6
CONTINUOUS
 62
7
 10
3.638987839718
 20
9.3254249982905
  0
VERTEX
  8
EFKV.1b
  6
CONTINUOUS
 62
7
 10
3.651687839718
 20
9.3254249982905
  0
VERTEX
  8
EFKV.1b
  6
CONTINUOUS
 62
7
 10
3.646687839718
 20
9.3077249982905
  0
SEQEND
  0
POLYLINE
  8
EFKV.1b
  6
CONTINUOUS
 62
7
 70
0
 66
1
  0
VERTEX
  8
EFKV.1b
  6
CONTINUOUS
 62
7
 10
3.4995692535454
 20
9.8476027758665
  0
VERTEX
  8
EFKV.1b
  6
CONTINUOUS
 62
7
 10
3.4970692535454
 20
9.8578027758665
  0
VERTEX
  8
EFKV.1b
  6
CONTINUOUS
 62
7
 10
3.4995692535454
 20
9.8476027758665
  0
SEQEND
  0
POLYLINE
  8
EFKV.1b
  6
CONTINUOUS
 62
7
 70
0
 66
1
  0
VERTEX
  8
EFKV.1b
  6
CONTINUOUS
 62
7
 10
3.5721484227239
 20
9.5562360991526
  0
VERTEX
  8
EFKV.1b
  6
CONTINUOUS
 62
7
 10
3.5670484227239
 20
9.5689360991526
  0
VERTEX
  8
EFKV.1b
  6
CONTINUOUS
 62
7
 10
3.5746484227239
 20
9.5689360991526
  0
VERTEX
  8
EFKV.1b
  6
CONTINUOUS
 62
7
 10
3.5721484227239
 20
9.5562360991526
  0
SEQEND
  0
POLYLINE
  8
EFKV.1b
  6
CONTINUOUS
 62
7
 70
0
 66
1
  0
VERTEX
  8
EFKV.1b
  6
CONTINUOUS
 62
7
 10
3.4334981533107
 20
10.047744604727
  0
VERTEX
  8
EFKV.1b
  6
CONTINUOUS
 62
7
 10
3.4232981533107
 20
10.057944604727
  0
VERTEX
  8
EFKV.1b
  6
CONTINUOUS
 62
7
 10
3.4232981533107
 20
10.060444604727
  0
VERTEX
  8
EFKV.1b
  6
CONTINUOUS
 62
7
 10
3.4512981533107
 20
10.050344604727
  0
VERTEX
  8
EFKV.1b
  6
CONTINUOUS
 62
7
 10
3.4334981533107
 20
10.047744604727
  0
SEQEND
  0
POLYLINE
  8
EFKV.1b
  6
CONTINUOUS
 62
7
 70
0
 66
1
  0
VERTEX
  8
EFKV.1b
  6
CONTINUOUS
 62
7
 10
3.4649476763821
 20
9.725523707564
  0
VERTEX
  8
EFKV.1b
  6
CONTINUOUS
 62
7
 10
3.4624476763821
 20
9.733223707564
  0
VERTEX
  8
EFKV.1b
  6
CONTINUOUS
 62
7
 10
3.4726476763821
 20
9.725523707564
  0
VERTEX
  8
EFKV.1b
  6
CONTINUOUS
 62
7
 10
3.4649476763821
 20
9.725523707564
  0
SEQEND
  0
POLYLINE
  8
EFKV.1b
  6
CONTINUOUS
 62
7
 70
0
 66
1
  0
VERTEX
  8
EFKV.1b
  6
CONTINUOUS
 62
7
 10
3.4626158041209
 20
9.8384691143872
  0
VERTEX
  8
EFKV.1b
  6
CONTINUOUS
 62
7
 10
3.4626158041209
 20
9.8511691143872
  0
VERTEX
  8
EFKV.1b
  6
CONTINUOUS
 62
7
 10
3.4652158041209
 20
9.8562691143872
  0
VERTEX
  8
EFKV.1b
  6
CONTINUOUS
 62
7
 10
3.4626158041209
 20
9.8384691143872
  0
SEQEND
  0
POLYLINE
  8
EFKV.1b
  6
CONTINUOUS
 62
7
 70
0
 66
1
  0
VERTEX
  8
EFKV.1b
  6
CONTINUOUS
 62
7
 10
3.7995371693375
 20
9.2514175638215
  0
VERTEX
  8
EFKV.1b
  6
CONTINUOUS
 62
7
 10
3.7944371693375
 20
9.2641175638215
  0
VERTEX
  8
EFKV.1b
  6
CONTINUOUS
 62
7
 10
3.8020371693375
 20
9.2641175638215
  0
VERTEX
  8
EFKV.1b
  6
CONTINUOUS
 62
7
 10
3.7995371693375
 20
9.2514175638215
  0
SEQEND
  0
LINE
  8
EFKV.1b
  6
CONTINUOUS
 62
8
 10
4.5530244297472
 20
9.1090337499828
 11
4.5530244297472
 21
9.077473198742
  0
LINE
  8
EFKV.1b
  6
CONTINUOUS
 62
8
 10
4.6396439942465
 20
9.0274633698612
 11
4.5530244297472
 21
9.077473198742
  0
LINE
  8
EFKV.1b
  6
CONTINUOUS
 62
8
 10
4.2127559952115
 20
9.2739272710179
 11
4.2046773254581
 21
9.2785914931747
  0
LINE
  8
EFKV.1b
  6
CONTINUOUS
 62
8
 10
4.2912968899574
 20
9.228581664294
 11
4.2732846029334
 21
9.238981063056
  0
LINE
  8
EFKV.1b
  6
CONTINUOUS
 62
8
 10
4.2046773254581
 20
9.3101520444156
 11
4.2046773254581
 21
9.2785914931747
  0
LINE
  8
EFKV.1b
  6
CONTINUOUS
 62
8
 10
4.2195555472581
 20
9.2980058532903
 11
4.2165101671605
 21
9.2952962622058
  0
LINE
  8
EFKV.1b
  6
CONTINUOUS
 62
8
 10
4.223250297432
 20
9.2997521007311
 11
4.2195555472581
 21
9.2980058532903
  0
LINE
  8
EFKV.1b
  6
CONTINUOUS
 62
8
 10
4.2274881264466
 20
9.3004847681687
 11
4.223250297432
 21
9.2997521007311
  0
LINE
  8
EFKV.1b
  6
CONTINUOUS
 62
8
 10
4.2321471196769
 20
9.3001827780949
 11
4.2274881264466
 21
9.3004847681687
  0
LINE
  8
EFKV.1b
  6
CONTINUOUS
 62
8
 10
4.2370932463704
 20
9.2988548182143
 11
4.2321471196769
 21
9.3001827780949
  0
LINE
  8
EFKV.1b
  6
CONTINUOUS
 62
8
 10
4.2421842154675
 20
9.2965390915149
 11
4.2370932463704
 21
9.2988548182143
  0
LINE
  8
EFKV.1b
  6
CONTINUOUS
 62
8
 10
4.2472735690563
 20
9.2933022172374
 11
4.2421842154675
 21
9.2965390915149
  0
LINE
  8
EFKV.1b
  6
CONTINUOUS
 62
8
 10
4.2522148957002
 20
9.2892373143617
 11
4.2472735690563
 21
9.2933022172374
  0
LINE
  8
EFKV.1b
  6
CONTINUOUS
 62
8
 10
4.2568660424284
 20
9.2844613227423
 11
4.2522148957002
 21
9.2892373143617
  0
LINE
  8
EFKV.1b
  6
CONTINUOUS
 62
8
 10
4.2610932042178
 20
9.2791116389627
 11
4.2568660424284
 21
9.2844613227423
  0
LINE
  8
EFKV.1b
  6
CONTINUOUS
 62
8
 10
4.2647747733201
 20
9.2733421636849
 11
4.2610932042178
 21
9.2791116389627
  0
LINE
  8
EFKV.1b
  6
CONTINUOUS
 62
8
 10
4.2678048376952
 20
9.2673188742084
 11
4.2647747733201
 21
9.2733421636849
  0
LINE
  8
EFKV.1b
  6
CONTINUOUS
 62
8
 10
4.2700962279079
 20
9.2612150496046
 11
4.2678048376952
 21
9.2673188742084
  0
LINE
  8
EFKV.1b
  6
CONTINUOUS
 62
8
 10
4.2715830248337
 20
9.2552062857944
 11
4.2700962279079
 21
9.2612150496046
  0
LINE
  8
EFKV.1b
  6
CONTINUOUS
 62
8
 10
4.2722224560321
 20
9.2494654439723
 11
4.2715830248337
 21
9.2552062857944
  0
LINE
  8
EFKV.1b
  6
CONTINUOUS
 62
8
 10
4.2719961262317
 20
9.2441576777053
 11
4.2722224560321
 21
9.2494654439723
  0
LINE
  8
EFKV.1b
  6
CONTINUOUS
 62
8
 10
4.2709105465287
 20
9.2394356817651
 11
4.2719961262317
 21
9.2441576777053
  0
LINE
  8
EFKV.1b
  6
CONTINUOUS
 62
8
 10
4.2689969470747
 20
9.2354352993775
 11
4.2709105465287
 21
9.2394356817651
  0
LINE
  8
EFKV.1b
  6
CONTINUOUS
 62
8
 10
4.2663103786419
 20
9.2322716142603
 11
4.2689969470747
 21
9.2354352993775
  0
LINE
  8
EFKV.1b
  6
CONTINUOUS
 62
8
 10
4.2629281289127
 20
9.2300356398743
 11
4.2663103786419
 21
9.2322716142603
  0
LINE
  8
EFKV.1b
  6
CONTINUOUS
 62
8
 10
4.2589474990538
 20
9.2287917011315
 11
4.2629281289127
 21
9.2300356398743
  0
LINE
  8
EFKV.1b
  6
CONTINUOUS
 62
8
 10
4.2544830045387
 20
9.2285755838848
 11
4.2589474990538
 21
9.2287917011315
  0
LINE
  8
EFKV.1b
  6
CONTINUOUS
 62
8
 10
4.2496630807461
 20
9.2293935054337
 11
4.2544830045387
 21
9.2285755838848
  0
LINE
  8
EFKV.1b
  6
CONTINUOUS
 62
8
 10
4.2446263881079
 20
9.2312219356646
 11
4.2496630807461
 21
9.2293935054337
  0
LINE
  8
EFKV.1b
  6
CONTINUOUS
 62
8
 10
4.239517823101
 20
9.2340082739687
 11
4.2446263881079
 21
9.2312219356646
  0
LINE
  8
EFKV.1b
  6
CONTINUOUS
 62
8
 10
4.2344843498396
 20
9.2376723624661
 11
4.239517823101
 21
9.2340082739687
  0
LINE
  8
EFKV.1b
  6
CONTINUOUS
 62
8
 10
4.2296707721848
 20
9.2421087920019
 11
4.2344843498396
 21
9.2376723624661
  0
LINE
  8
EFKV.1b
  6
CONTINUOUS
 62
8
 10
4.2252155680019
 20
9.2471899345757
 11
4.2296707721848
 21
9.2421087920019
  0
LINE
  8
EFKV.1b
  6
CONTINUOUS
 62
8
 10
4.2212469054036
 20
9.2527696149669
 11
4.2252155680019
 21
9.2471899345757
  0
LINE
  8
EFKV.1b
  6
CONTINUOUS
 62
8
 10
4.2178789555871
 20
9.2586873159296
 11
4.2212469054036
 21
9.2527696149669
  0
LINE
  8
EFKV.1b
  6
CONTINUOUS
 62
8
 10
4.2152086083366
 20
9.2647727959814
 11
4.2178789555871
 21
9.2586873159296
  0
LINE
  8
EFKV.1b
  6
CONTINUOUS
 62
8
 10
4.2133126846807
 20
9.2708509869409
 11
4.2152086083366
 21
9.2647727959814
  0
LINE
  8
EFKV.1b
  6
CONTINUOUS
 62
8
 10
4.2122457268909
 20
9.2767470303209
 11
4.2133126846807
 21
9.2708509869409
  0
LINE
  8
EFKV.1b
  6
CONTINUOUS
 62
8
 10
4.2120384294004
 20
9.2822913076882
 11
4.2122457268909
 21
9.2767470303209
  0
LINE
  8
EFKV.1b
  6
CONTINUOUS
 62
8
 10
4.2126967557804
 20
9.2873243202773
 11
4.2120384294004
 21
9.2822913076882
  0
LINE
  8
EFKV.1b
  6
CONTINUOUS
 62
8
 10
4.2142017671797
 20
9.2917012774797
 11
4.2126967557804
 21
9.2873243202773
  0
LINE
  8
EFKV.1b
  6
CONTINUOUS
 62
8
 10
4.2165101671605
 20
9.2952962622058
 11
4.2142017671797
 21
9.2917012774797
  0
LINE
  8
EFKV.1b
  6
CONTINUOUS
 62
8
 10
4.223260752497
 20
9.2997742753022
 11
4.2202153723993
 21
9.2970646842177
  0
LINE
  8
EFKV.1b
  6
CONTINUOUS
 62
8
 10
4.2269555026709
 20
9.301520522743
 11
4.223260752497
 21
9.2997742753022
  0
LINE
  8
EFKV.1b
  6
CONTINUOUS
 62
8
 10
4.2311933316854
 20
9.3022531901806
 11
4.2269555026709
 21
9.301520522743
  0
LINE
  8
EFKV.1b
  6
CONTINUOUS
 62
8
 10
4.2358523249158
 20
9.3019512001068
 11
4.2311933316854
 21
9.3022531901806
  0
LINE
  8
EFKV.1b
  6
CONTINUOUS
 62
8
 10
4.2407984516093
 20
9.3006232402262
 11
4.2358523249158
 21
9.3019512001068
  0
LINE
  8
EFKV.1b
  6
CONTINUOUS
 62
8
 10
4.2458894207063
 20
9.2983075135268
 11
4.2407984516093
 21
9.3006232402262
  0
LINE
  8
EFKV.1b
  6
CONTINUOUS
 62
8
 10
4.2509787742951
 20
9.2950706392493
 11
4.2458894207063
 21
9.2983075135268
  0
LINE
  8
EFKV.1b
  6
CONTINUOUS
 62
8
 10
4.2559201009391
 20
9.2910057363736
 11
4.2509787742951
 21
9.2950706392493
  0
LINE
  8
EFKV.1b
  6
CONTINUOUS
 62
8
 10
4.2605712476672
 20
9.2862297447542
 11
4.2559201009391
 21
9.2910057363736
  0
LINE
  8
EFKV.1b
  6
CONTINUOUS
 62
8
 10
4.2647984094566
 20
9.2808800609746
 11
4.2605712476672
 21
9.2862297447542
  0
LINE
  8
EFKV.1b
  6
CONTINUOUS
 62
8
 10
4.2684799785589
 20
9.2751105856969
 11
4.2647984094566
 21
9.2808800609746
  0
LINE
  8
EFKV.1b
  6
CONTINUOUS
 62
8
 10
4.271510042934
 20
9.2690872962203
 11
4.2684799785589
 21
9.2751105856969
  0
LINE
  8
EFKV.1b
  6
CONTINUOUS
 62
8
 10
4.2738014331468
 20
9.2629834716165
 11
4.271510042934
 21
9.2690872962203
  0
LINE
  8
EFKV.1b
  6
CONTINUOUS
 62
8
 10
4.2752882300726
 20
9.2569747078063
 11
4.2738014331468
 21
9.2629834716165
  0
LINE
  8
EFKV.1b
  6
CONTINUOUS
 62
8
 10
4.275927661271
 20
9.2512338659842
 11
4.2752882300726
 21
9.2569747078063
  0
LINE
  8
EFKV.1b
  6
CONTINUOUS
 62
8
 10
4.2757013314705
 20
9.2459260997172
 11
4.275927661271
 21
9.2512338659842
  0
LINE
  8
EFKV.1b
  6
CONTINUOUS
 62
8
 10
4.2746157517675
 20
9.241204103777
 11
4.2757013314705
 21
9.2459260997172
  0
LINE
  8
EFKV.1b
  6
CONTINUOUS
 62
8
 10
4.2727021523135
 20
9.2372037213894
 11
4.2746157517675
 21
9.241204103777
  0
LINE
  8
EFKV.1b
  6
CONTINUOUS
 62
8
 10
4.2700155838808
 20
9.2340400362722
 11
4.2727021523135
 21
9.2372037213894
  0
LINE
  8
EFKV.1b
  6
CONTINUOUS
 62
8
 10
4.2666333341516
 20
9.2318040618862
 11
4.2700155838808
 21
9.2340400362722
  0
LINE
  8
EFKV.1b
  6
CONTINUOUS
 62
8
 10
4.2626527042927
 20
9.2305601231434
 11
4.2666333341516
 21
9.2318040618862
  0
LINE
  8
EFKV.1b
  6
CONTINUOUS
 62
8
 10
4.2581882097776
 20
9.2303440058967
 11
4.2626527042927
 21
9.2305601231434
  0
LINE
  8
EFKV.1b
  6
CONTINUOUS
 62
8
 10
4.2533682859849
 20
9.2311619274456
 11
4.2581882097776
 21
9.2303440058967
  0
LINE
  8
EFKV.1b
  6
CONTINUOUS
 62
8
 10
4.2483315933467
 20
9.2329903576765
 11
4.2533682859849
 21
9.2311619274456
  0
LINE
  8
EFKV.1b
  6
CONTINUOUS
 62
8
 10
4.2432230283399
 20
9.2357766959806
 11
4.2483315933467
 21
9.2329903576765
  0
LINE
  8
EFKV.1b
  6
CONTINUOUS
 62
8
 10
4.2381895550784
 20
9.239440784478
 11
4.2432230283399
 21
9.2357766959806
  0
LINE
  8
EFKV.1b
  6
CONTINUOUS
 62
8
 10
4.2333759774237
 20
9.2438772140138
 11
4.2381895550784
 21
9.239440784478
  0
LINE
  8
EFKV.1b
  6
CONTINUOUS
 62
8
 10
4.2289207732408
 20
9.2489583565876
 11
4.2333759774237
 21
9.2438772140138
  0
LINE
  8
EFKV.1b
  6
CONTINUOUS
 62
8
 10
4.2249521106425
 20
9.2545380369788
 11
4.2289207732408
 21
9.2489583565876
  0
LINE
  8
EFKV.1b
  6
CONTINUOUS
 62
8
 10
4.221584160826
 20
9.2604557379415
 11
4.2249521106425
 21
9.2545380369788
  0
LINE
  8
EFKV.1b
  6
CONTINUOUS
 62
8
 10
4.2189138135755
 20
9.2665412179933
 11
4.221584160826
 21
9.2604557379415
  0
LINE
  8
EFKV.1b
  6
CONTINUOUS
 62
8
 10
4.2170178899195
 20
9.2726194089528
 11
4.2189138135755
 21
9.2665412179933
  0
LINE
  8
EFKV.1b
  6
CONTINUOUS
 62
8
 10
4.2159509321297
 20
9.2785154523328
 11
4.2170178899195
 21
9.2726194089528
  0
LINE
  8
EFKV.1b
  6
CONTINUOUS
 62
8
 10
4.2157436346392
 20
9.2840597297001
 11
4.2159509321297
 21
9.2785154523328
  0
LINE
  8
EFKV.1b
  6
CONTINUOUS
 62
8
 10
4.2164019610193
 20
9.2890927422892
 11
4.2157436346392
 21
9.2840597297001
  0
LINE
  8
EFKV.1b
  6
CONTINUOUS
 62
8
 10
4.2179069724186
 20
9.2934696994916
 11
4.2164019610193
 21
9.2890927422892
  0
LINE
  8
EFKV.1b
  6
CONTINUOUS
 62
8
 10
4.2202153723993
 20
9.2970646842177
 11
4.2179069724186
 21
9.2934696994916
  0
LINE
  8
EFKV.1b
  6
CONTINUOUS
 62
8
 10
4.1452297856683
 20
9.8460156035038
 11
4.3451551292788
 21
9.7305886525525
  0
LINE
  8
EFKV.1b
  6
CONTINUOUS
 62
8
 10
4.1452297856683
 20
9.8460156035038
 11
4.3976965025636
 21
9.9917773304648
  0
LINE
  8
EFKV.1b
  6
CONTINUOUS
 62
8
 10
4.3451551292788
 20
9.7487729129994
 11
4.4363679555899
 21
9.8014346628236
  0
LINE
  8
EFKV.1b
  6
CONTINUOUS
 62
8
 10
4.3976965025636
 20
9.9735930700178
 11
4.3976965025636
 21
9.7791076890089
  0
LINE
  8
EFKV.1b
  6
CONTINUOUS
 62
8
 10
4.3468074218732
 20
9.7306937668618
 11
4.3468074218732
 21
9.3973723425116
  0
LINE
  8
EFKV.1b
  6
CONTINUOUS
 62
8
 10
4.1452297856683
 20
8.8900977559171
 11
4.1452297856683
 21
9.0586114990671
  0
LINE
  8
EFKV.1b
  6
CONTINUOUS
 62
8
 10
4.3976965025636
 20
9.9735930700178
 11
4.566125783182
 21
9.8763503795134
  0
LINE
  8
EFKV.1b
  6
CONTINUOUS
 62
8
 10
4.4311425851994
 20
9.9724672256516
 11
4.5645997395391
 21
10.049518749635
  0
LINE
  8
EFKV.1b
  6
CONTINUOUS
 62
8
 10
4.5645997395391
 20
10.049518749635
 11
4.8290517675394
 21
9.8968373000812
  0
LINE
  8
EFKV.1b
  6
CONTINUOUS
 62
8
 10
4.8290517675394
 20
9.8968373000812
 11
4.4814754533692
 21
9.6880651736622
  0
LINE
  8
EFKV.1b
  6
CONTINUOUS
 62
8
 10
4.5645997395391
 20
10.031334489188
 11
4.5645997395391
 21
9.8954157016683
  0
LINE
  8
EFKV.1b
  6
CONTINUOUS
 62
8
 10
4.8290517675394
 20
9.8968373000812
 11
4.8290517675394
 21
9.0890267797205
  0
LINE
  8
EFKV.1b
  6
CONTINUOUS
 62
8
 10
4.4657274218732
 20
9.6969765808673
 11
4.4657274218732
 21
9.3287138484995
  0
LINE
  8
EFKV.1b
  6
CONTINUOUS
 62
8
 10
3.900743134477
 20
9.6549076789156
 11
4.7619954533692
 21
9.157663420763
  0
LINE
  8
EFKV.1b
  6
CONTINUOUS
 62
8
 10
3.7979040843549
 20
9.5945151210692
 11
4.6582744390137
 21
9.0977800652042
  0
LINE
  8
EFKV.1b
  6
CONTINUOUS
 62
8
 10
4.6582744390137
 20
9.062478699935
 11
3.7979040843549
 21
9.5592137558
  0
LINE
  8
EFKV.1b
  6
CONTINUOUS
 62
8
 10
4.7823393903771
 20
8.8522182238655
 11
3.7979040843549
 21
9.4294807390658
  0
LINE
  8
EFKV.1b
  6
CONTINUOUS
 62
8
 10
4.6582744390137
 20
8.8442511950225
 11
3.7979040843549
 21
9.3409862508875
  0
LINE
  8
EFKV.1b
  6
CONTINUOUS
 62
8
 10
4.6582744390137
 20
8.7624050303519
 11
3.9346785505654
 21
9.1801733113319
  0
LINE
  8
EFKV.1b
  6
CONTINUOUS
 62
8
 10
4.7980874218732
 20
9.0893337668618
 11
4.7980874218732
 21
8.843126093642
  0
LINE
  8
EFKV.1b
  6
CONTINUOUS
 62
8
 10
4.6582744390137
 20
8.7624050303519
 11
4.7980874218732
 21
8.843126093642
  0
LINE
  8
EFKV.1b
  6
CONTINUOUS
 62
8
 10
4.6582744390137
 20
9.0977800652042
 11
4.7619954533692
 21
9.157663420763
  0
LINE
  8
EFKV.1b
  6
CONTINUOUS
 62
8
 10
4.6582744390137
 20
9.0977800652042
 11
4.6582744390137
 21
9.062478699935
  0
LINE
  8
EFKV.1b
  6
CONTINUOUS
 62
8
 10
4.3468074218732
 20
8.9422305965416
 11
4.3468074218732
 21
8.7737168533915
  0
LINE
  8
EFKV.1b
  6
CONTINUOUS
 62
8
 10
3.629483106862
 20
9.6927714223371
 11
3.7596216008741
 21
9.7679069168869
  0
LINE
  8
EFKV.1b
  6
CONTINUOUS
 62
8
 10
3.7860930607329
 20
9.602352623312
 11
3.629483106862
 21
9.6927714223371
  0
LINE
  8
EFKV.1b
  6
CONTINUOUS
 62
8
 10
3.9162315547449
 20
9.6774881178618
 11
3.7596216008741
 21
9.7679069168869
  0
LINE
  8
EFKV.1b
  6
CONTINUOUS
 62
8
 10
4.4363679555899
 20
9.8014346628236
 11
4.4206199240938
 21
9.8105267930471
  0
LINE
  8
EFKV.1b
  6
CONTINUOUS
 62
8
 10
4.2890997222518
 20
9.8928245081409
 11
4.2836867064675
 21
9.8895852231046
  0
LINE
  8
EFKV.1b
  6
CONTINUOUS
 62
8
 10
4.2679386749715
 20
9.8986773533281
 11
4.2679386749715
 21
9.7933538536796
  0
LINE
  8
EFKV.1b
  6
CONTINUOUS
 62
8
 10
4.7462474218732
 20
9.1303870300926
 11
4.7462474218732
 21
9.0412196684601
  0
LINE
  8
EFKV.1b
  6
CONTINUOUS
 62
8
 10
4.5389274218732
 20
9.7225737668618
 11
4.5389274218732
 21
9.2864518087949
  0
LINE
  8
EFKV.1b
  6
CONTINUOUS
 62
8
 10
4.2912968899574
 20
9.2601422155348
 11
4.2697525986532
 21
9.2725808179188
  0
LINE
  8
EFKV.1b
  6
CONTINUOUS
 62
8
 10
4.2912968899574
 20
9.2240355991823
 11
4.2713160989964
 21
9.2355715142222
  0
LINE
  8
EFKV.1b
  6
CONTINUOUS
 62
8
 10
4.6740224705097
 20
9.082918763572
 11
4.7462474218732
 21
9.0412196684601
  0
LINE
  8
EFKV.1b
  6
CONTINUOUS
 62
8
 10
3.7728573308035
 20
9.6851297700995
 11
3.7728573308035
 21
9.7130656233094
  0
LINE
  8
EFKV.1b
  6
CONTINUOUS
 62
8
 10
4.7980206162293
 20
9.8965688831964
 11
4.4657274218732
 21
9.6969765808673
  0
LINE
  8
EFKV.1b
  6
CONTINUOUS
 62
8
 10
4.5645997395391
 20
10.031334489188
 11
4.7980206162293
 21
9.8965688831964
  0
LINE
  8
EFKV.1b
  6
CONTINUOUS
 62
8
 10
4.4468906166955
 20
9.9633750954282
 11
4.5645997395391
 21
10.031334489188
  0
LINE
  8
EFKV.1b
  6
CONTINUOUS
 62
8
 10
4.3976965025636
 20
9.9917773304648
 11
4.5976218461741
 21
9.8763503795134
  0
LINE
  8
EFKV.1b
  6
CONTINUOUS
 62
8
 10
4.3451551292788
 20
9.7305886525525
 11
4.5976218461741
 21
9.8763503795134
  0
LINE
  8
EFKV.1b
  6
CONTINUOUS
 62
8
 10
4.1767258486604
 20
9.8460156035038
 11
4.2679386749715
 21
9.8986773533281
  0
LINE
  8
EFKV.1b
  6
CONTINUOUS
 62
8
 10
4.1767258486604
 20
9.8460156035038
 11
4.3451551292788
 21
9.7487729129994
  0
LINE
  8
EFKV.1b
  6
CONTINUOUS
 62
8
 10
4.5976218461741
 20
9.8763503795134
 11
4.5976218461741
 21
9.776199123663
  0
LINE
  8
EFKV.1b
  6
CONTINUOUS
 62
8
 10
4.2836867064675
 20
9.8895852231046
 11
4.2836867064675
 21
9.7842617234561
  0
LINE
  8
EFKV.1b
  6
CONTINUOUS
 62
8
 10
4.4418797666135
 20
9.8046169084018
 11
4.4261317351175
 21
9.8137090386253
  0
LINE
  8
EFKV.1b
  6
CONTINUOUS
 62
8
 10
4.4206199240938
 20
9.8105267930471
 11
4.4261317351175
 21
9.8137090386253
  0
LINE
  8
EFKV.1b
  6
CONTINUOUS
 62
8
 10
4.4206199240938
 20
9.8105267930471
 11
4.4206199240938
 21
9.7923425326002
  0
LINE
  8
EFKV.1b
  6
CONTINUOUS
 62
8
 10
4.2836867064675
 20
9.8895852231046
 11
4.2679386749715
 21
9.8986773533281
  0
LINE
  8
EFKV.1b
  6
CONTINUOUS
 62
8
 10
4.2890997222518
 20
9.8928245081409
 11
4.2890997222518
 21
9.781136517336
  0
LINE
  8
EFKV.1b
  6
CONTINUOUS
 62
8
 10
4.2890997222518
 20
9.8928245081409
 11
4.2734504859951
 21
9.9018595989063
  0
LINE
  8
EFKV.1b
  6
CONTINUOUS
 62
8
 10
4.2734504859951
 20
9.9018595989063
 11
4.3976965025636
 21
9.9735930700178
  0
LINE
  8
EFKV.1b
  6
CONTINUOUS
 62
8
 10
4.4418797666135
 20
9.8046169084018
 11
4.566125783182
 21
9.8763503795134
  0
LINE
  8
EFKV.1b
  6
CONTINUOUS
 62
8
 10
4.4814754533692
 20
9.6880651736622
 11
4.4814754533692
 21
9.3196217182761
  0
LINE
  8
EFKV.1b
  6
CONTINUOUS
 62
8
 10
4.4657274218732
 20
9.6969765808673
 11
4.4814754533692
 21
9.6880651736622
  0
LINE
  8
EFKV.1b
  6
CONTINUOUS
 62
8
 10
4.7823393903771
 20
9.0620573761914
 11
4.7823393903771
 21
8.8522182238655
  0
LINE
  8
EFKV.1b
  6
CONTINUOUS
 62
8
 10
4.6740224705097
 20
8.7896814210222
 11
4.7823393903771
 21
8.8522182238655
  0
LINE
  8
EFKV.1b
  6
CONTINUOUS
 62
8
 10
4.6740224705097
 20
9.0886879349807
 11
4.7462474218732
 21
9.1303870300926
  0
LINE
  8
EFKV.1b
  6
CONTINUOUS
 62
8
 10
4.6740224705097
 20
8.8533423342352
 11
3.7979040843549
 21
9.3591695203237
  0
LINE
  8
EFKV.1b
  6
CONTINUOUS
 62
8
 10
4.6740224705097
 20
9.0886879349807
 11
4.6740224705097
 21
9.0715698391477
  0
LINE
  8
EFKV.1b
  6
CONTINUOUS
 62
8
 10
4.6582744390137
 20
8.8442511950225
 11
4.6740224705097
 21
8.8533423342352
  0
LINE
  8
EFKV.1b
  6
CONTINUOUS
 62
8
 10
4.6582744390137
 20
9.062478699935
 11
4.6740224705097
 21
9.0715698391477
  0
LINE
  8
EFKV.1b
  6
CONTINUOUS
 62
8
 10
4.7619954533692
 20
9.157663420763
 11
4.7619954533692
 21
9.0684960591305
  0
LINE
  8
EFKV.1b
  6
CONTINUOUS
 62
8
 10
4.7619954533692
 20
9.0684960591305
 11
4.7980874218732
 21
9.0893337668618
  0
LINE
  8
EFKV.1b
  6
CONTINUOUS
 62
8
 10
4.7462474218732
 20
9.0412196684601
 11
4.7823393903771
 21
9.0620573761914
  0
LINE
  8
EFKV.1b
  6
CONTINUOUS
 62
8
 10
4.6582744390137
 20
8.8442511950225
 11
4.6582744390137
 21
8.7624050303519
  0
LINE
  8
EFKV.1b
  6
CONTINUOUS
 62
8
 10
4.6740224705097
 20
8.8533423342352
 11
4.6740224705097
 21
8.7896814210222
  0
LINE
  8
EFKV.1b
  6
CONTINUOUS
 62
8
 10
4.2912968899574
 20
9.2601422155348
 11
4.2912968899574
 21
9.2240355991823
  0
LINE
  8
EFKV.1b
  6
CONTINUOUS
 62
8
 10
4.2007403175841
 20
9.3124250769714
 11
4.2007403175841
 21
9.2763184606189
  0
LINE
  8
EFKV.1b
  6
CONTINUOUS
 62
8
 10
4.5490874218732
 20
9.1113067825387
 11
4.5490874218732
 21
9.0752001661861
  0
LINE
  8
EFKV.1b
  6
CONTINUOUS
 62
8
 10
4.6396439942465
 20
9.0590239211021
 11
4.5490874218732
 21
9.1113067825387
  0
LINE
  8
EFKV.1b
  6
CONTINUOUS
 62
8
 10
4.6396439942465
 20
9.0229173047495
 11
4.5490874218732
 21
9.0752001661861
  0
LINE
  8
EFKV.1b
  6
CONTINUOUS
 62
8
 10
4.6396439942465
 20
9.0590239211021
 11
4.6396439942465
 21
9.0229173047495
  0
LINE
  8
EFKV.1b
  6
CONTINUOUS
 62
8
 10
3.7860930607329
 20
9.602352623312
 11
3.9162315547449
 21
9.6774881178618
  0
LINE
  8
EFKV.1b
  6
CONTINUOUS
 62
8
 10
3.7979040843549
 20
9.5955335256445
 11
3.9044205311229
 21
9.657030824859
  0
LINE
  8
EFKV.1b
  6
CONTINUOUS
 62
8
 10
3.9162315547449
 20
9.6774881178618
 11
3.9162315547449
 21
9.6459654353046
  0
LINE
  8
EFKV.1b
  6
CONTINUOUS
 62
8
 10
3.9044205311229
 20
9.657030824859
 11
3.9044205311229
 21
9.6527845329722
  0
LINE
  8
EFKV.1b
  6
CONTINUOUS
 62
8
 10
3.7860930607329
 20
9.602352623312
 11
3.7860930607329
 21
9.300800020245
  0
LINE
  8
EFKV.1b
  6
CONTINUOUS
 62
8
 10
3.7979040843549
 20
9.5955335256445
 11
3.7979040843549
 21
9.3000631685522
  0
LINE
  8
EFKV.1b
  6
CONTINUOUS
 62
8
 10
3.629483106862
 20
9.6927714223371
 11
3.629483106862
 21
9.4992566311625
  0
LINE
  8
EFKV.1b
  6
CONTINUOUS
 62
8
 10
3.7323221569841
 20
9.7521455756083
 11
3.5168619284333
 21
9.8765415965618
  0
LINE
  8
EFKV.1b
  6
CONTINUOUS
 62
8
 10
3.6286011426285
 20
9.6922622200495
 11
3.5447136747112
 21
9.7406946722332
  0
LINE
  8
EFKV.1b
  6
CONTINUOUS
 62
8
 10
3.6663565029123
 20
9.392246740374
 11
3.7035208833678
 21
9.3409171397139
  0
LINE
  8
EFKV.1b
  6
CONTINUOUS
 62
8
 10
3.7035208833678
 20
9.3409171397139
 11
3.9346785505654
 21
9.2286107909286
  0
LINE
  8
EFKV.1b
  6
CONTINUOUS
 62
8
 10
3.7480226839712
 20
9.7303942983425
 11
3.7478837193071
 21
9.7293591579549
  0
LINE
  8
EFKV.1b
  6
CONTINUOUS
 62
8
 10
3.7478837193071
 20
9.7293591579549
 11
3.7482567221989
 21
9.7268538642148
  0
LINE
  8
EFKV.1b
  6
CONTINUOUS
 62
8
 10
3.7482567221989
 20
9.7268538642148
 11
3.7493386468209
 21
9.7244975227972
  0
LINE
  8
EFKV.1b
  6
CONTINUOUS
 62
8
 10
3.7493386468209
 20
9.7244975227972
 11
3.7510983681715
 21
9.7223579213544
  0
LINE
  8
EFKV.1b
  6
CONTINUOUS
 62
8
 10
3.7510983681715
 20
9.7223579213544
 11
3.7534852622713
 21
9.7204966123244
  0
LINE
  8
EFKV.1b
  6
CONTINUOUS
 62
8
 10
3.7534852622713
 20
9.7204966123244
 11
3.756430662523
 21
9.7189671421791
  0
LINE
  8
EFKV.1b
  6
CONTINUOUS
 62
8
 10
3.756430662523
 20
9.7189671421791
 11
3.7598498351239
 21
9.7178135109899
  0
LINE
  8
EFKV.1b
  6
CONTINUOUS
 62
8
 10
3.7598498351239
 20
9.7178135109899
 11
3.7636444167036
 21
9.7170689066256
  0
LINE
  8
EFKV.1b
  6
CONTINUOUS
 62
8
 10
3.7636444167036
 20
9.7170689066256
 11
3.7677052440588
 21
9.7167547499983
  0
LINE
  8
EFKV.1b
  6
CONTINUOUS
 62
8
 10
3.7677052440588
 20
9.7167547499983
 11
3.7719154945801
 21
9.7168800788219
  0
LINE
  8
EFKV.1b
  6
CONTINUOUS
 62
8
 10
3.7719154945801
 20
9.7168800788219
 11
3.7761540470256
 21
9.7174412876145
  0
LINE
  8
EFKV.1b
  6
CONTINUOUS
 62
8
 10
3.7761540470256
 20
9.7174412876145
 11
3.7802989659584
 21
9.7184222314209
  0
LINE
  8
EFKV.1b
  6
CONTINUOUS
 62
8
 10
3.7802989659584
 20
9.7184222314209
 11
3.7842310096076
 21
9.7197946902738
  0
LINE
  8
EFKV.1b
  6
CONTINUOUS
 62
8
 10
3.7842310096076
 20
9.7197946902738
 11
3.7878370602363
 21
9.7215191810308
  0
LINE
  8
EFKV.1b
  6
CONTINUOUS
 62
8
 10
3.7878370602363
 20
9.7215191810308
 11
3.7910133783336
 21
9.7235460932326
  0
LINE
  8
EFKV.1b
  6
CONTINUOUS
 62
8
 10
3.7910133783336
 20
9.7235460932326
 11
3.7936685870109
 21
9.7258171163056
  0
LINE
  8
EFKV.1b
  6
CONTINUOUS
 62
8
 10
3.7936685870109
 20
9.7258171163056
 11
3.7957263007488
 21
9.7282669170507
  0
LINE
  8
EFKV.1b
  6
CONTINUOUS
 62
8
 10
3.7957263007488
 20
9.7282669170507
 11
3.7971273228696
 21
9.7308250191609
  0
LINE
  8
EFKV.1b
  6
CONTINUOUS
 62
8
 10
3.7971273228696
 20
9.7308250191609
 11
3.7978313485178
 21
9.7334178306961
  0
LINE
  8
EFKV.1b
  6
CONTINUOUS
 62
8
 10
3.7978313485178
 20
9.7334178306961
 11
3.7978181241571
 21
9.7359707611889
  0
LINE
  8
EFKV.1b
  6
CONTINUOUS
 62
8
 10
3.7970880302285
 20
9.7423473753514
 11
3.7956620702049
 21
9.7446034744043
  0
LINE
  8
EFKV.1b
  6
CONTINUOUS
 62
8
 10
3.7956620702049
 20
9.7446034744043
 11
3.79358126636
 21
9.7466111623596
  0
LINE
  8
EFKV.1b
  6
CONTINUOUS
 62
8
 10
3.79358126636
 20
9.7466111623596
 11
3.7909054796319
 21
9.7483126816901
  0
LINE
  8
EFKV.1b
  6
CONTINUOUS
 62
8
 10
3.7909054796319
 20
9.7483126816901
 11
3.787711687533
 21
9.7496590827827
  0
LINE
  8
EFKV.1b
  6
CONTINUOUS
 62
8
 10
3.787711687533
 20
9.7496590827827
 11
3.784091769647
 21
9.7506116321294
  0
LINE
  8
EFKV.1b
  6
CONTINUOUS
 62
8
 10
3.784091769647
 20
9.7506116321294
 11
3.7801498644208
 21
9.7511429266197
  0
LINE
  8
EFKV.1b
  6
CONTINUOUS
 62
8
 10
3.7801498644208
 20
9.7511429266197
 11
3.7759993732906
 21
9.7512376818784
  0
LINE
  8
EFKV.1b
  6
CONTINUOUS
 62
8
 10
3.7759993732906
 20
9.7512376818784
 11
3.7717596983297
 21
9.7508931719694
  0
LINE
  8
EFKV.1b
  6
CONTINUOUS
 62
8
 10
3.7717596983297
 20
9.7508931719694
 11
3.7675528072673
 21
9.7501193078154
  0
LINE
  8
EFKV.1b
  6
CONTINUOUS
 62
8
 10
3.7675528072673
 20
9.7501193078154
 11
3.7634997246999
 21
9.7489383520792
  0
LINE
  8
EFKV.1b
  6
CONTINUOUS
 62
8
 10
3.7634997246999
 20
9.7489383520792
 11
3.7597170504335
 21
9.7473842787071
  0
LINE
  8
EFKV.1b
  6
CONTINUOUS
 62
8
 10
3.7597170504335
 20
9.7473842787071
 11
3.7563136051198
 21
9.7455017955606
  0
LINE
  8
EFKV.1b
  6
CONTINUOUS
 62
8
 10
3.7563136051198
 20
9.7455017955606
 11
3.7533872996836
 21
9.7433450582524
  0
LINE
  8
EFKV.1b
  6
CONTINUOUS
 62
8
 10
3.7533872996836
 20
9.7433450582524
 11
3.7510223186046
 21
9.740976112188
  0
LINE
  8
EFKV.1b
  6
CONTINUOUS
 62
8
 10
3.7510223186046
 20
9.740976112188
 11
3.7492866980824
 21
9.7384631076326
  0
LINE
  8
EFKV.1b
  6
CONTINUOUS
 62
8
 10
3.7492866980824
 20
9.7384631076326
 11
3.7482303687595
 21
9.7358783391519
  0
LINE
  8
EFKV.1b
  6
CONTINUOUS
 62
8
 10
3.7482303687595
 20
9.7358783391519
 11
3.7478837193071
 21
9.7332961658289
  0
LINE
  8
EFKV.1b
  6
CONTINUOUS
 62
8
 10
3.7478837193071
 20
9.7332961658289
 11
3.7482567221989
 21
9.7307908720888
  0
LINE
  8
EFKV.1b
  6
CONTINUOUS
 62
8
 10
3.7482567221989
 20
9.7307908720888
 11
3.7493386468209
 21
9.7284345306712
  0
LINE
  8
EFKV.1b
  6
CONTINUOUS
 62
8
 10
3.7493386468209
 20
9.7284345306712
 11
3.7510983681715
 21
9.7262949292284
  0
LINE
  8
EFKV.1b
  6
CONTINUOUS
 62
8
 10
3.7510983681715
 20
9.7262949292284
 11
3.7534852622713
 21
9.7244336201984
  0
LINE
  8
EFKV.1b
  6
CONTINUOUS
 62
8
 10
3.7534852622713
 20
9.7244336201984
 11
3.756430662523
 21
9.7229041500531
  0
LINE
  8
EFKV.1b
  6
CONTINUOUS
 62
8
 10
3.756430662523
 20
9.7229041500531
 11
3.7598498351239
 21
9.7217505188639
  0
LINE
  8
EFKV.1b
  6
CONTINUOUS
 62
8
 10
3.7598498351239
 20
9.7217505188639
 11
3.7636444167036
 21
9.7210059144997
  0
LINE
  8
EFKV.1b
  6
CONTINUOUS
 62
8
 10
3.7636444167036
 20
9.7210059144997
 11
3.7677052440588
 21
9.7206917578723
  0
LINE
  8
EFKV.1b
  6
CONTINUOUS
 62
8
 10
3.7677052440588
 20
9.7206917578723
 11
3.7719154945801
 21
9.7208170866959
  0
LINE
  8
EFKV.1b
  6
CONTINUOUS
 62
8
 10
3.7719154945801
 20
9.7208170866959
 11
3.7761540470256
 21
9.7213782954885
  0
LINE
  8
EFKV.1b
  6
CONTINUOUS
 62
8
 10
3.7761540470256
 20
9.7213782954885
 11
3.7802989659584
 21
9.722359239295
  0
LINE
  8
EFKV.1b
  6
CONTINUOUS
 62
8
 10
3.7802989659584
 20
9.722359239295
 11
3.7842310096076
 21
9.7237316981478
  0
LINE
  8
EFKV.1b
  6
CONTINUOUS
 62
8
 10
3.7842310096076
 20
9.7237316981478
 11
3.7878370602363
 21
9.7254561889048
  0
LINE
  8
EFKV.1b
  6
CONTINUOUS
 62
8
 10
3.7878370602363
 20
9.7254561889048
 11
3.7910133783336
 21
9.7274831011066
  0
LINE
  8
EFKV.1b
  6
CONTINUOUS
 62
8
 10
3.7910133783336
 20
9.7274831011066
 11
3.7936685870109
 21
9.7297541241796
  0
LINE
  8
EFKV.1b
  6
CONTINUOUS
 62
8
 10
3.7936685870109
 20
9.7297541241796
 11
3.7957263007488
 21
9.7322039249247
  0
LINE
  8
EFKV.1b
  6
CONTINUOUS
 62
8
 10
3.7957263007488
 20
9.7322039249247
 11
3.7971273228696
 21
9.734762027035
  0
LINE
  8
EFKV.1b
  6
CONTINUOUS
 62
8
 10
3.7971273228696
 20
9.734762027035
 11
3.7978313485178
 21
9.7373548385701
  0
LINE
  8
EFKV.1b
  6
CONTINUOUS
 62
8
 10
3.7978313485178
 20
9.7373548385701
 11
3.7978181241571
 21
9.7399077690629
  0
LINE
  8
EFKV.1b
  6
CONTINUOUS
 62
8
 10
3.7978181241571
 20
9.7399077690629
 11
3.7970880302285
 21
9.7423473753514
  0
LINE
  8
EFKV.1b
  6
CONTINUOUS
 62
8
 10
3.7480226839712
 20
9.7264572904685
 11
3.7478837193071
 21
9.7254221500809
  0
LINE
  8
EFKV.1b
  6
CONTINUOUS
 62
8
 10
3.7478837193071
 20
9.7254221500809
 11
3.7482567221989
 21
9.7229168563408
  0
LINE
  8
EFKV.1b
  6
CONTINUOUS
 62
8
 10
3.7482567221989
 20
9.7229168563408
 11
3.7493386468209
 21
9.7205605149232
  0
LINE
  8
EFKV.1b
  6
CONTINUOUS
 62
8
 10
3.7493386468209
 20
9.7205605149232
 11
3.7510983681715
 21
9.7184209134804
  0
LINE
  8
EFKV.1b
  6
CONTINUOUS
 62
8
 10
3.7510983681715
 20
9.7184209134804
 11
3.7534852622713
 21
9.7165596044504
  0
LINE
  8
EFKV.1b
  6
CONTINUOUS
 62
8
 10
3.7534852622713
 20
9.7165596044504
 11
3.756430662523
 21
9.7150301343051
  0
LINE
  8
EFKV.1b
  6
CONTINUOUS
 62
8
 10
3.756430662523
 20
9.7150301343051
 11
3.7598498351239
 21
9.7138765031158
  0
LINE
  8
EFKV.1b
  6
CONTINUOUS
 62
8
 10
3.7598498351239
 20
9.7138765031158
 11
3.7636444167036
 21
9.7131318987516
  0
LINE
  8
EFKV.1b
  6
CONTINUOUS
 62
8
 10
3.7636444167036
 20
9.7131318987516
 11
3.7677052440588
 21
9.7128177421242
  0
LINE
  8
EFKV.1b
  6
CONTINUOUS
 62
8
 10
3.7677052440588
 20
9.7128177421242
 11
3.7719154945801
 21
9.7129430709479
  0
LINE
  8
EFKV.1b
  6
CONTINUOUS
 62
8
 10
3.7719154945801
 20
9.7129430709479
 11
3.7761540470256
 21
9.7135042797405
  0
LINE
  8
EFKV.1b
  6
CONTINUOUS
 62
8
 10
3.7761540470256
 20
9.7135042797405
 11
3.7802989659584
 21
9.7144852235469
  0
LINE
  8
EFKV.1b
  6
CONTINUOUS
 62
8
 10
3.7802989659584
 20
9.7144852235469
 11
3.7842310096076
 21
9.7158576823998
  0
LINE
  8
EFKV.1b
  6
CONTINUOUS
 62
8
 10
3.7842310096076
 20
9.7158576823998
 11
3.7878370602363
 21
9.7175821731568
  0
LINE
  8
EFKV.1b
  6
CONTINUOUS
 62
8
 10
3.7878370602363
 20
9.7175821731568
 11
3.7910133783336
 21
9.7196090853586
  0
LINE
  8
EFKV.1b
  6
CONTINUOUS
 62
8
 10
3.7910133783336
 20
9.7196090853586
 11
3.7936685870109
 21
9.7218801084316
  0
LINE
  8
EFKV.1b
  6
CONTINUOUS
 62
8
 10
3.7936685870109
 20
9.7218801084316
 11
3.7957263007488
 21
9.7243299091767
  0
LINE
  8
EFKV.1b
  6
CONTINUOUS
 62
8
 10
3.7957263007488
 20
9.7243299091767
 11
3.7971273228696
 21
9.7268880112869
  0
LINE
  8
EFKV.1b
  6
CONTINUOUS
 62
8
 10
3.7971273228696
 20
9.7268880112869
 11
3.7978313485178
 21
9.729480822822
  0
LINE
  8
EFKV.1b
  6
CONTINUOUS
 62
8
 10
3.7978313485178
 20
9.729480822822
 11
3.7978181241571
 21
9.7320337533149
  0
LINE
  8
EFKV.1b
  6
CONTINUOUS
 62
8
 10
3.7480226839712
 20
9.7284257944055
 11
3.7478837193071
 21
9.7273906540179
  0
LINE
  8
EFKV.1b
  6
CONTINUOUS
 62
8
 10
3.7478837193071
 20
9.7273906540179
 11
3.7482567221989
 21
9.7248853602778
  0
LINE
  8
EFKV.1b
  6
CONTINUOUS
 62
8
 10
3.7482567221989
 20
9.7248853602778
 11
3.7493386468209
 21
9.7225290188602
  0
LINE
  8
EFKV.1b
  6
CONTINUOUS
 62
8
 10
3.7493386468209
 20
9.7225290188602
 11
3.7510983681715
 21
9.7203894174174
  0
LINE
  8
EFKV.1b
  6
CONTINUOUS
 62
8
 10
3.7510983681715
 20
9.7203894174174
 11
3.7534852622713
 21
9.7185281083874
  0
LINE
  8
EFKV.1b
  6
CONTINUOUS
 62
8
 10
3.7534852622713
 20
9.7185281083874
 11
3.756430662523
 21
9.7169986382421
  0
LINE
  8
EFKV.1b
  6
CONTINUOUS
 62
8
 10
3.756430662523
 20
9.7169986382421
 11
3.7598498351239
 21
9.7158450070529
  0
LINE
  8
EFKV.1b
  6
CONTINUOUS
 62
8
 10
3.7598498351239
 20
9.7158450070529
 11
3.7636444167036
 21
9.7151004026886
  0
LINE
  8
EFKV.1b
  6
CONTINUOUS
 62
8
 10
3.7636444167036
 20
9.7151004026886
 11
3.7677052440588
 21
9.7147862460612
  0
LINE
  8
EFKV.1b
  6
CONTINUOUS
 62
8
 10
3.7677052440588
 20
9.7147862460612
 11
3.7719154945801
 21
9.7149115748849
  0
LINE
  8
EFKV.1b
  6
CONTINUOUS
 62
8
 10
3.7719154945801
 20
9.7149115748849
 11
3.7761540470256
 21
9.7154727836775
  0
LINE
  8
EFKV.1b
  6
CONTINUOUS
 62
8
 10
3.7761540470256
 20
9.7154727836775
 11
3.7802989659584
 21
9.7164537274839
  0
LINE
  8
EFKV.1b
  6
CONTINUOUS
 62
8
 10
3.7802989659584
 20
9.7164537274839
 11
3.7842310096076
 21
9.7178261863368
  0
LINE
  8
EFKV.1b
  6
CONTINUOUS
 62
8
 10
3.7842310096076
 20
9.7178261863368
 11
3.7878370602363
 21
9.7195506770938
  0
LINE
  8
EFKV.1b
  6
CONTINUOUS
 62
8
 10
3.7878370602363
 20
9.7195506770938
 11
3.7910133783336
 21
9.7215775892956
  0
LINE
  8
EFKV.1b
  6
CONTINUOUS
 62
8
 10
3.7910133783336
 20
9.7215775892956
 11
3.7936685870109
 21
9.7238486123686
  0
LINE
  8
EFKV.1b
  6
CONTINUOUS
 62
8
 10
3.7936685870109
 20
9.7238486123686
 11
3.7957263007488
 21
9.7262984131137
  0
LINE
  8
EFKV.1b
  6
CONTINUOUS
 62
8
 10
3.7957263007488
 20
9.7262984131137
 11
3.7971273228696
 21
9.7288565152239
  0
LINE
  8
EFKV.1b
  6
CONTINUOUS
 62
8
 10
3.7971273228696
 20
9.7288565152239
 11
3.7978313485178
 21
9.731449326759
  0
LINE
  8
EFKV.1b
  6
CONTINUOUS
 62
8
 10
3.7978313485178
 20
9.731449326759
 11
3.7978181241571
 21
9.7340022572519
  0
LINE
  8
EFKV.1b
  6
CONTINUOUS
 62
8
 10
3.7478837193071
 20
9.7313276618919
 11
3.7482567221989
 21
9.7288223681518
  0
LINE
  8
EFKV.1b
  6
CONTINUOUS
 62
8
 10
3.7482567221989
 20
9.7288223681518
 11
3.7493386468209
 21
9.7264660267342
  0
LINE
  8
EFKV.1b
  6
CONTINUOUS
 62
8
 10
3.7493386468209
 20
9.7264660267342
 11
3.7510983681715
 21
9.7243264252914
  0
LINE
  8
EFKV.1b
  6
CONTINUOUS
 62
8
 10
3.7510983681715
 20
9.7243264252914
 11
3.7534852622713
 21
9.7224651162614
  0
LINE
  8
EFKV.1b
  6
CONTINUOUS
 62
8
 10
3.7534852622713
 20
9.7224651162614
 11
3.756430662523
 21
9.7209356461161
  0
LINE
  8
EFKV.1b
  6
CONTINUOUS
 62
8
 10
3.756430662523
 20
9.7209356461161
 11
3.7598498351239
 21
9.7197820149269
  0
LINE
  8
EFKV.1b
  6
CONTINUOUS
 62
8
 10
3.7598498351239
 20
9.7197820149269
 11
3.7636444167036
 21
9.7190374105626
  0
LINE
  8
EFKV.1b
  6
CONTINUOUS
 62
8
 10
3.7636444167036
 20
9.7190374105626
 11
3.7677052440588
 21
9.7187232539353
  0
LINE
  8
EFKV.1b
  6
CONTINUOUS
 62
8
 10
3.7677052440588
 20
9.7187232539353
 11
3.7719154945801
 21
9.7188485827589
  0
LINE
  8
EFKV.1b
  6
CONTINUOUS
 62
8
 10
3.7719154945801
 20
9.7188485827589
 11
3.7761540470256
 21
9.7194097915515
  0
LINE
  8
EFKV.1b
  6
CONTINUOUS
 62
8
 10
3.7761540470256
 20
9.7194097915515
 11
3.7802989659584
 21
9.7203907353579
  0
LINE
  8
EFKV.1b
  6
CONTINUOUS
 62
8
 10
3.7802989659584
 20
9.7203907353579
 11
3.7842310096076
 21
9.7217631942108
  0
LINE
  8
EFKV.1b
  6
CONTINUOUS
 62
8
 10
3.7842310096076
 20
9.7217631942108
 11
3.7878370602363
 21
9.7234876849678
  0
LINE
  8
EFKV.1b
  6
CONTINUOUS
 62
8
 10
3.7878370602363
 20
9.7234876849678
 11
3.7910133783336
 21
9.7255145971696
  0
LINE
  8
EFKV.1b
  6
CONTINUOUS
 62
8
 10
3.7910133783336
 20
9.7255145971696
 11
3.7936685870109
 21
9.7277856202426
  0
LINE
  8
EFKV.1b
  6
CONTINUOUS
 62
8
 10
3.7936685870109
 20
9.7277856202426
 11
3.7957263007488
 21
9.7302354209877
  0
LINE
  8
EFKV.1b
  6
CONTINUOUS
 62
8
 10
3.7957263007488
 20
9.7302354209877
 11
3.7971273228696
 21
9.7327935230979
  0
LINE
  8
EFKV.1b
  6
CONTINUOUS
 62
8
 10
3.7971273228696
 20
9.7327935230979
 11
3.7978313485178
 21
9.7353863346331
  0
LINE
  8
EFKV.1b
  6
CONTINUOUS
 62
8
 10
3.7978313485178
 20
9.7353863346331
 11
3.7978181241571
 21
9.7379392651259
  0
LINE
  8
EFKV.1b
  6
CONTINUOUS
 62
8
 10
3.7480226839712
 20
9.7323628022795
 11
3.7478837193071
 21
9.7313276618919
  0
LINE
  8
EFKV.1b
  6
CONTINUOUS
 62
8
 10
3.7748258347405
 20
9.6851297700995
 11
3.7748258347405
 21
9.7133284167726
  0
LINE
  8
EFKV.1b
  6
CONTINUOUS
 62
8
 10
3.7767943386775
 20
9.6851297700995
 11
3.7767943386775
 21
9.7136558122893
  0
LINE
  8
EFKV.1b
  6
CONTINUOUS
 62
8
 10
3.7708888268665
 20
9.6851297700995
 11
3.7708888268665
 21
9.7129125095701
  0
LINE
  8
EFKV.1b
  6
CONTINUOUS
 62
8
 10
3.7689203229295
 20
9.6851297700995
 11
3.7689203229295
 21
9.7128539120397
  0
LINE
  8
EFKV.1b
  6
CONTINUOUS
 62
8
 10
3.2954781754683
 20
8.5086235066301
 11
3.2954781754683
 21
10.083426656236
  0
LINE
  8
EFKV.1b
  6
CONTINUOUS
 62
8
 10
3.2954781754683
 20
10.083426656236
 11
4.8702813250746
 21
10.083426656236
  0
LINE
  8
EFKV.1b
  6
CONTINUOUS
 62
8
 10
4.8702813250746
 20
10.083426656236
 11
4.8702813250746
 21
8.5086235066301
  0
LINE
  8
EFKV.1b
  6
CONTINUOUS
 62
8
 10
4.8702813250746
 20
8.5086235066301
 11
3.2954781754683
 21
8.5086235066301
  0
LINE
  8
EFKV.1b
  6
CONTINUOUS
 62
8
 10
3.8938711221258
 20
8.5086235066301
 11
3.8938711221258
 21
8.9437933378783
  0
LINE
  8
EFKV.1b
  6
CONTINUOUS
 62
8
 10
4.7980874218732
 20
9.0711495064149
 11
4.8290517675394
 21
9.0890267797205
  0
LINE
  8
EFKV.1b
  6
CONTINUOUS
 62
8
 10
4.7619954533692
 20
9.1101714745931
 11
4.7980874218732
 21
9.0893337668618
  0
LINE
  8
EFKV.1b
  6
CONTINUOUS
 62
8
 10
4.2139941129623
 20
9.2686663782894
 11
4.2007403175841
 21
9.2763184606189
  0
LINE
  8
EFKV.1b
  6
CONTINUOUS
 62
8
 10
4.2229425136686
 20
9.2996066330854
 11
4.2007403175841
 21
9.3124250769714
  0
LINE
  8
EFKV.1b
  6
CONTINUOUS
 62
8
 10
4.1452297856683
 20
9.5137532450371
 11
4.1452297856683
 21
9.8460156035038
  0
LINE
  8
EFKV.1b
  6
CONTINUOUS
 62
8
 10
3.8541646397919
 20
8.5086235066301
 11
3.8541646397919
 21
8.9667178861424
  0
LINE
  8
EFKV.1b
  6
CONTINUOUS
 62
8
 10
3.579215418128
 20
9.4924513580652
 11
3.5769355193626
 21
9.492057192189
  0
LINE
  8
EFKV.1b
  6
CONTINUOUS
 62
8
 10
3.5869290651097
 20
9.4919513691822
 11
3.579215418128
 21
9.4924513580652
  0
LINE
  8
EFKV.1b
  6
CONTINUOUS
 62
8
 10
3.5951181036753
 20
9.489752736727
 11
3.5869290651097
 21
9.4919513691822
  0
LINE
  8
EFKV.1b
  6
CONTINUOUS
 62
8
 10
3.603546950095
 20
9.4859187113523
 11
3.5951181036753
 21
9.489752736727
  0
LINE
  8
EFKV.1b
  6
CONTINUOUS
 62
8
 10
3.6119731218037
 20
9.4805595909875
 11
3.603546950095
 21
9.4859187113523
  0
LINE
  8
EFKV.1b
  6
CONTINUOUS
 62
8
 10
3.6201542131829
 20
9.4738295477683
 11
3.6119731218037
 21
9.4805595909875
  0
LINE
  8
EFKV.1b
  6
CONTINUOUS
 62
8
 10
3.6278548691288
 20
9.4659221927846
 11
3.6201542131829
 21
9.4738295477683
  0
LINE
  8
EFKV.1b
  6
CONTINUOUS
 62
8
 10
3.6348535557904
 20
9.4570650062425
 11
3.6278548691288
 21
9.4659221927846
  0
LINE
  8
EFKV.1b
  6
CONTINUOUS
 62
8
 10
3.6409489336949
 20
9.4475127932725
 11
3.6348535557904
 21
9.4570650062425
  0
LINE
  8
EFKV.1b
  6
CONTINUOUS
 62
8
 10
3.6459656499179
 20
9.4375403536502
 11
3.6409489336949
 21
9.4475127932725
  0
LINE
  8
EFKV.1b
  6
CONTINUOUS
 62
8
 10
3.6497593826675
 20
9.4274345763066
 11
3.6459656499179
 21
9.4375403536502
  0
LINE
  8
EFKV.1b
  6
CONTINUOUS
 62
8
 10
3.6522209931597
 20
9.4174861860564
 11
3.6497593826675
 21
9.4274345763066
  0
LINE
  8
EFKV.1b
  6
CONTINUOUS
 62
8
 10
3.6532796653426
 20
9.4079813799742
 11
3.6522209931597
 21
9.4174861860564
  0
LINE
  8
EFKV.1b
  6
CONTINUOUS
 62
8
 10
3.652904943145
 20
9.3991935940255
 11
3.6532796653426
 21
9.4079813799742
  0
LINE
  8
EFKV.1b
  6
CONTINUOUS
 62
8
 10
3.6511076066422
 20
9.3913756368122
 11
3.652904943145
 21
9.3991935940255
  0
LINE
  8
EFKV.1b
  6
CONTINUOUS
 62
8
 10
3.6479393619329
 20
9.3847524167292
 11
3.6511076066422
 21
9.3913756368122
  0
LINE
  8
EFKV.1b
  6
CONTINUOUS
 62
8
 10
3.6434913536492
 20
9.3795144717595
 11
3.6479393619329
 21
9.3847524167292
  0
LINE
  8
EFKV.1b
  6
CONTINUOUS
 62
8
 10
3.6378915428908
 20
9.3758124880431
 11
3.6434913536492
 21
9.3795144717595
  0
LINE
  8
EFKV.1b
  6
CONTINUOUS
 62
8
 10
3.6313010260177
 20
9.3737529649113
 11
3.6378915428908
 21
9.3758124880431
  0
LINE
  8
EFKV.1b
  6
CONTINUOUS
 62
8
 10
3.623909400201
 20
9.3733951510949
 11
3.6313010260177
 21
9.3737529649113
  0
LINE
  8
EFKV.1b
  6
CONTINUOUS
 62
8
 10
3.6139810869061
 20
9.376114560313
 11
3.623909400201
 21
9.3733951510949
  0
LINE
  8
EFKV.1b
  6
CONTINUOUS
 62
8
 10
3.604308916048
 20
9.5063252164183
 11
3.600511252505
 21
9.5056686480652
  0
LINE
  8
EFKV.1b
  6
CONTINUOUS
 62
8
 10
3.6120225630297
 20
9.5058252275353
 11
3.604308916048
 21
9.5063252164183
  0
LINE
  8
EFKV.1b
  6
CONTINUOUS
 62
8
 10
3.6202116015953
 20
9.5036265950801
 11
3.6120225630297
 21
9.5058252275353
  0
LINE
  8
EFKV.1b
  6
CONTINUOUS
 62
8
 10
3.628640448015
 20
9.4997925697054
 11
3.6202116015953
 21
9.5036265950801
  0
LINE
  8
EFKV.1b
  6
CONTINUOUS
 62
8
 10
3.6370666197237
 20
9.4944334493406
 11
3.628640448015
 21
9.4997925697054
  0
LINE
  8
EFKV.1b
  6
CONTINUOUS
 62
8
 10
3.6452477111029
 20
9.4877034061214
 11
3.6370666197237
 21
9.4944334493406
  0
LINE
  8
EFKV.1b
  6
CONTINUOUS
 62
8
 10
3.6529483670487
 20
9.4797960511377
 11
3.6452477111029
 21
9.4877034061214
  0
LINE
  8
EFKV.1b
  6
CONTINUOUS
 62
8
 10
3.6599470537103
 20
9.4709388645956
 11
3.6529483670487
 21
9.4797960511377
  0
LINE
  8
EFKV.1b
  6
CONTINUOUS
 62
8
 10
3.6660424316149
 20
9.4613866516256
 11
3.6599470537103
 21
9.4709388645956
  0
LINE
  8
EFKV.1b
  6
CONTINUOUS
 62
8
 10
3.6710591478378
 20
9.4514142120033
 11
3.6660424316149
 21
9.4613866516256
  0
LINE
  8
EFKV.1b
  6
CONTINUOUS
 62
8
 10
3.6748528805875
 20
9.4413084346597
 11
3.6710591478378
 21
9.4514142120033
  0
LINE
  8
EFKV.1b
  6
CONTINUOUS
 62
8
 10
3.6773144910797
 20
9.4313600444096
 11
3.6748528805875
 21
9.4413084346597
  0
LINE
  8
EFKV.1b
  6
CONTINUOUS
 62
8
 10
3.6783731632626
 20
9.4218552383273
 11
3.6773144910797
 21
9.4313600444096
  0
LINE
  8
EFKV.1b
  6
CONTINUOUS
 62
8
 10
3.677998441065
 20
9.4130674523786
 11
3.6783731632626
 21
9.4218552383273
  0
LINE
  8
EFKV.1b
  6
CONTINUOUS
 62
8
 10
3.6762011045621
 20
9.4052494951653
 11
3.677998441065
 21
9.4130674523786
  0
LINE
  8
EFKV.1b
  6
CONTINUOUS
 62
8
 10
3.6730328598529
 20
9.3986262750823
 11
3.6762011045621
 21
9.4052494951653
  0
LINE
  8
EFKV.1b
  6
CONTINUOUS
 62
8
 10
3.6688263336674
 20
9.3936726978253
 11
3.6730328598529
 21
9.3986262750823
  0
LINE
  8
EFKV.1b
  6
CONTINUOUS
 62
8
 10
3.4368651513026
 20
9.76178687274
 11
3.5233270361922
 21
9.5529156504637
  0
LINE
  8
EFKV.1b
  6
CONTINUOUS
 62
8
 10
3.4355647744338
 20
9.9373377500358
 11
3.4368651513026
 21
9.76178687274
  0
LINE
  8
EFKV.1b
  6
CONTINUOUS
 62
8
 10
3.3057079689222
 20
10.083426656236
 11
3.4355647744338
 21
9.9373377500358
  0
LINE
  8
EFKV.1b
  6
CONTINUOUS
 62
8
 10
3.6198205380237
 20
9.2941968367139
 11
3.8541646397919
 21
9.1836691088891
  0
LINE
  8
EFKV.1b
  6
CONTINUOUS
 62
8
 10
3.5532816254073
 20
9.4021935263268
 11
3.6198205380237
 21
9.2941968367139
  0
LINE
  8
EFKV.1b
  6
CONTINUOUS
 62
8
 10
4.5976218461741
 20
8.7974228211548
 11
4.5976218461741
 21
8.6289090780048
  0
LINE
  8
EFKV.1b
  6
CONTINUOUS
 62
8
 10
3.8541646397919
 20
8.9667178861424
 11
3.9346785505654
 21
9.0116595681819
  0
LINE
  8
EFKV.1b
  6
CONTINUOUS
 62
8
 10
3.8938711221258
 20
8.9437933378783
 11
3.9743850328993
 21
8.9887350199178
  0
LINE
  8
EFKV.1b
  6
CONTINUOUS
 62
8
 10
3.6329156330799
 20
9.4970735138712
 11
3.6878774280789
 21
9.528805721009
  0
LINE
  8
EFKV.1b
  6
CONTINUOUS
 62
8
 10
3.6774590158695
 20
9.4300624944
 11
3.7327470460278
 21
9.4619830534949
  0
LINE
  8
EFKV.1b
  6
CONTINUOUS
 62
8
 10
3.6378915428908
 20
9.3758124880431
 11
3.6688263336674
 21
9.3936726978253
  0
LINE
  8
EFKV.1b
  6
CONTINUOUS
 62
8
 10
3.6048629250145
 20
9.5062893062548
 11
3.6203240561432
 21
9.5149194824875
  0
LINE
  8
EFKV.1b
  6
CONTINUOUS
 62
8
 10
3.5903883831938
 20
9.4231001635102
 11
3.6204245326018
 21
9.374349671847
  0
LINE
  8
EFKV.1b
  6
CONTINUOUS
 62
8
 10
3.5769355193626
 20
9.492057192189
 11
3.5906496799685
 21
9.423051825351
  0
LINE
  8
EFKV.1b
  6
CONTINUOUS
 62
8
 10
3.5747298566117
 20
9.4930567847619
 11
3.588843089128
 21
9.4220434128872
  0
LINE
  8
EFKV.1b
  6
CONTINUOUS
 62
8
 10
3.5725241938608
 20
9.4940563773348
 11
3.5870364982875
 21
9.4210350004235
  0
LINE
  8
EFKV.1b
  6
CONTINUOUS
 62
8
 10
3.5887124407406
 20
9.4220675819669
 11
3.6176429882432
 21
9.3751115492319
  0
LINE
  8
EFKV.1b
  6
CONTINUOUS
 62
8
 10
3.5870364982875
 20
9.4210350004235
 11
3.6148614438845
 21
9.3758734266167
  0
LINE
  8
EFKV.1b
  6
CONTINUOUS
 62
8
 10
3.5769355193626
 20
9.492057192189
 11
3.619933954795
 21
9.5168823504607
  0
POLYLINE
  8
EFKV.1b
  6
CONTINUOUS
 62
7
 70
0
 66
1
  0
VERTEX
  8
EFKV.1b
  6
CONTINUOUS
 62
7
 10
3.544654953305
 20
9.5849295685715
  0
VERTEX
  8
EFKV.1b
  6
CONTINUOUS
 62
7
 10
3.542154953305
 20
9.5951295685715
  0
VERTEX
  8
EFKV.1b
  6
CONTINUOUS
 62
7
 10
3.544654953305
 20
9.5849295685715
  0
SEQEND
  0
POLYLINE
  8
EFKV.1b
  6
CONTINUOUS
 62
7
 70
0
 66
1
  0
VERTEX
  8
EFKV.1b
  6
CONTINUOUS
 62
7
 10
3.6306480691324
 20
9.3566414046203
  0
VERTEX
  8
EFKV.1b
  6
CONTINUOUS
 62
7
 10
3.6281480691324
 20
9.3668414046203
  0
VERTEX
  8
EFKV.1b
  6
CONTINUOUS
 62
7
 10
3.6306480691324
 20
9.3566414046203
  0
SEQEND
  0
POLYLINE
  8
EFKV.1b
  6
CONTINUOUS
 62
7
 70
0
 66
1
  0
VERTEX
  8
EFKV.1b
  6
CONTINUOUS
 62
7
 10
3.8318167765257
 20
9.2149379382837
  0
VERTEX
  8
EFKV.1b
  6
CONTINUOUS
 62
7
 10
3.8293167765257
 20
9.2251379382837
  0
VERTEX
  8
EFKV.1b
  6
CONTINUOUS
 62
7
 10
3.8318167765257
 20
9.2149379382837
  0
SEQEND
  0
POLYLINE
  8
EFKV.1b
  6
CONTINUOUS
 62
7
 70
0
 66
1
  0
VERTEX
  8
EFKV.1b
  6
CONTINUOUS
 62
7
 10
3.464951730654
 20
9.838319122424
  0
VERTEX
  8
EFKV.1b
  6
CONTINUOUS
 62
7
 10
3.462451730654
 20
9.848519122424
  0
VERTEX
  8
EFKV.1b
  6
CONTINUOUS
 62
7
 10
3.464951730654
 20
9.838319122424
  0
SEQEND
  0
POLYLINE
  8
EFKV.1b
  6
CONTINUOUS
 62
7
 70
0
 66
1
  0
VERTEX
  8
EFKV.1b
  6
CONTINUOUS
 62
7
 10
3.6679058759907
 20
9.3183797376818
  0
VERTEX
  8
EFKV.1b
  6
CONTINUOUS
 62
7
 10
3.6654058759907
 20
9.3285797376818
  0
VERTEX
  8
EFKV.1b
  6
CONTINUOUS
 62
7
 10
3.6679058759907
 20
9.3183797376818
  0
SEQEND
  0
POLYLINE
  8
EFKV.1b
  6
CONTINUOUS
 62
7
 70
0
 66
1
  0
VERTEX
  8
EFKV.1b
  6
CONTINUOUS
 62
7
 10
3.8626699529309
 20
9.219288515812
  0
VERTEX
  8
EFKV.1b
  6
CONTINUOUS
 62
7
 10
3.857569952931
 20
9.231988515812
  0
VERTEX
  8
EFKV.1b
  6
CONTINUOUS
 62
7
 10
3.865169952931
 20
9.231988515812
  0
VERTEX
  8
EFKV.1b
  6
CONTINUOUS
 62
7
 10
3.8626699529309
 20
9.219288515812
  0
SEQEND
  0
POLYLINE
  8
EFKV.1b
  6
CONTINUOUS
 62
7
 70
0
 66
1
  0
VERTEX
  8
EFKV.1b
  6
CONTINUOUS
 62
7
 10
3.5229012360705
 20
9.6755413398141
  0
VERTEX
  8
EFKV.1b
  6
CONTINUOUS
 62
7
 10
3.5051012360705
 20
9.6831413398141
  0
VERTEX
  8
EFKV.1b
  6
CONTINUOUS
 62
7
 10
3.5051012360705
 20
9.6907413398141
  0
VERTEX
  8
EFKV.1b
  6
CONTINUOUS
 62
7
 10
3.5229012360705
 20
9.6755413398141
  0
SEQEND
  0
POLYLINE
  8
EFKV.1b
  6
CONTINUOUS
 62
7
 70
0
 66
1
  0
VERTEX
  8
EFKV.1b
  6
CONTINUOUS
 62
7
 10
3.7095735578788
 20
9.2682688397763
  0
VERTEX
  8
EFKV.1b
  6
CONTINUOUS
 62
7
 10
3.7095735578788
 20
9.2707688397763
  0
VERTEX
  8
EFKV.1b
  6
CONTINUOUS
 62
7
 10
3.7045735578788
 20
9.2733688397763
  0
VERTEX
  8
EFKV.1b
  6
CONTINUOUS
 62
7
 10
3.7095735578788
 20
9.2809688397763
  0
VERTEX
  8
EFKV.1b
  6
CONTINUOUS
 62
7
 10
3.7095735578788
 20
9.2682688397763
  0
SEQEND
  0
POLYLINE
  8
EFKV.1b
  6
CONTINUOUS
 62
7
 70
0
 66
1
  0
VERTEX
  8
EFKV.1b
  6
CONTINUOUS
 62
7
 10
3.4823181723344
 20
9.972540954402
  0
VERTEX
  8
EFKV.1b
  6
CONTINUOUS
 62
7
 10
3.4798181723344
 20
9.980140954402
  0
VERTEX
  8
EFKV.1b
  6
CONTINUOUS
 62
7
 10
3.4925181723344
 20
9.980140954402
  0
VERTEX
  8
EFKV.1b
  6
CONTINUOUS
 62
7
 10
3.4823181723344
 20
9.972540954402
  0
SEQEND
  0
POLYLINE
  8
EFKV.1b
  6
CONTINUOUS
 62
7
 70
0
 66
1
  0
VERTEX
  8
EFKV.1b
  6
CONTINUOUS
 62
7
 10
3.4072874483434
 20
9.9985197871511
  0
VERTEX
  8
EFKV.1b
  6
CONTINUOUS
 62
7
 10
3.4021874483434
 20
10.011219787151
  0
VERTEX
  8
EFKV.1b
  6
CONTINUOUS
 62
7
 10
3.4097874483434
 20
10.011219787151
  0
VERTEX
  8
EFKV.1b
  6
CONTINUOUS
 62
7
 10
3.4072874483434
 20
9.9985197871511
  0
SEQEND
  0
LINE
  8
EFKV.1b
  6
CONTINUOUS
 62
8
 10
3.2954781754683
 20
9.2892756667123
 11
3.8541646397919
 21
8.9667178861424
  0
LINE
  8
EFKV.1b
  6
CONTINUOUS
 62
8
 10
3.2954781754683
 20
9.3347363178296
 11
3.8541646397919
 21
9.0121785372597
  0
LINE
  8
EFKV.1b
  6
CONTINUOUS
 62
8
 10
3.8541646397919
 20
9.0121785372597
 11
3.8541646397919
 21
9.1836691088891
  0
LINE
  8
EFKV.1b
  6
CONTINUOUS
 62
8
 10
3.8938711221258
 20
8.9437933378783
 11
4.647607379769
 21
8.5086235066301
  0
LINE
  8
EFKV.1b
  6
CONTINUOUS
 62
8
 10
3.9743850328993
 20
8.9887350199178
 11
4.8059625672125
 21
8.5086235066301
  0
LINE
  8
EFKV.1b
  6
CONTINUOUS
 62
8
 10
3.8541646397919
 20
9.0121785372597
 11
3.9346785505654
 21
9.0571202192992
  0
LINE
  8
EFKV.1b
  6
CONTINUOUS
 62
8
 10
3.9346785505654
 20
9.0116595681819
 11
3.9346785505654
 21
8.9665714448683
  0
LINE
  8
EFKV.1b
  6
CONTINUOUS
 62
8
 10
3.9346785505654
 20
9.0571202192992
 11
3.9346785505654
 21
9.2286107909286
  0
LINE
  8
EFKV.1b
  6
CONTINUOUS
 62
8
 10
3.9346785505654
 20
9.0116595681819
 11
3.8946440047068
 21
9.0347735240103
  0
POLYLINE
  8
EFKV.1b
  6
CONTINUOUS
 62
7
 70
0
 66
1
  0
VERTEX
  8
EFKV.1b
  6
CONTINUOUS
 62
7
 10
3.4528181820624
 20
9.9714535121592
  0
VERTEX
  8
EFKV.1b
  6
CONTINUOUS
 62
7
 10
3.4503181820624
 20
9.9816535121592
  0
VERTEX
  8
EFKV.1b
  6
CONTINUOUS
 62
7
 10
3.4528181820624
 20
9.9714535121592
  0
SEQEND
  0
LINE
  8
EFKV.1b
  6
CONTINUOUS
 62
8
 10
3.8541646397919
 20
9.1836691088891
 11
3.9346785505654
 21
9.2286107909286
  0
LINE
  8
EFKV.1b
  6
CONTINUOUS
 62
8
 10
3.5233270361922
 20
9.5529156504637
 11
3.5532816254073
 21
9.4021935263268
  0
LINE
  8
EFKV.1b
  6
CONTINUOUS
 62
8
 10
3.5160786852073
 20
9.9822794320753
 11
3.5173790620761
 21
9.8067285547796
  0
LINE
  8
EFKV.1b
  6
CONTINUOUS
 62
8
 10
3.4261700415086
 20
10.083426656236
 11
3.5160786852073
 21
9.9822794320753
  0
LINE
  8
EFKV.1b
  6
CONTINUOUS
 62
8
 10
3.5173790620761
 20
9.8067285547796
 11
3.6038409469657
 21
9.5978573325033
  0
LINE
  8
EFKV.1b
  6
CONTINUOUS
 62
8
 10
3.6038409469657
 20
9.5978573325033
 11
3.6228026428554
 21
9.5024480093706
  0
LINE
  8
EFKV.1b
  6
CONTINUOUS
 62
8
 10
3.7931999049354
 20
9.297347209298
 11
3.7979040843549
 21
9.3000631685522
  0
LINE
  8
EFKV.1b
  6
CONTINUOUS
 62
8
 10
3.7297355665985
 20
9.4601600627493
 11
3.7327470460278
 21
9.4619830534949
  0
LINE
  8
EFKV.1b
  6
CONTINUOUS
 62
8
 10
3.7327470460278
 20
9.4619830534949
 11
3.7351316837327
 21
9.4647705080725
  0
LINE
  8
EFKV.1b
  6
CONTINUOUS
 62
8
 10
3.7351316837327
 20
9.4647705080725
 11
3.7368208780283
 21
9.4684422364892
  0
LINE
  8
EFKV.1b
  6
CONTINUOUS
 62
8
 10
3.7368208780283
 20
9.4684422364892
 11
3.7377660338702
 21
9.4728926098035
  0
LINE
  8
EFKV.1b
  6
CONTINUOUS
 62
8
 10
3.7377660338702
 20
9.4728926098035
 11
3.7379399608456
 21
9.4779935988778
  0
LINE
  8
EFKV.1b
  6
CONTINUOUS
 62
8
 10
3.7379399608456
 20
9.4779935988778
 11
3.7373376553922
 21
9.483598457544
  0
LINE
  8
EFKV.1b
  6
CONTINUOUS
 62
8
 10
3.7373376553922
 20
9.483598457544
 11
3.7359764447412
 21
9.4895459442228
  0
LINE
  8
EFKV.1b
  6
CONTINUOUS
 62
8
 10
3.7359764447412
 20
9.4895459442228
 11
3.7338954884447
 21
9.4956649605511
  0
LINE
  8
EFKV.1b
  6
CONTINUOUS
 62
8
 10
3.7338954884447
 20
9.4956649605511
 11
3.7311546518265
 21
9.50177947357
  0
LINE
  8
EFKV.1b
  6
CONTINUOUS
 62
8
 10
3.7311546518265
 20
9.50177947357
 11
3.727832783766
 21
9.5077135798726
  0
LINE
  8
EFKV.1b
  6
CONTINUOUS
 62
8
 10
3.727832783766
 20
9.5077135798726
 11
3.7240254483591
 21
9.5132965660248
  0
LINE
  8
EFKV.1b
  6
CONTINUOUS
 62
8
 10
3.7240254483591
 20
9.5132965660248
 11
3.7198421757134
 21
9.5183678196799
  0
LINE
  8
EFKV.1b
  6
CONTINUOUS
 62
8
 10
3.7198421757134
 20
9.5183678196799
 11
3.7154033109667
 21
9.5227814501034
  0
LINE
  8
EFKV.1b
  6
CONTINUOUS
 62
8
 10
3.7154033109667
 20
9.5227814501034
 11
3.7108365521756
 21
9.526410485184
  0
LINE
  8
EFKV.1b
  6
CONTINUOUS
 62
8
 10
3.7108365521756
 20
9.526410485184
 11
3.7062732766762
 21
9.5291505241898
  0
LINE
  8
EFKV.1b
  6
CONTINUOUS
 62
8
 10
3.7062732766762
 20
9.5291505241898
 11
3.701844761596
 21
9.5309227411873
  0
LINE
  8
EFKV.1b
  6
CONTINUOUS
 62
8
 10
3.701844761596
 20
9.5309227411873
 11
3.697678407251
 21
9.5316761527201
  0
LINE
  8
EFKV.1b
  6
CONTINUOUS
 62
8
 10
3.697678407251
 20
9.5316761527201
 11
3.69389407207
 21
9.5313890845102
  0
LINE
  8
EFKV.1b
  6
CONTINUOUS
 62
8
 10
3.69389407207
 20
9.5313890845102
 11
3.6906006244861
 21
9.5300697949874
  0
LINE
  8
EFKV.1b
  6
CONTINUOUS
 62
8
 10
3.7293012126328
 20
9.4604295055283
 11
3.7316858503378
 21
9.463216960106
  0
LINE
  8
EFKV.1b
  6
CONTINUOUS
 62
8
 10
3.7316858503378
 20
9.463216960106
 11
3.7333750446334
 21
9.4668886885227
  0
LINE
  8
EFKV.1b
  6
CONTINUOUS
 62
8
 10
3.7333750446334
 20
9.4668886885227
 11
3.7343202004753
 21
9.4713390618369
  0
LINE
  8
EFKV.1b
  6
CONTINUOUS
 62
8
 10
3.7343202004753
 20
9.4713390618369
 11
3.7344941274507
 21
9.4764400509113
  0
LINE
  8
EFKV.1b
  6
CONTINUOUS
 62
8
 10
3.7344941274507
 20
9.4764400509113
 11
3.7338918219973
 21
9.4820449095774
  0
LINE
  8
EFKV.1b
  6
CONTINUOUS
 62
8
 10
3.7338918219973
 20
9.4820449095774
 11
3.7325306113463
 21
9.4879923962562
  0
LINE
  8
EFKV.1b
  6
CONTINUOUS
 62
8
 10
3.7325306113463
 20
9.4879923962562
 11
3.7304496550497
 21
9.4941114125845
  0
LINE
  8
EFKV.1b
  6
CONTINUOUS
 62
8
 10
3.7304496550497
 20
9.4941114125845
 11
3.7277088184316
 21
9.5002259256034
  0
LINE
  8
EFKV.1b
  6
CONTINUOUS
 62
8
 10
3.7277088184316
 20
9.5002259256034
 11
3.7243869503711
 21
9.506160031906
  0
LINE
  8
EFKV.1b
  6
CONTINUOUS
 62
8
 10
3.7243869503711
 20
9.506160031906
 11
3.7205796149642
 21
9.5117430180582
  0
LINE
  8
EFKV.1b
  6
CONTINUOUS
 62
8
 10
3.7205796149642
 20
9.5117430180582
 11
3.7163963423185
 21
9.5168142717133
  0
LINE
  8
EFKV.1b
  6
CONTINUOUS
 62
8
 10
3.7163963423185
 20
9.5168142717133
 11
3.7119574775717
 21
9.5212279021369
  0
LINE
  8
EFKV.1b
  6
CONTINUOUS
 62
8
 10
3.7119574775717
 20
9.5212279021369
 11
3.7073907187807
 21
9.5248569372175
  0
LINE
  8
EFKV.1b
  6
CONTINUOUS
 62
8
 10
3.7073907187807
 20
9.5248569372175
 11
3.7028274432812
 21
9.5275969762232
  0
LINE
  8
EFKV.1b
  6
CONTINUOUS
 62
8
 10
3.7028274432812
 20
9.5275969762232
 11
3.6983989282011
 21
9.5293691932207
  0
LINE
  8
EFKV.1b
  6
CONTINUOUS
 62
8
 10
3.6983989282011
 20
9.5293691932207
 11
3.6942325738561
 21
9.5301226047535
  0
LINE
  8
EFKV.1b
  6
CONTINUOUS
 62
8
 10
3.6942325738561
 20
9.5301226047535
 11
3.6904482386751
 21
9.5298355365437
  0
LINE
  8
EFKV.1b
  6
CONTINUOUS
 62
8
 10
3.6904482386751
 20
9.5298355365437
 11
3.6871547910912
 21
9.5285162470209
  0
LINE
  8
EFKV.1b
  6
CONTINUOUS
 62
8
 10
3.2954781754683
 20
9.3392823829413
 11
3.8502276319179
 21
9.0189976349273
  0
LINE
  8
EFKV.1b
  6
CONTINUOUS
 62
8
 10
3.8502276319179
 20
9.0189976349273
 11
3.8502276319179
 21
9.1836691088891
  0
LINE
  8
EFKV.1b
  6
CONTINUOUS
 62
8
 10
3.2954781754683
 20
9.2847296016005
 11
3.8502276319179
 21
8.9644448535865
  0
LINE
  8
EFKV.1b
  6
CONTINUOUS
 62
8
 10
3.8502276319179
 20
8.5086235066301
 11
3.8502276319179
 21
8.9644448535865
  0
LINE
  8
EFKV.1b
  6
CONTINUOUS
 62
8
 10
3.8978081299998
 20
8.5086235066301
 11
3.8978081299998
 21
8.9369742402107
  0
LINE
  8
EFKV.1b
  6
CONTINUOUS
 62
8
 10
3.8978081299998
 20
8.9369742402107
 11
4.6397333640209
 21
8.5086235066301
  0
ENDSEC
  0
EOF
