  0
SECTION
  2
HEADER
  9
$EXTMIN
 10
3.7644222033407
 20
7.2317073214077
  9
$EXTMAX
 10
5.339225352947
 20
8.806510471014
  9
$LIMMIN
 10
0
 20
0
  9
$LIMMAX
 10
8.2666666666667
 20
11.69
  0
ENDSEC
  0
SECTION
  2
TABLES
  0
TABLE
  2
LTYPE
 70
9
  0
LTYPE
  2
CONTINUOUS
  3
___________________________
 70
64
 72
65
 73
0
 40
0
  0
LTYPE
  2
HIDDEN
  3
_ _ _ _ _ _ _ _ _ _ _ _ _ _ 
 70
64
 72
65
 73
2
 49
0.25
 49
-0.125
 40
0.375
  0
LTYPE
  2
DASHED
  3
__ __ __ __ __ __ __ __ __ 
 70
64
 72
65
 73
2
 49
0.5
 49
-0.25
 40
0.75
  0
LTYPE
  2
CENTER
  3
____ _ ____ _ ____ _ ____ _ 
 70
64
 72
65
 73
4
 49
1.25
 49
-0.25
 49
0.25
 49
-0.25
 40
2
  0
LTYPE
  2
PHANTOM
  3
_____ _ _ _____ _ _ _____ _ _ 
 70
64
 72
65
 73
6
 49
1.25
 49
-0.25
 49
0.25
 49
-0.25
 49
0.25
 49
-0.25
 40
2.5
  0
LTYPE
  2
DOT
  3
...........................
 70
64
 72
65
 73
2
 49
0
 49
-0.25
 40
0.25
  0
LTYPE
  2
DASHDOT
  3
__ . __ . __ . __ . __ . __ . 
 70
64
 72
65
 73
4
 49
0.5
 49
-0.25
 49
0
 49
-0.25
 40
1
  0
LTYPE
  2
DIVIDE
  3
__ . . __ . . __ . . __ . . 
 70
64
 72
65
 73
6
 49
0.5
 49
-0.25
 49
0
 49
-0.25
 49
0
 49
-0.25
 40
1.25
  0
LTYPE
  2
BORDER
  3
__ __ . __ __ . __ __ . __ __ . 
 70
64
 72
65
 73
6
 49
0.5
 49
-0.25
 49
0.5
 49
-0.25
 49
0
 49
-0.25
 40
1.75
  0
ENDTAB
  0
TABLE
  2
LAYER
 70
1
  0
LAYER
  2
trespa
 62
7
  6
CONTINUOUS
 70
0
  0
ENDTAB
  0
TABLE
  2
STYLE
 70
5
  0
STYLE
  2
ptmarker
 70
1
 40
0
 50
0
 71
0
 41
0
 42
0
  3
ptmarks
  0
STYLE
  2
TXT
 70
0
 40
0
 50
0
 71
0
 41
0
 42
0
  3
TXT
  0
STYLE
  2
ITALIC
 70
0
 40
0
 50
0
 71
0
 41
0
 42
0
  3
ITALIC
  0
STYLE
  2
SIMPLEX
 70
0
 40
0
 50
0
 71
0
 41
0
 42
0
  3
SIMPLEX
  0
STYLE
  2
COMPLEX
 70
0
 40
0
 50
0
 71
0
 41
0
 42
0
  3
COMPLEX
  0
ENDTAB
  0
ENDSEC
  0
SECTION
  2
BLOCKS
  0
ENDSEC
  0
SECTION
  2
ENTITIES
  0
POLYLINE
  8
trespa
  6
CONTINUOUS
 62
8
 70
1
 66
1
  0
VERTEX
  8
trespa
  6
CONTINUOUS
 62
8
 10
4.3131052557332
 20
7.8832138536844
  0
VERTEX
  8
trespa
  6
CONTINUOUS
 62
8
 10
4.4251079373574
 20
7.8185490752987
  0
VERTEX
  8
trespa
  6
CONTINUOUS
 62
8
 10
4.4251079373574
 20
7.6565226952264
  0
VERTEX
  8
trespa
  6
CONTINUOUS
 62
8
 10
4.3853686486711
 20
7.6794661842468
  0
VERTEX
  8
trespa
  6
CONTINUOUS
 62
8
 10
4.3594358732573
 20
7.6649908900293
  0
VERTEX
  8
trespa
  6
CONTINUOUS
 62
8
 10
4.3594358732573
 20
7.2317073214077
  0
VERTEX
  8
trespa
  6
CONTINUOUS
 62
8
 10
4.3448376352478
 20
7.2317073214077
  0
VERTEX
  8
trespa
  6
CONTINUOUS
 62
8
 10
4.3448376352478
 20
7.833799737751
  0
VERTEX
  8
trespa
  6
CONTINUOUS
 62
8
 10
4.3131052557332
 20
7.8602871181601
  0
VERTEX
  8
trespa
  6
CONTINUOUS
 62
8
 10
4.3131052557332
 20
7.8832138536844
  0
SEQEND
  0
LINE
  8
trespa
  6
CONTINUOUS
 62
8
 10
4.0414682217333
 20
8.2171401921125
 11
4.088067493326
 21
8.2440442941106
  0
LINE
  8
trespa
  6
CONTINUOUS
 62
8
 10
4.0436738844842
 20
8.2161405995396
 11
4.0884727379967
 21
8.2420052296745
  0
LINE
  8
trespa
  6
CONTINUOUS
 62
8
 10
5.0219684576196
 20
7.8321175647605
 11
5.0219684576196
 21
7.8005570135196
  0
LINE
  8
trespa
  6
CONTINUOUS
 62
8
 10
5.1085880221189
 20
7.7505471846389
 11
5.0219684576196
 21
7.8005570135196
  0
LINE
  8
trespa
  6
CONTINUOUS
 62
8
 10
4.6817000230839
 20
7.9970110857956
 11
4.6736213533305
 21
8.0016753079524
  0
LINE
  8
trespa
  6
CONTINUOUS
 62
8
 10
4.7602409178298
 20
7.9516654790716
 11
4.7422286308058
 21
7.9620648778337
  0
LINE
  8
trespa
  6
CONTINUOUS
 62
8
 10
4.6736213533305
 20
8.0332358591932
 11
4.6736213533305
 21
8.0016753079524
  0
LINE
  8
trespa
  6
CONTINUOUS
 62
8
 10
4.6884995751306
 20
8.0210896680679
 11
4.6854541950329
 21
8.0183800769834
  0
LINE
  8
trespa
  6
CONTINUOUS
 62
8
 10
4.6921943253044
 20
8.0228359155088
 11
4.6884995751306
 21
8.0210896680679
  0
LINE
  8
trespa
  6
CONTINUOUS
 62
8
 10
4.696432154319
 20
8.0235685829464
 11
4.6921943253044
 21
8.0228359155088
  0
LINE
  8
trespa
  6
CONTINUOUS
 62
8
 10
4.7010911475494
 20
8.0232665928726
 11
4.696432154319
 21
8.0235685829464
  0
LINE
  8
trespa
  6
CONTINUOUS
 62
8
 10
4.7060372742429
 20
8.021938632992
 11
4.7010911475494
 21
8.0232665928726
  0
LINE
  8
trespa
  6
CONTINUOUS
 62
8
 10
4.7111282433399
 20
8.0196229062925
 11
4.7060372742429
 21
8.021938632992
  0
LINE
  8
trespa
  6
CONTINUOUS
 62
8
 10
4.7162175969287
 20
8.0163860320151
 11
4.7111282433399
 21
8.0196229062925
  0
LINE
  8
trespa
  6
CONTINUOUS
 62
8
 10
4.7211589235726
 20
8.0123211291393
 11
4.7162175969287
 21
8.0163860320151
  0
LINE
  8
trespa
  6
CONTINUOUS
 62
8
 10
4.7258100703008
 20
8.00754513752
 11
4.7211589235726
 21
8.0123211291393
  0
LINE
  8
trespa
  6
CONTINUOUS
 62
8
 10
4.7300372320902
 20
8.0021954537403
 11
4.7258100703008
 21
8.00754513752
  0
LINE
  8
trespa
  6
CONTINUOUS
 62
8
 10
4.7337188011925
 20
7.9964259784626
 11
4.7300372320902
 21
8.0021954537403
  0
LINE
  8
trespa
  6
CONTINUOUS
 62
8
 10
4.7367488655676
 20
7.990402688986
 11
4.7337188011925
 21
7.9964259784626
  0
LINE
  8
trespa
  6
CONTINUOUS
 62
8
 10
4.7390402557803
 20
7.9842988643823
 11
4.7367488655676
 21
7.990402688986
  0
LINE
  8
trespa
  6
CONTINUOUS
 62
8
 10
4.7405270527062
 20
7.978290100572
 11
4.7390402557803
 21
7.9842988643823
  0
LINE
  8
trespa
  6
CONTINUOUS
 62
8
 10
4.7411664839045
 20
7.97254925875
 11
4.7405270527062
 21
7.978290100572
  0
LINE
  8
trespa
  6
CONTINUOUS
 62
8
 10
4.7409401541041
 20
7.967241492483
 11
4.7411664839045
 21
7.97254925875
  0
LINE
  8
trespa
  6
CONTINUOUS
 62
8
 10
4.7398545744011
 20
7.9625194965427
 11
4.7409401541041
 21
7.967241492483
  0
LINE
  8
trespa
  6
CONTINUOUS
 62
8
 10
4.7379409749471
 20
7.9585191141551
 11
4.7398545744011
 21
7.9625194965427
  0
LINE
  8
trespa
  6
CONTINUOUS
 62
8
 10
4.7352544065143
 20
7.955355429038
 11
4.7379409749471
 21
7.9585191141551
  0
LINE
  8
trespa
  6
CONTINUOUS
 62
8
 10
4.7318721567852
 20
7.953119454652
 11
4.7352544065143
 21
7.955355429038
  0
LINE
  8
trespa
  6
CONTINUOUS
 62
8
 10
4.7278915269263
 20
7.9518755159092
 11
4.7318721567852
 21
7.953119454652
  0
LINE
  8
trespa
  6
CONTINUOUS
 62
8
 10
4.7234270324111
 20
7.9516593986624
 11
4.7278915269263
 21
7.9518755159092
  0
LINE
  8
trespa
  6
CONTINUOUS
 62
8
 10
4.7186071086185
 20
7.9524773202113
 11
4.7234270324111
 21
7.9516593986624
  0
LINE
  8
trespa
  6
CONTINUOUS
 62
8
 10
4.7135704159803
 20
7.9543057504422
 11
4.7186071086185
 21
7.9524773202113
  0
LINE
  8
trespa
  6
CONTINUOUS
 62
8
 10
4.7084618509734
 20
7.9570920887464
 11
4.7135704159803
 21
7.9543057504422
  0
LINE
  8
trespa
  6
CONTINUOUS
 62
8
 10
4.703428377712
 20
7.9607561772437
 11
4.7084618509734
 21
7.9570920887464
  0
LINE
  8
trespa
  6
CONTINUOUS
 62
8
 10
4.6986148000573
 20
7.9651926067795
 11
4.703428377712
 21
7.9607561772437
  0
LINE
  8
trespa
  6
CONTINUOUS
 62
8
 10
4.6941595958744
 20
7.9702737493534
 11
4.6986148000573
 21
7.9651926067795
  0
LINE
  8
trespa
  6
CONTINUOUS
 62
8
 10
4.6901909332761
 20
7.9758534297446
 11
4.6941595958744
 21
7.9702737493534
  0
LINE
  8
trespa
  6
CONTINUOUS
 62
8
 10
4.6868229834595
 20
7.9817711307073
 11
4.6901909332761
 21
7.9758534297446
  0
LINE
  8
trespa
  6
CONTINUOUS
 62
8
 10
4.684152636209
 20
7.987856610759
 11
4.6868229834595
 21
7.9817711307073
  0
LINE
  8
trespa
  6
CONTINUOUS
 62
8
 10
4.6822567125531
 20
7.9939348017186
 11
4.684152636209
 21
7.987856610759
  0
LINE
  8
trespa
  6
CONTINUOUS
 62
8
 10
4.6811897547633
 20
7.9998308450986
 11
4.6822567125531
 21
7.9939348017186
  0
LINE
  8
trespa
  6
CONTINUOUS
 62
8
 10
4.6809824572728
 20
8.0053751224658
 11
4.6811897547633
 21
7.9998308450986
  0
LINE
  8
trespa
  6
CONTINUOUS
 62
8
 10
4.6816407836528
 20
8.010408135055
 11
4.6809824572728
 21
8.0053751224658
  0
LINE
  8
trespa
  6
CONTINUOUS
 62
8
 10
4.6831457950521
 20
8.0147850922574
 11
4.6816407836528
 21
8.010408135055
  0
LINE
  8
trespa
  6
CONTINUOUS
 62
8
 10
4.6854541950329
 20
8.0183800769834
 11
4.6831457950521
 21
8.0147850922574
  0
LINE
  8
trespa
  6
CONTINUOUS
 62
8
 10
4.6922047803694
 20
8.0228580900799
 11
4.6891594002717
 21
8.0201484989953
  0
LINE
  8
trespa
  6
CONTINUOUS
 62
8
 10
4.6958995305433
 20
8.0246043375207
 11
4.6922047803694
 21
8.0228580900799
  0
LINE
  8
trespa
  6
CONTINUOUS
 62
8
 10
4.7001373595579
 20
8.0253370049583
 11
4.6958995305433
 21
8.0246043375207
  0
LINE
  8
trespa
  6
CONTINUOUS
 62
8
 10
4.7047963527882
 20
8.0250350148845
 11
4.7001373595579
 21
8.0253370049583
  0
LINE
  8
trespa
  6
CONTINUOUS
 62
8
 10
4.7097424794817
 20
8.0237070550039
 11
4.7047963527882
 21
8.0250350148845
  0
LINE
  8
trespa
  6
CONTINUOUS
 62
8
 10
4.7148334485788
 20
8.0213913283044
 11
4.7097424794817
 21
8.0237070550039
  0
LINE
  8
trespa
  6
CONTINUOUS
 62
8
 10
4.7199228021676
 20
8.018154454027
 11
4.7148334485788
 21
8.0213913283044
  0
LINE
  8
trespa
  6
CONTINUOUS
 62
8
 10
4.7248641288115
 20
8.0140895511512
 11
4.7199228021676
 21
8.018154454027
  0
LINE
  8
trespa
  6
CONTINUOUS
 62
8
 10
4.7295152755397
 20
8.0093135595319
 11
4.7248641288115
 21
8.0140895511512
  0
LINE
  8
trespa
  6
CONTINUOUS
 62
8
 10
4.7337424373291
 20
8.0039638757522
 11
4.7295152755397
 21
8.0093135595319
  0
LINE
  8
trespa
  6
CONTINUOUS
 62
8
 10
4.7374240064313
 20
7.9981944004745
 11
4.7337424373291
 21
8.0039638757522
  0
LINE
  8
trespa
  6
CONTINUOUS
 62
8
 10
4.7404540708065
 20
7.9921711109979
 11
4.7374240064313
 21
7.9981944004745
  0
LINE
  8
trespa
  6
CONTINUOUS
 62
8
 10
4.7427454610192
 20
7.9860672863942
 11
4.7404540708065
 21
7.9921711109979
  0
LINE
  8
trespa
  6
CONTINUOUS
 62
8
 10
4.744232257945
 20
7.980058522584
 11
4.7427454610192
 21
7.9860672863942
  0
LINE
  8
trespa
  6
CONTINUOUS
 62
8
 10
4.7448716891434
 20
7.9743176807619
 11
4.744232257945
 21
7.980058522584
  0
LINE
  8
trespa
  6
CONTINUOUS
 62
8
 10
4.7446453593429
 20
7.9690099144949
 11
4.7448716891434
 21
7.9743176807619
  0
LINE
  8
trespa
  6
CONTINUOUS
 62
8
 10
4.7435597796399
 20
7.9642879185546
 11
4.7446453593429
 21
7.9690099144949
  0
LINE
  8
trespa
  6
CONTINUOUS
 62
8
 10
4.741646180186
 20
7.960287536167
 11
4.7435597796399
 21
7.9642879185546
  0
LINE
  8
trespa
  6
CONTINUOUS
 62
8
 10
4.7389596117532
 20
7.9571238510499
 11
4.741646180186
 21
7.960287536167
  0
LINE
  8
trespa
  6
CONTINUOUS
 62
8
 10
4.735577362024
 20
7.9548878766639
 11
4.7389596117532
 21
7.9571238510499
  0
LINE
  8
trespa
  6
CONTINUOUS
 62
8
 10
4.7315967321651
 20
7.9536439379211
 11
4.735577362024
 21
7.9548878766639
  0
LINE
  8
trespa
  6
CONTINUOUS
 62
8
 10
4.72713223765
 20
7.9534278206743
 11
4.7315967321651
 21
7.9536439379211
  0
LINE
  8
trespa
  6
CONTINUOUS
 62
8
 10
4.7223123138574
 20
7.9542457422233
 11
4.72713223765
 21
7.9534278206743
  0
LINE
  8
trespa
  6
CONTINUOUS
 62
8
 10
4.7172756212192
 20
7.9560741724542
 11
4.7223123138574
 21
7.9542457422233
  0
LINE
  8
trespa
  6
CONTINUOUS
 62
8
 10
4.7121670562123
 20
7.9588605107583
 11
4.7172756212192
 21
7.9560741724542
  0
LINE
  8
trespa
  6
CONTINUOUS
 62
8
 10
4.7071335829508
 20
7.9625245992557
 11
4.7121670562123
 21
7.9588605107583
  0
LINE
  8
trespa
  6
CONTINUOUS
 62
8
 10
4.7023200052961
 20
7.9669610287914
 11
4.7071335829508
 21
7.9625245992557
  0
LINE
  8
trespa
  6
CONTINUOUS
 62
8
 10
4.6978648011132
 20
7.9720421713653
 11
4.7023200052961
 21
7.9669610287914
  0
LINE
  8
trespa
  6
CONTINUOUS
 62
8
 10
4.6938961385149
 20
7.9776218517565
 11
4.6978648011132
 21
7.9720421713653
  0
LINE
  8
trespa
  6
CONTINUOUS
 62
8
 10
4.6905281886984
 20
7.9835395527192
 11
4.6938961385149
 21
7.9776218517565
  0
LINE
  8
trespa
  6
CONTINUOUS
 62
8
 10
4.6878578414479
 20
7.9896250327709
 11
4.6905281886984
 21
7.9835395527192
  0
LINE
  8
trespa
  6
CONTINUOUS
 62
8
 10
4.6859619177919
 20
7.9957032237305
 11
4.6878578414479
 21
7.9896250327709
  0
LINE
  8
trespa
  6
CONTINUOUS
 62
8
 10
4.6848949600022
 20
8.0015992671105
 11
4.6859619177919
 21
7.9957032237305
  0
LINE
  8
trespa
  6
CONTINUOUS
 62
8
 10
4.6846876625116
 20
8.0071435444777
 11
4.6848949600022
 21
8.0015992671105
  0
LINE
  8
trespa
  6
CONTINUOUS
 62
8
 10
4.6853459888917
 20
8.0121765570669
 11
4.6846876625116
 21
8.0071435444777
  0
LINE
  8
trespa
  6
CONTINUOUS
 62
8
 10
4.686851000291
 20
8.0165535142693
 11
4.6853459888917
 21
8.0121765570669
  0
LINE
  8
trespa
  6
CONTINUOUS
 62
8
 10
4.6891594002717
 20
8.0201484989953
 11
4.686851000291
 21
8.0165535142693
  0
LINE
  8
trespa
  6
CONTINUOUS
 62
8
 10
4.6141738135407
 20
8.5690994182815
 11
4.8140991571513
 21
8.4536724673301
  0
LINE
  8
trespa
  6
CONTINUOUS
 62
8
 10
4.6141738135407
 20
8.5690994182815
 11
4.866640530436
 21
8.7148611452424
  0
LINE
  8
trespa
  6
CONTINUOUS
 62
8
 10
4.8140991571513
 20
8.471856727777
 11
4.9053119834623
 21
8.5245184776013
  0
LINE
  8
trespa
  6
CONTINUOUS
 62
8
 10
4.866640530436
 20
8.6966768847955
 11
4.866640530436
 21
8.5021915037866
  0
LINE
  8
trespa
  6
CONTINUOUS
 62
8
 10
4.8157514497456
 20
8.4537775816394
 11
4.8157514497456
 21
8.1204561572892
  0
LINE
  8
trespa
  6
CONTINUOUS
 62
8
 10
4.6141738135407
 20
7.6131815706947
 11
4.6141738135407
 21
7.7816953138448
  0
LINE
  8
trespa
  6
CONTINUOUS
 62
8
 10
4.866640530436
 20
8.6966768847955
 11
5.0350698110544
 21
8.599434194291
  0
LINE
  8
trespa
  6
CONTINUOUS
 62
8
 10
4.9000866130719
 20
8.6955510404293
 11
5.0335437674115
 21
8.7726025644126
  0
LINE
  8
trespa
  6
CONTINUOUS
 62
8
 10
5.0335437674115
 20
8.7726025644126
 11
5.2979957954119
 21
8.6199211148588
  0
LINE
  8
trespa
  6
CONTINUOUS
 62
8
 10
5.2979957954119
 20
8.6199211148588
 11
4.9504194812417
 21
8.4111489884398
  0
LINE
  8
trespa
  6
CONTINUOUS
 62
8
 10
5.0335437674115
 20
8.7544183039656
 11
5.0335437674115
 21
8.618499516446
  0
LINE
  8
trespa
  6
CONTINUOUS
 62
8
 10
5.2979957954119
 20
8.6199211148588
 11
5.2979957954119
 21
7.8121105944982
  0
LINE
  8
trespa
  6
CONTINUOUS
 62
8
 10
4.9346714497456
 20
8.420060395645
 11
4.9346714497456
 21
8.0517976632772
  0
LINE
  8
trespa
  6
CONTINUOUS
 62
8
 10
4.3696871623494
 20
8.3779914936933
 11
5.2309394812417
 21
7.8807472355406
  0
LINE
  8
trespa
  6
CONTINUOUS
 62
8
 10
4.2668481122274
 20
8.3175989358468
 11
5.1272184668861
 21
7.8208638799818
  0
LINE
  8
trespa
  6
CONTINUOUS
 62
8
 10
5.1272184668861
 20
7.7855625147127
 11
4.2668481122274
 21
8.2822975705777
  0
LINE
  8
trespa
  6
CONTINUOUS
 62
8
 10
5.2512834182496
 20
7.5753020386431
 11
4.2668481122274
 21
8.1525645538434
  0
LINE
  8
trespa
  6
CONTINUOUS
 62
8
 10
5.1272184668861
 20
7.5673350098002
 11
4.2668481122274
 21
8.0640700656652
  0
LINE
  8
trespa
  6
CONTINUOUS
 62
8
 10
5.1272184668861
 20
7.4854888451295
 11
4.4036225784379
 21
7.9032571261096
  0
LINE
  8
trespa
  6
CONTINUOUS
 62
8
 10
5.2670314497456
 20
7.8124175816394
 11
5.2670314497456
 21
7.5662099084197
  0
LINE
  8
trespa
  6
CONTINUOUS
 62
8
 10
5.1272184668861
 20
7.4854888451295
 11
5.2670314497456
 21
7.5662099084197
  0
LINE
  8
trespa
  6
CONTINUOUS
 62
8
 10
5.1272184668861
 20
7.8208638799818
 11
5.2309394812417
 21
7.8807472355406
  0
LINE
  8
trespa
  6
CONTINUOUS
 62
8
 10
5.1272184668861
 20
7.8208638799818
 11
5.1272184668861
 21
7.7855625147127
  0
LINE
  8
trespa
  6
CONTINUOUS
 62
8
 10
4.8157514497456
 20
7.6653144113192
 11
4.8157514497456
 21
7.4968006681692
  0
LINE
  8
trespa
  6
CONTINUOUS
 62
8
 10
4.0984271347345
 20
8.4158552371148
 11
4.2285656287465
 21
8.4909907316646
  0
LINE
  8
trespa
  6
CONTINUOUS
 62
8
 10
4.2550370886053
 20
8.3254364380897
 11
4.0984271347345
 21
8.4158552371148
  0
LINE
  8
trespa
  6
CONTINUOUS
 62
8
 10
4.3851755826173
 20
8.4005719326395
 11
4.2285656287465
 21
8.4909907316646
  0
LINE
  8
trespa
  6
CONTINUOUS
 62
8
 10
4.9053119834623
 20
8.5245184776013
 11
4.8895639519663
 21
8.5336106078247
  0
LINE
  8
trespa
  6
CONTINUOUS
 62
8
 10
4.7580437501242
 20
8.6159083229185
 11
4.75263073434
 21
8.6126690378823
  0
LINE
  8
trespa
  6
CONTINUOUS
 62
8
 10
4.7368827028439
 20
8.6217611681057
 11
4.7368827028439
 21
8.5164376684573
  0
LINE
  8
trespa
  6
CONTINUOUS
 62
8
 10
5.2151914497456
 20
7.8534708448703
 11
5.2151914497456
 21
7.7643034832377
  0
LINE
  8
trespa
  6
CONTINUOUS
 62
8
 10
5.0078714497456
 20
8.4456575816394
 11
5.0078714497456
 21
8.0095356235725
  0
LINE
  8
trespa
  6
CONTINUOUS
 62
8
 10
4.7602409178298
 20
7.9832260303125
 11
4.7386966265256
 21
7.9956646326964
  0
LINE
  8
trespa
  6
CONTINUOUS
 62
8
 10
4.7602409178298
 20
7.9471194139599
 11
4.7402601268688
 21
7.9586553289999
  0
LINE
  8
trespa
  6
CONTINUOUS
 62
8
 10
5.1429664983822
 20
7.8060025783496
 11
5.2151914497456
 21
7.7643034832377
  0
LINE
  8
trespa
  6
CONTINUOUS
 62
8
 10
4.2418013586759
 20
8.4082135848771
 11
4.2418013586759
 21
8.4361494380871
  0
LINE
  8
trespa
  6
CONTINUOUS
 62
8
 10
5.2669646441017
 20
8.6196526979741
 11
4.9346714497456
 21
8.420060395645
  0
LINE
  8
trespa
  6
CONTINUOUS
 62
8
 10
5.0335437674115
 20
8.7544183039656
 11
5.2669646441017
 21
8.6196526979741
  0
LINE
  8
trespa
  6
CONTINUOUS
 62
8
 10
4.9158346445679
 20
8.6864589102058
 11
5.0335437674115
 21
8.7544183039656
  0
LINE
  8
trespa
  6
CONTINUOUS
 62
8
 10
4.866640530436
 20
8.7148611452424
 11
5.0665658740466
 21
8.599434194291
  0
LINE
  8
trespa
  6
CONTINUOUS
 62
8
 10
4.8140991571513
 20
8.4536724673301
 11
5.0665658740466
 21
8.599434194291
  0
LINE
  8
trespa
  6
CONTINUOUS
 62
8
 10
4.6456698765328
 20
8.5690994182815
 11
4.7368827028439
 21
8.6217611681057
  0
LINE
  8
trespa
  6
CONTINUOUS
 62
8
 10
4.6456698765328
 20
8.5690994182815
 11
4.8140991571513
 21
8.471856727777
  0
LINE
  8
trespa
  6
CONTINUOUS
 62
8
 10
5.0665658740466
 20
8.599434194291
 11
5.0665658740465
 21
8.4992829384407
  0
LINE
  8
trespa
  6
CONTINUOUS
 62
8
 10
4.75263073434
 20
8.6126690378823
 11
4.75263073434
 21
8.5073455382338
  0
LINE
  8
trespa
  6
CONTINUOUS
 62
8
 10
4.910823794486
 20
8.5277007231795
 11
4.8950757629899
 21
8.5367928534029
  0
LINE
  8
trespa
  6
CONTINUOUS
 62
8
 10
4.8895639519663
 20
8.5336106078247
 11
4.8950757629899
 21
8.5367928534029
  0
LINE
  8
trespa
  6
CONTINUOUS
 62
8
 10
4.8895639519663
 20
8.5336106078247
 11
4.8895639519663
 21
8.5154263473778
  0
LINE
  8
trespa
  6
CONTINUOUS
 62
8
 10
4.75263073434
 20
8.6126690378823
 11
4.7368827028439
 21
8.6217611681057
  0
LINE
  8
trespa
  6
CONTINUOUS
 62
8
 10
4.7580437501242
 20
8.6159083229185
 11
4.7580437501242
 21
8.5042203321136
  0
LINE
  8
trespa
  6
CONTINUOUS
 62
8
 10
4.7580437501242
 20
8.6159083229185
 11
4.7423945138675
 21
8.6249434136839
  0
LINE
  8
trespa
  6
CONTINUOUS
 62
8
 10
4.7423945138675
 20
8.6249434136839
 11
4.866640530436
 21
8.6966768847955
  0
LINE
  8
trespa
  6
CONTINUOUS
 62
8
 10
4.910823794486
 20
8.5277007231795
 11
5.0350698110544
 21
8.599434194291
  0
LINE
  8
trespa
  6
CONTINUOUS
 62
8
 10
4.9504194812417
 20
8.4111489884398
 11
4.9504194812417
 21
8.0427055330537
  0
LINE
  8
trespa
  6
CONTINUOUS
 62
8
 10
4.9346714497456
 20
8.420060395645
 11
4.9504194812417
 21
8.4111489884398
  0
LINE
  8
trespa
  6
CONTINUOUS
 62
8
 10
5.2512834182496
 20
7.7851411909691
 11
5.2512834182496
 21
7.5753020386431
  0
LINE
  8
trespa
  6
CONTINUOUS
 62
8
 10
5.1429664983822
 20
7.5127652357999
 11
5.2512834182496
 21
7.5753020386431
  0
LINE
  8
trespa
  6
CONTINUOUS
 62
8
 10
5.1429664983822
 20
7.8117717497584
 11
5.2151914497456
 21
7.8534708448703
  0
LINE
  8
trespa
  6
CONTINUOUS
 62
8
 10
5.1429664983822
 20
7.5764261490129
 11
4.2668481122274
 21
8.0822533351013
  0
LINE
  8
trespa
  6
CONTINUOUS
 62
8
 10
5.1429664983822
 20
7.8117717497584
 11
5.1429664983822
 21
7.7946536539254
  0
LINE
  8
trespa
  6
CONTINUOUS
 62
8
 10
5.1272184668861
 20
7.5673350098002
 11
5.1429664983822
 21
7.5764261490129
  0
LINE
  8
trespa
  6
CONTINUOUS
 62
8
 10
5.1272184668861
 20
7.7855625147127
 11
5.1429664983822
 21
7.7946536539254
  0
LINE
  8
trespa
  6
CONTINUOUS
 62
8
 10
5.2309394812417
 20
7.8807472355406
 11
5.2309394812417
 21
7.7915798739081
  0
LINE
  8
trespa
  6
CONTINUOUS
 62
8
 10
5.2309394812417
 20
7.7915798739081
 11
5.2670314497456
 21
7.8124175816394
  0
LINE
  8
trespa
  6
CONTINUOUS
 62
8
 10
5.2151914497456
 20
7.7643034832377
 11
5.2512834182496
 21
7.7851411909691
  0
LINE
  8
trespa
  6
CONTINUOUS
 62
8
 10
5.1272184668861
 20
7.5673350098002
 11
5.1272184668861
 21
7.4854888451295
  0
LINE
  8
trespa
  6
CONTINUOUS
 62
8
 10
5.1429664983822
 20
7.5764261490129
 11
5.1429664983822
 21
7.5127652357999
  0
LINE
  8
trespa
  6
CONTINUOUS
 62
8
 10
4.7602409178298
 20
7.9832260303125
 11
4.7602409178298
 21
7.9471194139599
  0
LINE
  8
trespa
  6
CONTINUOUS
 62
8
 10
4.6696843454565
 20
8.0355088917491
 11
4.6696843454565
 21
7.9994022753965
  0
LINE
  8
trespa
  6
CONTINUOUS
 62
8
 10
5.0180314497456
 20
7.8343905973163
 11
5.0180314497456
 21
7.7982839809638
  0
LINE
  8
trespa
  6
CONTINUOUS
 62
8
 10
5.1085880221189
 20
7.7821077358797
 11
5.0180314497456
 21
7.8343905973163
  0
LINE
  8
trespa
  6
CONTINUOUS
 62
8
 10
5.1085880221189
 20
7.7460011195272
 11
5.0180314497456
 21
7.7982839809638
  0
LINE
  8
trespa
  6
CONTINUOUS
 62
8
 10
5.1085880221189
 20
7.7821077358797
 11
5.1085880221189
 21
7.7460011195272
  0
LINE
  8
trespa
  6
CONTINUOUS
 62
8
 10
4.2550370886053
 20
8.3254364380897
 11
4.3851755826173
 21
8.4005719326395
  0
LINE
  8
trespa
  6
CONTINUOUS
 62
8
 10
4.2668481122274
 20
8.3186173404221
 11
4.3733645589953
 21
8.3801146396367
  0
LINE
  8
trespa
  6
CONTINUOUS
 62
8
 10
4.3851755826173
 20
8.4005719326395
 11
4.3851755826173
 21
8.3690492500823
  0
LINE
  8
trespa
  6
CONTINUOUS
 62
8
 10
4.3733645589953
 20
8.3801146396367
 11
4.3733645589953
 21
8.3758683477499
  0
LINE
  8
trespa
  6
CONTINUOUS
 62
8
 10
4.2550370886053
 20
8.3254364380897
 11
4.2550370886053
 21
8.0163278856622
  0
LINE
  8
trespa
  6
CONTINUOUS
 62
8
 10
4.2668481122274
 20
8.3186173404221
 11
4.2668481122274
 21
8.0231469833298
  0
LINE
  8
trespa
  6
CONTINUOUS
 62
8
 10
4.0984271347345
 20
8.4158552371148
 11
4.0984271347345
 21
8.2223404459401
  0
LINE
  8
trespa
  6
CONTINUOUS
 62
8
 10
4.2012661848566
 20
8.475229390386
 11
3.9858059563057
 21
8.5996254113394
  0
LINE
  8
trespa
  6
CONTINUOUS
 62
8
 10
4.097545170501
 20
8.4153460348272
 11
4.0136577025836
 21
8.4637784870109
  0
LINE
  8
trespa
  6
CONTINUOUS
 62
8
 10
4.1353005307847
 20
8.1153305551516
 11
4.1724649112402
 21
8.0640009544915
  0
LINE
  8
trespa
  6
CONTINUOUS
 62
8
 10
4.1724649112402
 20
8.0640009544915
 11
4.4036225784379
 21
7.8666126293393
  0
LINE
  8
trespa
  6
CONTINUOUS
 62
8
 10
4.2169667118436
 20
8.4534781131201
 11
4.2168277471795
 21
8.4524429727325
  0
LINE
  8
trespa
  6
CONTINUOUS
 62
8
 10
4.2168277471795
 20
8.4524429727325
 11
4.2172007500714
 21
8.4499376789925
  0
LINE
  8
trespa
  6
CONTINUOUS
 62
8
 10
4.2172007500714
 20
8.4499376789925
 11
4.2182826746933
 21
8.4475813375748
  0
LINE
  8
trespa
  6
CONTINUOUS
 62
8
 10
4.2182826746933
 20
8.4475813375748
 11
4.2200423960439
 21
8.445441736132
  0
LINE
  8
trespa
  6
CONTINUOUS
 62
8
 10
4.2200423960439
 20
8.445441736132
 11
4.2224292901437
 21
8.443580427102
  0
LINE
  8
trespa
  6
CONTINUOUS
 62
8
 10
4.2224292901437
 20
8.443580427102
 11
4.2253746903954
 21
8.4420509569567
  0
LINE
  8
trespa
  6
CONTINUOUS
 62
8
 10
4.2253746903954
 20
8.4420509569567
 11
4.2287938629963
 21
8.4408973257675
  0
LINE
  8
trespa
  6
CONTINUOUS
 62
8
 10
4.2287938629963
 20
8.4408973257675
 11
4.232588444576
 21
8.4401527214033
  0
LINE
  8
trespa
  6
CONTINUOUS
 62
8
 10
4.232588444576
 20
8.4401527214033
 11
4.2366492719313
 21
8.4398385647759
  0
LINE
  8
trespa
  6
CONTINUOUS
 62
8
 10
4.2366492719313
 20
8.4398385647759
 11
4.2408595224526
 21
8.4399638935996
  0
LINE
  8
trespa
  6
CONTINUOUS
 62
8
 10
4.2408595224526
 20
8.4399638935996
 11
4.245098074898
 21
8.4405251023922
  0
LINE
  8
trespa
  6
CONTINUOUS
 62
8
 10
4.245098074898
 20
8.4405251023922
 11
4.2492429938308
 21
8.4415060461986
  0
LINE
  8
trespa
  6
CONTINUOUS
 62
8
 10
4.2492429938308
 20
8.4415060461986
 11
4.25317503748
 21
8.4428785050515
  0
LINE
  8
trespa
  6
CONTINUOUS
 62
8
 10
4.25317503748
 20
8.4428785050515
 11
4.2567810881088
 21
8.4446029958085
  0
LINE
  8
trespa
  6
CONTINUOUS
 62
8
 10
4.2567810881088
 20
8.4446029958085
 11
4.2599574062061
 21
8.4466299080103
  0
LINE
  8
trespa
  6
CONTINUOUS
 62
8
 10
4.2599574062061
 20
8.4466299080103
 11
4.2626126148833
 21
8.4489009310832
  0
LINE
  8
trespa
  6
CONTINUOUS
 62
8
 10
4.2626126148833
 20
8.4489009310832
 11
4.2646703286212
 21
8.4513507318284
  0
LINE
  8
trespa
  6
CONTINUOUS
 62
8
 10
4.2646703286212
 20
8.4513507318284
 11
4.2660713507421
 21
8.4539088339386
  0
LINE
  8
trespa
  6
CONTINUOUS
 62
8
 10
4.2660713507421
 20
8.4539088339386
 11
4.2667753763902
 21
8.4565016454737
  0
LINE
  8
trespa
  6
CONTINUOUS
 62
8
 10
4.2667753763902
 20
8.4565016454737
 11
4.2667621520295
 21
8.4590545759666
  0
LINE
  8
trespa
  6
CONTINUOUS
 62
8
 10
4.2660320581009
 20
8.465431190129
 11
4.2646060980773
 21
8.4676872891819
  0
LINE
  8
trespa
  6
CONTINUOUS
 62
8
 10
4.2646060980773
 20
8.4676872891819
 11
4.2625252942324
 21
8.4696949771372
  0
LINE
  8
trespa
  6
CONTINUOUS
 62
8
 10
4.2625252942324
 20
8.4696949771372
 11
4.2598495075043
 21
8.4713964964677
  0
LINE
  8
trespa
  6
CONTINUOUS
 62
8
 10
4.2598495075043
 20
8.4713964964677
 11
4.2566557154054
 21
8.4727428975604
  0
LINE
  8
trespa
  6
CONTINUOUS
 62
8
 10
4.2566557154054
 20
8.4727428975604
 11
4.2530357975194
 21
8.473695446907
  0
LINE
  8
trespa
  6
CONTINUOUS
 62
8
 10
4.2530357975194
 20
8.473695446907
 11
4.2490938922932
 21
8.4742267413973
  0
LINE
  8
trespa
  6
CONTINUOUS
 62
8
 10
4.2490938922932
 20
8.4742267413973
 11
4.2449434011631
 21
8.4743214966561
  0
LINE
  8
trespa
  6
CONTINUOUS
 62
8
 10
4.2449434011631
 20
8.4743214966561
 11
4.2407037262021
 21
8.473976986747
  0
LINE
  8
trespa
  6
CONTINUOUS
 62
8
 10
4.2407037262021
 20
8.473976986747
 11
4.2364968351397
 21
8.4732031225931
  0
LINE
  8
trespa
  6
CONTINUOUS
 62
8
 10
4.2364968351397
 20
8.4732031225931
 11
4.2324437525723
 21
8.4720221668568
  0
LINE
  8
trespa
  6
CONTINUOUS
 62
8
 10
4.2324437525723
 20
8.4720221668568
 11
4.228661078306
 21
8.4704680934848
  0
LINE
  8
trespa
  6
CONTINUOUS
 62
8
 10
4.228661078306
 20
8.4704680934848
 11
4.2252576329922
 21
8.4685856103383
  0
LINE
  8
trespa
  6
CONTINUOUS
 62
8
 10
4.2252576329922
 20
8.4685856103383
 11
4.2223313275561
 21
8.46642887303
  0
LINE
  8
trespa
  6
CONTINUOUS
 62
8
 10
4.2223313275561
 20
8.46642887303
 11
4.219966346477
 21
8.4640599269656
  0
LINE
  8
trespa
  6
CONTINUOUS
 62
8
 10
4.219966346477
 20
8.4640599269656
 11
4.2182307259549
 21
8.4615469224103
  0
LINE
  8
trespa
  6
CONTINUOUS
 62
8
 10
4.2182307259549
 20
8.4615469224103
 11
4.2171743966319
 21
8.4589621539295
  0
LINE
  8
trespa
  6
CONTINUOUS
 62
8
 10
4.2171743966319
 20
8.4589621539295
 11
4.2168277471795
 21
8.4563799806065
  0
LINE
  8
trespa
  6
CONTINUOUS
 62
8
 10
4.2168277471795
 20
8.4563799806065
 11
4.2172007500714
 21
8.4538746868665
  0
LINE
  8
trespa
  6
CONTINUOUS
 62
8
 10
4.2172007500714
 20
8.4538746868665
 11
4.2182826746933
 21
8.4515183454488
  0
LINE
  8
trespa
  6
CONTINUOUS
 62
8
 10
4.2182826746933
 20
8.4515183454488
 11
4.2200423960439
 21
8.449378744006
  0
LINE
  8
trespa
  6
CONTINUOUS
 62
8
 10
4.2200423960439
 20
8.449378744006
 11
4.2224292901437
 21
8.447517434976
  0
LINE
  8
trespa
  6
CONTINUOUS
 62
8
 10
4.2224292901437
 20
8.447517434976
 11
4.2253746903954
 21
8.4459879648307
  0
LINE
  8
trespa
  6
CONTINUOUS
 62
8
 10
4.2253746903954
 20
8.4459879648307
 11
4.2287938629963
 21
8.4448343336415
  0
LINE
  8
trespa
  6
CONTINUOUS
 62
8
 10
4.2287938629963
 20
8.4448343336415
 11
4.232588444576
 21
8.4440897292773
  0
LINE
  8
trespa
  6
CONTINUOUS
 62
8
 10
4.232588444576
 20
8.4440897292773
 11
4.2366492719313
 21
8.4437755726499
  0
LINE
  8
trespa
  6
CONTINUOUS
 62
8
 10
4.2366492719313
 20
8.4437755726499
 11
4.2408595224526
 21
8.4439009014736
  0
LINE
  8
trespa
  6
CONTINUOUS
 62
8
 10
4.2408595224526
 20
8.4439009014736
 11
4.245098074898
 21
8.4444621102662
  0
LINE
  8
trespa
  6
CONTINUOUS
 62
8
 10
4.245098074898
 20
8.4444621102662
 11
4.2492429938308
 21
8.4454430540726
  0
LINE
  8
trespa
  6
CONTINUOUS
 62
8
 10
4.2492429938308
 20
8.4454430540726
 11
4.25317503748
 21
8.4468155129255
  0
LINE
  8
trespa
  6
CONTINUOUS
 62
8
 10
4.25317503748
 20
8.4468155129255
 11
4.2567810881088
 21
8.4485400036825
  0
LINE
  8
trespa
  6
CONTINUOUS
 62
8
 10
4.2567810881088
 20
8.4485400036825
 11
4.2599574062061
 21
8.4505669158843
  0
LINE
  8
trespa
  6
CONTINUOUS
 62
8
 10
4.2599574062061
 20
8.4505669158843
 11
4.2626126148833
 21
8.4528379389572
  0
LINE
  8
trespa
  6
CONTINUOUS
 62
8
 10
4.2626126148833
 20
8.4528379389572
 11
4.2646703286212
 21
8.4552877397024
  0
LINE
  8
trespa
  6
CONTINUOUS
 62
8
 10
4.2646703286212
 20
8.4552877397024
 11
4.2660713507421
 21
8.4578458418126
  0
LINE
  8
trespa
  6
CONTINUOUS
 62
8
 10
4.2660713507421
 20
8.4578458418126
 11
4.2667753763902
 21
8.4604386533477
  0
LINE
  8
trespa
  6
CONTINUOUS
 62
8
 10
4.2667753763902
 20
8.4604386533477
 11
4.2667621520295
 21
8.4629915838406
  0
LINE
  8
trespa
  6
CONTINUOUS
 62
8
 10
4.2667621520295
 20
8.4629915838406
 11
4.2660320581009
 21
8.465431190129
  0
LINE
  8
trespa
  6
CONTINUOUS
 62
8
 10
4.2169667118436
 20
8.4495411052461
 11
4.2168277471795
 21
8.4485059648585
  0
LINE
  8
trespa
  6
CONTINUOUS
 62
8
 10
4.2168277471795
 20
8.4485059648585
 11
4.2172007500714
 21
8.4460006711184
  0
LINE
  8
trespa
  6
CONTINUOUS
 62
8
 10
4.2172007500714
 20
8.4460006711184
 11
4.2182826746933
 21
8.4436443297008
  0
LINE
  8
trespa
  6
CONTINUOUS
 62
8
 10
4.2182826746933
 20
8.4436443297008
 11
4.2200423960439
 21
8.441504728258
  0
LINE
  8
trespa
  6
CONTINUOUS
 62
8
 10
4.2200423960439
 20
8.441504728258
 11
4.2224292901437
 21
8.439643419228
  0
LINE
  8
trespa
  6
CONTINUOUS
 62
8
 10
4.2224292901437
 20
8.439643419228
 11
4.2253746903954
 21
8.4381139490827
  0
LINE
  8
trespa
  6
CONTINUOUS
 62
8
 10
4.2253746903954
 20
8.4381139490827
 11
4.2287938629963
 21
8.4369603178935
  0
LINE
  8
trespa
  6
CONTINUOUS
 62
8
 10
4.2287938629963
 20
8.4369603178935
 11
4.232588444576
 21
8.4362157135293
  0
LINE
  8
trespa
  6
CONTINUOUS
 62
8
 10
4.232588444576
 20
8.4362157135293
 11
4.2366492719313
 21
8.4359015569019
  0
LINE
  8
trespa
  6
CONTINUOUS
 62
8
 10
4.2366492719313
 20
8.4359015569019
 11
4.2408595224526
 21
8.4360268857255
  0
LINE
  8
trespa
  6
CONTINUOUS
 62
8
 10
4.2408595224526
 20
8.4360268857255
 11
4.245098074898
 21
8.4365880945182
  0
LINE
  8
trespa
  6
CONTINUOUS
 62
8
 10
4.245098074898
 20
8.4365880945182
 11
4.2492429938308
 21
8.4375690383246
  0
LINE
  8
trespa
  6
CONTINUOUS
 62
8
 10
4.2492429938308
 20
8.4375690383246
 11
4.25317503748
 21
8.4389414971775
  0
LINE
  8
trespa
  6
CONTINUOUS
 62
8
 10
4.25317503748
 20
8.4389414971775
 11
4.2567810881088
 21
8.4406659879345
  0
LINE
  8
trespa
  6
CONTINUOUS
 62
8
 10
4.2567810881088
 20
8.4406659879345
 11
4.2599574062061
 21
8.4426929001363
  0
LINE
  8
trespa
  6
CONTINUOUS
 62
8
 10
4.2599574062061
 20
8.4426929001363
 11
4.2626126148833
 21
8.4449639232092
  0
LINE
  8
trespa
  6
CONTINUOUS
 62
8
 10
4.2626126148833
 20
8.4449639232092
 11
4.2646703286212
 21
8.4474137239543
  0
LINE
  8
trespa
  6
CONTINUOUS
 62
8
 10
4.2646703286212
 20
8.4474137239543
 11
4.2660713507421
 21
8.4499718260646
  0
LINE
  8
trespa
  6
CONTINUOUS
 62
8
 10
4.2660713507421
 20
8.4499718260646
 11
4.2667753763902
 21
8.4525646375997
  0
LINE
  8
trespa
  6
CONTINUOUS
 62
8
 10
4.2667753763902
 20
8.4525646375997
 11
4.2667621520295
 21
8.4551175680926
  0
LINE
  8
trespa
  6
CONTINUOUS
 62
8
 10
4.2169667118436
 20
8.4515096091831
 11
4.2168277471795
 21
8.4504744687955
  0
LINE
  8
trespa
  6
CONTINUOUS
 62
8
 10
4.2168277471795
 20
8.4504744687955
 11
4.2172007500714
 21
8.4479691750554
  0
LINE
  8
trespa
  6
CONTINUOUS
 62
8
 10
4.2172007500714
 20
8.4479691750554
 11
4.2182826746933
 21
8.4456128336378
  0
LINE
  8
trespa
  6
CONTINUOUS
 62
8
 10
4.2182826746933
 20
8.4456128336378
 11
4.2200423960439
 21
8.443473232195
  0
LINE
  8
trespa
  6
CONTINUOUS
 62
8
 10
4.2200423960439
 20
8.443473232195
 11
4.2224292901437
 21
8.441611923165
  0
LINE
  8
trespa
  6
CONTINUOUS
 62
8
 10
4.2224292901437
 20
8.441611923165
 11
4.2253746903954
 21
8.4400824530197
  0
LINE
  8
trespa
  6
CONTINUOUS
 62
8
 10
4.2253746903954
 20
8.4400824530197
 11
4.2287938629963
 21
8.4389288218305
  0
LINE
  8
trespa
  6
CONTINUOUS
 62
8
 10
4.2287938629963
 20
8.4389288218305
 11
4.232588444576
 21
8.4381842174663
  0
LINE
  8
trespa
  6
CONTINUOUS
 62
8
 10
4.232588444576
 20
8.4381842174663
 11
4.2366492719313
 21
8.4378700608389
  0
LINE
  8
trespa
  6
CONTINUOUS
 62
8
 10
4.2366492719313
 20
8.4378700608389
 11
4.2408595224526
 21
8.4379953896626
  0
LINE
  8
trespa
  6
CONTINUOUS
 62
8
 10
4.2408595224526
 20
8.4379953896626
 11
4.245098074898
 21
8.4385565984552
  0
LINE
  8
trespa
  6
CONTINUOUS
 62
8
 10
4.245098074898
 20
8.4385565984552
 11
4.2492429938308
 21
8.4395375422616
  0
LINE
  8
trespa
  6
CONTINUOUS
 62
8
 10
4.2492429938308
 20
8.4395375422616
 11
4.25317503748
 21
8.4409100011145
  0
LINE
  8
trespa
  6
CONTINUOUS
 62
8
 10
4.25317503748
 20
8.4409100011145
 11
4.2567810881088
 21
8.4426344918715
  0
LINE
  8
trespa
  6
CONTINUOUS
 62
8
 10
4.2567810881088
 20
8.4426344918715
 11
4.2599574062061
 21
8.4446614040733
  0
LINE
  8
trespa
  6
CONTINUOUS
 62
8
 10
4.2599574062061
 20
8.4446614040733
 11
4.2626126148833
 21
8.4469324271462
  0
LINE
  8
trespa
  6
CONTINUOUS
 62
8
 10
4.2626126148833
 20
8.4469324271462
 11
4.2646703286212
 21
8.4493822278914
  0
LINE
  8
trespa
  6
CONTINUOUS
 62
8
 10
4.2646703286212
 20
8.4493822278914
 11
4.2660713507421
 21
8.4519403300016
  0
LINE
  8
trespa
  6
CONTINUOUS
 62
8
 10
4.2660713507421
 20
8.4519403300016
 11
4.2667753763902
 21
8.4545331415367
  0
LINE
  8
trespa
  6
CONTINUOUS
 62
8
 10
4.2667753763902
 20
8.4545331415367
 11
4.2667621520295
 21
8.4570860720296
  0
LINE
  8
trespa
  6
CONTINUOUS
 62
8
 10
4.2168277471795
 20
8.4544114766695
 11
4.2172007500714
 21
8.4519061829295
  0
LINE
  8
trespa
  6
CONTINUOUS
 62
8
 10
4.2172007500714
 20
8.4519061829295
 11
4.2182826746933
 21
8.4495498415118
  0
LINE
  8
trespa
  6
CONTINUOUS
 62
8
 10
4.2182826746933
 20
8.4495498415118
 11
4.2200423960439
 21
8.447410240069
  0
LINE
  8
trespa
  6
CONTINUOUS
 62
8
 10
4.2200423960439
 20
8.447410240069
 11
4.2224292901437
 21
8.445548931039
  0
LINE
  8
trespa
  6
CONTINUOUS
 62
8
 10
4.2224292901437
 20
8.445548931039
 11
4.2253746903954
 21
8.4440194608937
  0
LINE
  8
trespa
  6
CONTINUOUS
 62
8
 10
4.2253746903954
 20
8.4440194608937
 11
4.2287938629963
 21
8.4428658297045
  0
LINE
  8
trespa
  6
CONTINUOUS
 62
8
 10
4.2287938629963
 20
8.4428658297045
 11
4.232588444576
 21
8.4421212253403
  0
LINE
  8
trespa
  6
CONTINUOUS
 62
8
 10
4.232588444576
 20
8.4421212253403
 11
4.2366492719313
 21
8.4418070687129
  0
LINE
  8
trespa
  6
CONTINUOUS
 62
8
 10
4.2366492719313
 20
8.4418070687129
 11
4.2408595224526
 21
8.4419323975366
  0
LINE
  8
trespa
  6
CONTINUOUS
 62
8
 10
4.2408595224526
 20
8.4419323975366
 11
4.245098074898
 21
8.4424936063292
  0
LINE
  8
trespa
  6
CONTINUOUS
 62
8
 10
4.245098074898
 20
8.4424936063292
 11
4.2492429938308
 21
8.4434745501356
  0
LINE
  8
trespa
  6
CONTINUOUS
 62
8
 10
4.2492429938308
 20
8.4434745501356
 11
4.25317503748
 21
8.4448470089885
  0
LINE
  8
trespa
  6
CONTINUOUS
 62
8
 10
4.25317503748
 20
8.4448470089885
 11
4.2567810881088
 21
8.4465714997455
  0
LINE
  8
trespa
  6
CONTINUOUS
 62
8
 10
4.2567810881088
 20
8.4465714997455
 11
4.2599574062061
 21
8.4485984119473
  0
LINE
  8
trespa
  6
CONTINUOUS
 62
8
 10
4.2599574062061
 20
8.4485984119473
 11
4.2626126148833
 21
8.4508694350202
  0
LINE
  8
trespa
  6
CONTINUOUS
 62
8
 10
4.2626126148833
 20
8.4508694350202
 11
4.2646703286212
 21
8.4533192357654
  0
LINE
  8
trespa
  6
CONTINUOUS
 62
8
 10
4.2646703286212
 20
8.4533192357654
 11
4.2660713507421
 21
8.4558773378756
  0
LINE
  8
trespa
  6
CONTINUOUS
 62
8
 10
4.2660713507421
 20
8.4558773378756
 11
4.2667753763902
 21
8.4584701494107
  0
LINE
  8
trespa
  6
CONTINUOUS
 62
8
 10
4.2667753763902
 20
8.4584701494107
 11
4.2667621520295
 21
8.4610230799036
  0
LINE
  8
trespa
  6
CONTINUOUS
 62
8
 10
4.2169667118436
 20
8.4554466170571
 11
4.2168277471795
 21
8.4544114766695
  0
LINE
  8
trespa
  6
CONTINUOUS
 62
8
 10
4.2437698626129
 20
8.4082135848771
 11
4.2437698626129
 21
8.4364122315502
  0
LINE
  8
trespa
  6
CONTINUOUS
 62
8
 10
4.2457383665499
 20
8.4082135848771
 11
4.2457383665499
 21
8.4367396270669
  0
LINE
  8
trespa
  6
CONTINUOUS
 62
8
 10
4.2398328547389
 20
8.4082135848771
 11
4.2398328547389
 21
8.4359963243477
  0
LINE
  8
trespa
  6
CONTINUOUS
 62
8
 10
4.2378643508019
 20
8.4082135848771
 11
4.2378643508019
 21
8.4359377268174
  0
LINE
  8
trespa
  6
CONTINUOUS
 62
8
 10
3.7644222033407
 20
7.2317073214077
 11
3.7644222033407
 21
8.806510471014
  0
LINE
  8
trespa
  6
CONTINUOUS
 62
8
 10
3.7644222033407
 20
8.806510471014
 11
5.339225352947
 21
8.806510471014
  0
LINE
  8
trespa
  6
CONTINUOUS
 62
8
 10
5.339225352947
 20
8.806510471014
 11
5.339225352947
 21
7.2317073214077
  0
LINE
  8
trespa
  6
CONTINUOUS
 62
8
 10
5.339225352947
 20
7.2317073214077
 11
3.7644222033407
 21
7.2317073214077
  0
LINE
  8
trespa
  6
CONTINUOUS
 62
8
 10
4.3594358732573
 20
7.2317073214077
 11
4.3594358732573
 21
7.6649908900293
  0
LINE
  8
trespa
  6
CONTINUOUS
 62
8
 10
5.2670314497456
 20
7.7942333211925
 11
5.2979957954119
 21
7.8121105944982
  0
LINE
  8
trespa
  6
CONTINUOUS
 62
8
 10
5.2309394812417
 20
7.8332552893708
 11
5.2670314497456
 21
7.8124175816394
  0
LINE
  8
trespa
  6
CONTINUOUS
 62
8
 10
4.6829381408348
 20
7.9917501930671
 11
4.6696843454565
 21
7.9994022753965
  0
LINE
  8
trespa
  6
CONTINUOUS
 62
8
 10
4.691886541541
 20
8.0226904478631
 11
4.6696843454565
 21
8.0355088917491
  0
LINE
  8
trespa
  6
CONTINUOUS
 62
8
 10
4.159163616466
 20
8.251511600169
 11
4.1549257874514
 21
8.2507789327314
  0
LINE
  8
trespa
  6
CONTINUOUS
 62
8
 10
4.1638226096964
 20
8.2512096100952
 11
4.159163616466
 21
8.251511600169
  0
LINE
  8
trespa
  6
CONTINUOUS
 62
8
 10
4.1687687363899
 20
8.2498816502146
 11
4.1638226096964
 21
8.2512096100952
  0
LINE
  8
trespa
  6
CONTINUOUS
 62
8
 10
4.1738597054869
 20
8.2475659235152
 11
4.1687687363899
 21
8.2498816502146
  0
LINE
  8
trespa
  6
CONTINUOUS
 62
8
 10
4.1789490590757
 20
8.2443290492377
 11
4.1738597054869
 21
8.2475659235152
  0
LINE
  8
trespa
  6
CONTINUOUS
 62
8
 10
4.1838903857196
 20
8.240264146362
 11
4.1789490590757
 21
8.2443290492377
  0
LINE
  8
trespa
  6
CONTINUOUS
 62
8
 10
4.1885415324478
 20
8.2354881547426
 11
4.1838903857196
 21
8.240264146362
  0
LINE
  8
trespa
  6
CONTINUOUS
 62
8
 10
4.1927686942372
 20
8.230138470963
 11
4.1885415324478
 21
8.2354881547426
  0
LINE
  8
trespa
  6
CONTINUOUS
 62
8
 10
4.1964502633395
 20
8.2243689956852
 11
4.1927686942372
 21
8.230138470963
  0
LINE
  8
trespa
  6
CONTINUOUS
 62
8
 10
4.1994803277146
 20
8.2183457062087
 11
4.1964502633395
 21
8.2243689956852
  0
LINE
  8
trespa
  6
CONTINUOUS
 62
8
 10
4.2017717179273
 20
8.2122418816049
 11
4.1994803277146
 21
8.2183457062087
  0
LINE
  8
trespa
  6
CONTINUOUS
 62
8
 10
4.2032585148532
 20
8.2062331177947
 11
4.2017717179273
 21
8.2122418816049
  0
LINE
  8
trespa
  6
CONTINUOUS
 62
8
 10
4.2038979460515
 20
8.2004922759726
 11
4.2032585148532
 21
8.2062331177947
  0
LINE
  8
trespa
  6
CONTINUOUS
 62
8
 10
4.2036716162511
 20
8.1951845097056
 11
4.2038979460515
 21
8.2004922759726
  0
LINE
  8
trespa
  6
CONTINUOUS
 62
8
 10
4.2025860365481
 20
8.1904625137654
 11
4.2036716162511
 21
8.1951845097056
  0
LINE
  8
trespa
  6
CONTINUOUS
 62
8
 10
4.2006724370941
 20
8.1864621313778
 11
4.2025860365481
 21
8.1904625137654
  0
LINE
  8
trespa
  6
CONTINUOUS
 62
8
 10
4.1979858686613
 20
8.1832984462606
 11
4.2006724370941
 21
8.1864621313778
  0
LINE
  8
trespa
  6
CONTINUOUS
 62
8
 10
4.1586309926903
 20
8.2525473547433
 11
4.1549362425164
 21
8.2508011073025
  0
LINE
  8
trespa
  6
CONTINUOUS
 62
8
 10
4.1628688217049
 20
8.2532800221809
 11
4.1586309926903
 21
8.2525473547433
  0
LINE
  8
trespa
  6
CONTINUOUS
 62
8
 10
4.1675278149352
 20
8.2529780321071
 11
4.1628688217049
 21
8.2532800221809
  0
LINE
  8
trespa
  6
CONTINUOUS
 62
8
 10
4.1724739416287
 20
8.2516500722265
 11
4.1675278149352
 21
8.2529780321071
  0
LINE
  8
trespa
  6
CONTINUOUS
 62
8
 10
4.1775649107258
 20
8.2493343455271
 11
4.1724739416287
 21
8.2516500722265
  0
LINE
  8
trespa
  6
CONTINUOUS
 62
8
 10
4.1826542643146
 20
8.2460974712496
 11
4.1775649107258
 21
8.2493343455271
  0
LINE
  8
trespa
  6
CONTINUOUS
 62
8
 10
4.1875955909585
 20
8.2420325683739
 11
4.1826542643146
 21
8.2460974712496
  0
LINE
  8
trespa
  6
CONTINUOUS
 62
8
 10
4.1922467376867
 20
8.2372565767545
 11
4.1875955909585
 21
8.2420325683739
  0
LINE
  8
trespa
  6
CONTINUOUS
 62
8
 10
4.1964738994761
 20
8.2319068929749
 11
4.1922467376867
 21
8.2372565767545
  0
LINE
  8
trespa
  6
CONTINUOUS
 62
8
 10
4.2001554685783
 20
8.2261374176971
 11
4.1964738994761
 21
8.2319068929749
  0
LINE
  8
trespa
  6
CONTINUOUS
 62
8
 10
4.2031855329535
 20
8.2201141282206
 11
4.2001554685783
 21
8.2261374176971
  0
LINE
  8
trespa
  6
CONTINUOUS
 62
8
 10
4.2054769231662
 20
8.2140103036168
 11
4.2031855329535
 21
8.2201141282206
  0
LINE
  8
trespa
  6
CONTINUOUS
 62
8
 10
4.206963720092
 20
8.2080015398066
 11
4.2054769231662
 21
8.2140103036168
  0
LINE
  8
trespa
  6
CONTINUOUS
 62
8
 10
4.2076031512904
 20
8.2022606979845
 11
4.206963720092
 21
8.2080015398066
  0
LINE
  8
trespa
  6
CONTINUOUS
 62
8
 10
4.2073768214899
 20
8.1969529317175
 11
4.2076031512904
 21
8.2022606979845
  0
LINE
  8
trespa
  6
CONTINUOUS
 62
8
 10
4.2062912417869
 20
8.1922309357773
 11
4.2073768214899
 21
8.1969529317175
  0
LINE
  8
trespa
  6
CONTINUOUS
 62
8
 10
4.204377642333
 20
8.1882305533897
 11
4.2062912417869
 21
8.1922309357773
  0
LINE
  8
trespa
  6
CONTINUOUS
 62
8
 10
4.2016910739002
 20
8.1850668682725
 11
4.204377642333
 21
8.1882305533897
  0
LINE
  8
trespa
  6
CONTINUOUS
 62
8
 10
4.6141738135407
 20
8.2368370598147
 11
4.6141738135407
 21
8.5690994182815
  0
LINE
  8
trespa
  6
CONTINUOUS
 62
8
 10
4.0481594460005
 20
8.2155351728428
 11
4.045879547235
 21
8.2151410069667
  0
LINE
  8
trespa
  6
CONTINUOUS
 62
8
 10
4.0558730929821
 20
8.2150351839598
 11
4.0481594460005
 21
8.2155351728428
  0
LINE
  8
trespa
  6
CONTINUOUS
 62
8
 10
4.0640621315477
 20
8.2128365515046
 11
4.0558730929821
 21
8.2150351839598
  0
LINE
  8
trespa
  6
CONTINUOUS
 62
8
 10
4.0724909779674
 20
8.2090025261299
 11
4.0640621315477
 21
8.2128365515046
  0
LINE
  8
trespa
  6
CONTINUOUS
 62
8
 10
4.0809171496762
 20
8.2036434057652
 11
4.0724909779674
 21
8.2090025261299
  0
LINE
  8
trespa
  6
CONTINUOUS
 62
8
 10
4.0890982410553
 20
8.1969133625459
 11
4.0809171496762
 21
8.2036434057652
  0
LINE
  8
trespa
  6
CONTINUOUS
 62
8
 10
4.0967988970012
 20
8.1890060075623
 11
4.0890982410553
 21
8.1969133625459
  0
LINE
  8
trespa
  6
CONTINUOUS
 62
8
 10
4.1037975836628
 20
8.1801488210201
 11
4.0967988970012
 21
8.1890060075623
  0
LINE
  8
trespa
  6
CONTINUOUS
 62
8
 10
4.1098929615673
 20
8.1705966080502
 11
4.1037975836628
 21
8.1801488210201
  0
LINE
  8
trespa
  6
CONTINUOUS
 62
8
 10
4.1149096777903
 20
8.1606241684278
 11
4.1098929615673
 21
8.1705966080502
  0
LINE
  8
trespa
  6
CONTINUOUS
 62
8
 10
4.1187034105399
 20
8.1505183910842
 11
4.1149096777903
 21
8.1606241684278
  0
LINE
  8
trespa
  6
CONTINUOUS
 62
8
 10
4.1211650210322
 20
8.1405700008341
 11
4.1187034105399
 21
8.1505183910842
  0
LINE
  8
trespa
  6
CONTINUOUS
 62
8
 10
4.1222236932151
 20
8.1310651947518
 11
4.1211650210322
 21
8.1405700008341
  0
LINE
  8
trespa
  6
CONTINUOUS
 62
8
 10
4.1218489710174
 20
8.1222774088031
 11
4.1222236932151
 21
8.1310651947518
  0
LINE
  8
trespa
  6
CONTINUOUS
 62
8
 10
4.1200516345146
 20
8.1144594515898
 11
4.1218489710174
 21
8.1222774088031
  0
LINE
  8
trespa
  6
CONTINUOUS
 62
8
 10
4.1168833898054
 20
8.1078362315069
 11
4.1200516345146
 21
8.1144594515898
  0
LINE
  8
trespa
  6
CONTINUOUS
 62
8
 10
4.1124353815216
 20
8.1025982865371
 11
4.1168833898054
 21
8.1078362315069
  0
LINE
  8
trespa
  6
CONTINUOUS
 62
8
 10
4.1068355707632
 20
8.0988963028207
 11
4.1124353815216
 21
8.1025982865371
  0
LINE
  8
trespa
  6
CONTINUOUS
 62
8
 10
4.1002450538901
 20
8.096836779689
 11
4.1068355707632
 21
8.0988963028207
  0
LINE
  8
trespa
  6
CONTINUOUS
 62
8
 10
4.0928534280735
 20
8.0964789658726
 11
4.1002450538901
 21
8.096836779689
  0
LINE
  8
trespa
  6
CONTINUOUS
 62
8
 10
4.0829251147785
 20
8.0991983750906
 11
4.0928534280735
 21
8.0964789658726
  0
LINE
  8
trespa
  6
CONTINUOUS
 62
8
 10
4.0732529439204
 20
8.2294090311959
 11
4.0694552803775
 21
8.2287524628428
  0
LINE
  8
trespa
  6
CONTINUOUS
 62
8
 10
4.0809665909021
 20
8.2289090423129
 11
4.0732529439204
 21
8.2294090311959
  0
LINE
  8
trespa
  6
CONTINUOUS
 62
8
 10
4.0891556294677
 20
8.2267104098577
 11
4.0809665909021
 21
8.2289090423129
  0
LINE
  8
trespa
  6
CONTINUOUS
 62
8
 10
4.0975844758874
 20
8.222876384483
 11
4.0891556294677
 21
8.2267104098577
  0
LINE
  8
trespa
  6
CONTINUOUS
 62
8
 10
4.1060106475962
 20
8.2175172641183
 11
4.0975844758874
 21
8.222876384483
  0
LINE
  8
trespa
  6
CONTINUOUS
 62
8
 10
4.1141917389753
 20
8.210787220899
 11
4.1060106475962
 21
8.2175172641183
  0
LINE
  8
trespa
  6
CONTINUOUS
 62
8
 10
4.1218923949212
 20
8.2028798659154
 11
4.1141917389753
 21
8.210787220899
  0
LINE
  8
trespa
  6
CONTINUOUS
 62
8
 10
4.1288910815828
 20
8.1940226793733
 11
4.1218923949212
 21
8.2028798659154
  0
LINE
  8
trespa
  6
CONTINUOUS
 62
8
 10
4.1349864594873
 20
8.1844704664033
 11
4.1288910815828
 21
8.1940226793733
  0
LINE
  8
trespa
  6
CONTINUOUS
 62
8
 10
4.1400031757103
 20
8.1744980267809
 11
4.1349864594873
 21
8.1844704664033
  0
LINE
  8
trespa
  6
CONTINUOUS
 62
8
 10
4.1437969084599
 20
8.1643922494374
 11
4.1400031757103
 21
8.1744980267809
  0
LINE
  8
trespa
  6
CONTINUOUS
 62
8
 10
4.1462585189522
 20
8.1544438591872
 11
4.1437969084599
 21
8.1643922494374
  0
LINE
  8
trespa
  6
CONTINUOUS
 62
8
 10
4.1473171911351
 20
8.144939053105
 11
4.1462585189522
 21
8.1544438591872
  0
LINE
  8
trespa
  6
CONTINUOUS
 62
8
 10
4.1469424689374
 20
8.1361512671563
 11
4.1473171911351
 21
8.144939053105
  0
LINE
  8
trespa
  6
CONTINUOUS
 62
8
 10
4.1451451324346
 20
8.128333309943
 11
4.1469424689374
 21
8.1361512671563
  0
LINE
  8
trespa
  6
CONTINUOUS
 62
8
 10
4.1419768877254
 20
8.12171008986
 11
4.1451451324346
 21
8.128333309943
  0
LINE
  8
trespa
  6
CONTINUOUS
 62
8
 10
4.1377703615398
 20
8.1167565126029
 11
4.1419768877254
 21
8.12171008986
  0
LINE
  8
trespa
  6
CONTINUOUS
 62
8
 10
3.9024299024341
 20
8.482984424891
 11
3.9888917873236
 21
8.2741132026147
  0
LINE
  8
trespa
  6
CONTINUOUS
 62
8
 10
3.9011295255652
 20
8.6585353021868
 11
3.9024299024341
 21
8.482984424891
  0
LINE
  8
trespa
  6
CONTINUOUS
 62
8
 10
3.7695960421632
 20
8.806510471014
 11
3.9011295255652
 21
8.6585353021868
  0
LINE
  8
trespa
  6
CONTINUOUS
 62
8
 10
4.0853852891551
 20
8.0153943888649
 11
4.3197293909234
 21
7.8197846846731
  0
LINE
  8
trespa
  6
CONTINUOUS
 62
8
 10
4.0188463765388
 20
8.1233910784778
 11
4.0853852891551
 21
8.0153943888649
  0
LINE
  8
trespa
  6
CONTINUOUS
 62
8
 10
5.0665658740465
 20
7.5205066359325
 11
5.0665658740465
 21
7.3519928927824
  0
LINE
  8
trespa
  6
CONTINUOUS
 62
8
 10
4.3594358732573
 20
7.6649908900293
 11
4.3853686486711
 21
7.6794661842468
  0
LINE
  8
trespa
  6
CONTINUOUS
 62
8
 10
4.1018596609524
 20
8.2201573286488
 11
4.1549362425164
 21
8.2508011073025
  0
LINE
  8
trespa
  6
CONTINUOUS
 62
8
 10
4.1464030437419
 20
8.1531463091777
 11
4.2016910739002
 21
8.1850668682725
  0
LINE
  8
trespa
  6
CONTINUOUS
 62
8
 10
4.1068355707632
 20
8.0988963028207
 11
4.1377703615398
 21
8.1167565126029
  0
LINE
  8
trespa
  6
CONTINUOUS
 62
8
 10
4.0738069528869
 20
8.2293731210324
 11
4.0892680840156
 21
8.2380032972651
  0
LINE
  8
trespa
  6
CONTINUOUS
 62
8
 10
4.0593324110662
 20
8.1461839782879
 11
4.0893685604742
 21
8.0974334866247
  0
LINE
  8
trespa
  6
CONTINUOUS
 62
8
 10
4.045879547235
 20
8.2151410069667
 11
4.0595937078409
 21
8.1461356401286
  0
LINE
  8
trespa
  6
CONTINUOUS
 62
8
 10
4.0436738844842
 20
8.2161405995396
 11
4.0577871170004
 21
8.1451272276649
  0
LINE
  8
trespa
  6
CONTINUOUS
 62
8
 10
4.0414682217333
 20
8.2171401921125
 11
4.0559805261599
 21
8.1441188152011
  0
LINE
  8
trespa
  6
CONTINUOUS
 62
8
 10
4.057656468613
 20
8.1451513967445
 11
4.0865870161156
 21
8.0981953640095
  0
LINE
  8
trespa
  6
CONTINUOUS
 62
8
 10
4.0559805261599
 20
8.1441188152011
 11
4.083805471757
 21
8.0989572413944
  0
LINE
  8
trespa
  6
CONTINUOUS
 62
8
 10
4.045879547235
 20
8.2151410069667
 11
4.0888779826674
 21
8.2399661652383
  0
LINE
  8
trespa
  6
CONTINUOUS
 62
8
 10
4.3197293909234
 20
7.2317073214077
 11
4.3197293909234
 21
7.8197846846731
  0
LINE
  8
trespa
  6
CONTINUOUS
 62
8
 10
4.3594358732573
 20
7.6649908900293
 11
5.1099050281946
 21
7.2317073214077
  0
LINE
  8
trespa
  6
CONTINUOUS
 62
8
 10
4.4491286648726
 20
7.7084704317067
 11
5.274906595085
 21
7.2317073214077
  0
LINE
  8
trespa
  6
CONTINUOUS
 62
8
 10
4.4036225784379
 20
7.858230043725
 11
4.4036225784379
 21
7.8666126293393
  0
LINE
  8
trespa
  6
CONTINUOUS
 62
8
 10
3.9850227130797
 20
8.705363246853
 11
3.9863230899486
 21
8.5298123695572
  0
LINE
  8
trespa
  6
CONTINUOUS
 62
8
 10
3.895114069381
 20
8.806510471014
 11
3.9850227130797
 21
8.705363246853
  0
LINE
  8
trespa
  6
CONTINUOUS
 62
8
 10
3.9863230899486
 20
8.5298123695572
 11
4.0727849748381
 21
8.3209411472809
  0
LINE
  8
trespa
  6
CONTINUOUS
 62
8
 10
4.0727849748381
 20
8.3209411472809
 11
4.0917466707278
 21
8.2255318241482
  0
LINE
  8
trespa
  6
CONTINUOUS
 62
8
 10
4.2550370886053
 20
8.0163278856622
 11
4.2668481122274
 21
8.0231469833298
  0
LINE
  8
trespa
  6
CONTINUOUS
 62
8
 10
4.3251156194908
 20
7.8899178622711
 11
4.437118301115
 21
7.8252530838854
  0
LINE
  8
trespa
  6
CONTINUOUS
 62
8
 10
4.3448376352478
 20
7.2317073214077
 11
4.3448376352478
 21
7.833799737751
  0
LINE
  8
trespa
  6
CONTINUOUS
 62
8
 10
4.3853686486711
 20
7.6794661842468
 11
4.4568403168721
 21
7.6382019973716
  0
LINE
  8
trespa
  6
CONTINUOUS
 62
8
 10
4.3291190740766
 20
7.8921525318
 11
4.4411217557009
 21
7.8274877534143
  0
LINE
  8
trespa
  6
CONTINUOUS
 62
8
 10
4.3331225286625
 20
7.8943872013289
 11
4.4451252102868
 21
7.8297224229432
  0
LINE
  8
trespa
  6
CONTINUOUS
 62
8
 10
4.3371259832484
 20
7.8966218708578
 11
4.4491286648726
 21
7.8319570924721
  0
LINE
  8
trespa
  6
CONTINUOUS
 62
8
 10
4.3211121649049
 20
7.8876831927422
 11
4.4331148465292
 21
7.8230184143565
  0
LINE
  8
trespa
  6
CONTINUOUS
 62
8
 10
4.3171087103191
 20
7.8854485232133
 11
4.4291113919433
 21
7.8207837448276
  0
LINE
  8
trespa
  6
CONTINUOUS
 62
8
 10
4.3131052557332
 20
7.8832138536844
 11
4.4251079373574
 21
7.8185490752987
  0
LINE
  8
trespa
  6
CONTINUOUS
 62
8
 10
4.4251079373574
 20
7.8185490752987
 11
4.4491286648726
 21
7.8319570924721
  0
LINE
  8
trespa
  6
CONTINUOUS
 62
8
 10
4.3002425196625
 20
7.9179319557306
 11
4.3002425196625
 21
7.8710237911931
  0
LINE
  8
trespa
  6
CONTINUOUS
 62
8
 10
4.4251079373574
 20
7.8185490752987
 11
4.4251079373574
 21
7.6565226952264
  0
LINE
  8
trespa
  6
CONTINUOUS
 62
8
 10
4.4491286648726
 20
7.8319570924721
 11
4.4491286648726
 21
7.6426543217293
  0
LINE
  8
trespa
  6
CONTINUOUS
 62
8
 10
4.4491286648726
 20
7.6790228426232
 11
4.488867953559
 21
7.6560793536027
  0
LINE
  8
trespa
  6
CONTINUOUS
 62
8
 10
3.9888917873236
 20
8.2741132026147
 11
4.0188463765388
 21
8.1233910784778
  0
LINE
  8
trespa
  6
CONTINUOUS
 62
8
 10
3.9011295255652
 20
8.6585353021868
 11
3.9850227130797
 21
8.705363246853
  0
LINE
  8
trespa
  6
CONTINUOUS
 62
8
 10
3.9024299024341
 20
8.482984424891
 11
3.9863230899486
 21
8.5298123695572
  0
LINE
  8
trespa
  6
CONTINUOUS
 62
8
 10
3.9888917873236
 20
8.2741132026147
 11
4.0727849748381
 21
8.3209411472809
  0
LINE
  8
trespa
  6
CONTINUOUS
 62
8
 10
4.0853852891551
 20
8.0153943888649
 11
4.1724649112402
 21
8.0640009544915
  0
LINE
  8
trespa
  6
CONTINUOUS
 62
8
 10
4.0188463765388
 20
8.1233910784778
 11
4.0559805261599
 21
8.1441188152011
  0
LINE
  8
trespa
  6
CONTINUOUS
 62
8
 10
4.4568403168721
 20
7.6382019973715
 11
4.488867953559
 21
7.6560793536027
  0
LINE
  8
trespa
  6
CONTINUOUS
 62
8
 10
4.2665658207969
 20
7.8991341172202
 11
4.3002425196625
 21
7.9179319557306
  0
LINE
  8
trespa
  6
CONTINUOUS
 62
8
 10
4.3197293909234
 20
7.8197846846731
 11
4.3448376352478
 21
7.833799737751
  0
LINE
  8
trespa
  6
CONTINUOUS
 62
8
 10
4.396240523849
 20
7.862492074929
 11
4.4036225784379
 21
7.8666126293393
  0
LINE
  8
trespa
  6
CONTINUOUS
 62
8
 10
4.2665658207969
 20
7.8991341172202
 11
4.3448376352478
 21
7.833799737751
  0
LINE
  8
trespa
  6
CONTINUOUS
 62
8
 10
4.3002425196625
 20
7.9179319557306
 11
4.3303222023182
 21
7.8928241003074
  0
LINE
  8
trespa
  6
CONTINUOUS
 62
8
 10
4.3131052557332
 20
7.8602871181601
 11
4.3131052557332
 21
7.8832138536844
  0
LINE
  8
trespa
  6
CONTINUOUS
 62
8
 10
4.3131052557332
 20
7.8832138536844
 11
4.3371259832484
 21
7.8966218708578
  0
LINE
  8
trespa
  6
CONTINUOUS
 62
8
 10
4.2550370886053
 20
8.0163278856622
 11
4.1724649112402
 21
8.0640009544915
  0
ENDSEC
  0
EOF
