  0
SECTION
  2
HEADER
  9
$EXTMIN
 10
-3.106433998696
 20
3.5546165805707
  9
$EXTMAX
 10
-1.5316308490897
 20
5.129419730177
  9
$LIMMIN
 10
-4.1338582677165
 20
-5.8464566929134
  9
$LIMMAX
 10
4.1338582677165
 20
5.8464566929134
  0
ENDSEC
  0
SECTION
  2
TABLES
  0
TABLE
  2
LTYPE
 70
9
  0
LTYPE
  2
CONTINUOUS
  3
___________________________
 70
64
 72
65
 73
0
 40
0
  0
LTYPE
  2
HIDDEN
  3
_ _ _ _ _ _ _ _ _ _ _ _ _ _ 
 70
64
 72
65
 73
2
 49
0.25
 49
-0.125
 40
0.375
  0
LTYPE
  2
DASHED
  3
__ __ __ __ __ __ __ __ __ 
 70
64
 72
65
 73
2
 49
0.5
 49
-0.25
 40
0.75
  0
LTYPE
  2
CENTER
  3
____ _ ____ _ ____ _ ____ _ 
 70
64
 72
65
 73
4
 49
1.25
 49
-0.25
 49
0.25
 49
-0.25
 40
2
  0
LTYPE
  2
PHANTOM
  3
_____ _ _ _____ _ _ _____ _ _ 
 70
64
 72
65
 73
6
 49
1.25
 49
-0.25
 49
0.25
 49
-0.25
 49
0.25
 49
-0.25
 40
2.5
  0
LTYPE
  2
DOT
  3
...........................
 70
64
 72
65
 73
2
 49
0
 49
-0.25
 40
0.25
  0
LTYPE
  2
DASHDOT
  3
__ . __ . __ . __ . __ . __ . 
 70
64
 72
65
 73
4
 49
0.5
 49
-0.25
 49
0
 49
-0.25
 40
1
  0
LTYPE
  2
DIVIDE
  3
__ . . __ . . __ . . __ . . 
 70
64
 72
65
 73
6
 49
0.5
 49
-0.25
 49
0
 49
-0.25
 49
0
 49
-0.25
 40
1.25
  0
LTYPE
  2
BORDER
  3
__ __ . __ __ . __ __ . __ __ . 
 70
64
 72
65
 73
6
 49
0.5
 49
-0.25
 49
0.5
 49
-0.25
 49
0
 49
-0.25
 40
1.75
  0
ENDTAB
  0
TABLE
  2
LAYER
 70
1
  0
LAYER
  2
F-PTaco-JuntaSeca
 62
2
  6
CONTINUOUS
 70
0
  0
ENDTAB
  0
TABLE
  2
STYLE
 70
5
  0
STYLE
  2
ptmarker
 70
1
 40
0
 50
0
 71
0
 41
0
 42
0
  3
ptmarks
  0
STYLE
  2
TXT
 70
0
 40
0
 50
0
 71
0
 41
0
 42
0
  3
TXT
  0
STYLE
  2
ITALIC
 70
0
 40
0
 50
0
 71
0
 41
0
 42
0
  3
ITALIC
  0
STYLE
  2
SIMPLEX
 70
0
 40
0
 50
0
 71
0
 41
0
 42
0
  3
SIMPLEX
  0
STYLE
  2
COMPLEX
 70
0
 40
0
 50
0
 71
0
 41
0
 42
0
  3
COMPLEX
  0
ENDTAB
  0
ENDSEC
  0
SECTION
  2
BLOCKS
  0
ENDSEC
  0
SECTION
  2
ENTITIES
  0
POLYLINE
  8
F-PTaco-JuntaSeca
  6
DIMSTYLE
 62
8
 70
1
 66
1
  0
VERTEX
  8
F-PTaco-JuntaSeca
  6
DIMSTYLE
 62
8
 10
-1.88851921652
 20
3.5546165805707
  0
VERTEX
  8
F-PTaco-JuntaSeca
  6
DIMSTYLE
 62
8
 10
-2.186799542511
 20
3.5546165805707
  0
VERTEX
  8
F-PTaco-JuntaSeca
  6
DIMSTYLE
 62
8
 10
-2.186799542511
 20
3.5546165805707
  0
VERTEX
  8
F-PTaco-JuntaSeca
  6
DIMSTYLE
 62
8
 10
-2.186799542511
 20
3.5546165805707
  0
VERTEX
  8
F-PTaco-JuntaSeca
  6
DIMSTYLE
 62
8
 10
-2.1535125911224
 20
4.0008634682765
  0
VERTEX
  8
F-PTaco-JuntaSeca
  6
DIMSTYLE
 62
8
 10
-2.1535125911224
 20
4.0008634682765
  0
VERTEX
  8
F-PTaco-JuntaSeca
  6
DIMSTYLE
 62
8
 10
-2.2215598915129
 20
4.0718613291175
  0
VERTEX
  8
F-PTaco-JuntaSeca
  6
DIMSTYLE
 62
8
 10
-2.3477276429297
 20
4.0045547412027
  0
VERTEX
  8
F-PTaco-JuntaSeca
  6
DIMSTYLE
 62
8
 10
-2.3477276429297
 20
4.0124331407554
  0
VERTEX
  8
F-PTaco-JuntaSeca
  6
DIMSTYLE
 62
8
 10
-2.2120782005552
 20
4.0892909033921
  0
VERTEX
  8
F-PTaco-JuntaSeca
  6
DIMSTYLE
 62
8
 10
-2.1306299275821
 20
4.1287557739809
  0
VERTEX
  8
F-PTaco-JuntaSeca
  6
DIMSTYLE
 62
8
 10
-2.0661643388735
 20
4.1834359443966
  0
VERTEX
  8
F-PTaco-JuntaSeca
  6
DIMSTYLE
 62
8
 10
-1.9721152245128
 20
4.4090616138484
  0
VERTEX
  8
F-PTaco-JuntaSeca
  6
DIMSTYLE
 62
8
 10
-1.9721152245128
 20
4.4090616138484
  0
VERTEX
  8
F-PTaco-JuntaSeca
  6
DIMSTYLE
 62
8
 10
-2.0101958953275
 20
4.5409147839816
  0
VERTEX
  8
F-PTaco-JuntaSeca
  6
DIMSTYLE
 62
8
 10
-2.0615234826119
 20
4.6356287091971
  0
VERTEX
  8
F-PTaco-JuntaSeca
  6
DIMSTYLE
 62
8
 10
-2.0615234826119
 20
4.6356287091971
  0
VERTEX
  8
F-PTaco-JuntaSeca
  6
DIMSTYLE
 62
8
 10
-2.0615234826119
 20
4.6356287091971
  0
VERTEX
  8
F-PTaco-JuntaSeca
  6
DIMSTYLE
 62
8
 10
-2.2172262558512
 20
4.5542227453754
  0
VERTEX
  8
F-PTaco-JuntaSeca
  6
DIMSTYLE
 62
8
 10
-2.343394007268
 20
4.4869161574607
  0
VERTEX
  8
F-PTaco-JuntaSeca
  6
DIMSTYLE
 62
8
 10
-2.390196001812
 20
4.4586643946439
  0
VERTEX
  8
F-PTaco-JuntaSeca
  6
DIMSTYLE
 62
8
 10
-2.3885779947636
 20
4.4647945903625
  0
VERTEX
  8
F-PTaco-JuntaSeca
  6
DIMSTYLE
 62
8
 10
-2.3358367267103
 20
4.6537226642107
  0
VERTEX
  8
F-PTaco-JuntaSeca
  6
DIMSTYLE
 62
8
 10
-2.3206228993872
 20
4.8575879503398
  0
VERTEX
  8
F-PTaco-JuntaSeca
  6
DIMSTYLE
 62
8
 10
-2.3906714204967
 20
4.9307729723944
  0
VERTEX
  8
F-PTaco-JuntaSeca
  6
DIMSTYLE
 62
8
 10
-2.2702789617
 20
4.9886795435118
  0
VERTEX
  8
F-PTaco-JuntaSeca
  6
DIMSTYLE
 62
8
 10
-2.2702789617
 20
4.5330945689466
  0
VERTEX
  8
F-PTaco-JuntaSeca
  6
DIMSTYLE
 62
8
 10
-1.88851921652
 20
4.7535036605921
  0
VERTEX
  8
F-PTaco-JuntaSeca
  6
DIMSTYLE
 62
8
 10
-1.88851921652
 20
3.5546165805707
  0
SEQEND
  0
CIRCLE
  8
F-PTaco-JuntaSeca
  6
CONTINUOUS
 62
8
 10
-2.1386570306814
 20
4.9004773646016
 40
0.0039370078740157
  0
POLYLINE
  8
F-PTaco-JuntaSeca
  6
CONTINUOUS
 62
8
 70
1
 66
1
  0
VERTEX
  8
F-PTaco-JuntaSeca
  6
CONTINUOUS
 62
8
 10
-2.1683713796857
 20
4.7380717499797
  0
VERTEX
  8
F-PTaco-JuntaSeca
  6
CONTINUOUS
 62
8
 10
-2.1845707686255
 20
4.7151568502203
  0
VERTEX
  8
F-PTaco-JuntaSeca
  6
CONTINUOUS
 62
8
 10
-2.1821935515037
 20
4.7004552201239
  0
VERTEX
  8
F-PTaco-JuntaSeca
  6
CONTINUOUS
 62
8
 10
-2.1749332085401
 20
4.6911048869727
  0
VERTEX
  8
F-PTaco-JuntaSeca
  6
CONTINUOUS
 62
8
 10
-2.1645338028426
 20
4.6921036577022
  0
VERTEX
  8
F-PTaco-JuntaSeca
  6
CONTINUOUS
 62
8
 10
-2.1490299121872
 20
4.6904272997332
  0
VERTEX
  8
F-PTaco-JuntaSeca
  6
CONTINUOUS
 62
8
 10
-2.1392329445942
 20
4.6999381709754
  0
VERTEX
  8
F-PTaco-JuntaSeca
  6
CONTINUOUS
 62
8
 10
-2.1401257523056
 20
4.7101927826311
  0
VERTEX
  8
F-PTaco-JuntaSeca
  6
CONTINUOUS
 62
8
 10
-2.1356939660379
 20
4.7184160321598
  0
VERTEX
  8
F-PTaco-JuntaSeca
  6
CONTINUOUS
 62
8
 10
-2.1403311365792
 20
4.7294883684671
  0
VERTEX
  8
F-PTaco-JuntaSeca
  6
CONTINUOUS
 62
8
 10
-2.1462123176718
 20
4.7363489720639
  0
VERTEX
  8
F-PTaco-JuntaSeca
  6
CONTINUOUS
 62
8
 10
-2.1491680627193
 20
4.7458135882181
  0
VERTEX
  8
F-PTaco-JuntaSeca
  6
CONTINUOUS
 62
8
 10
-2.1482772147643
 20
4.7544131845276
  0
VERTEX
  8
F-PTaco-JuntaSeca
  6
CONTINUOUS
 62
8
 10
-2.1540740037411
 20
4.7663376525812
  0
VERTEX
  8
F-PTaco-JuntaSeca
  6
CONTINUOUS
 62
8
 10
-2.1683713796857
 20
4.7380717499797
  0
SEQEND
  0
POLYLINE
  8
F-PTaco-JuntaSeca
  6
CONTINUOUS
 62
8
 70
1
 66
1
  0
VERTEX
  8
F-PTaco-JuntaSeca
  6
CONTINUOUS
 62
8
 10
-1.6779218756429
 20
5.0226801244579
  0
VERTEX
  8
F-PTaco-JuntaSeca
  6
CONTINUOUS
 62
8
 10
-1.678873088254
 20
5.0003753706205
  0
VERTEX
  8
F-PTaco-JuntaSeca
  6
CONTINUOUS
 62
8
 10
-1.6674703560348
 20
4.9898334084329
  0
VERTEX
  8
F-PTaco-JuntaSeca
  6
CONTINUOUS
 62
8
 10
-1.6544271699949
 20
4.9900176017693
  0
VERTEX
  8
F-PTaco-JuntaSeca
  6
CONTINUOUS
 62
8
 10
-1.6445627384136
 20
5.0033900555811
  0
VERTEX
  8
F-PTaco-JuntaSeca
  6
CONTINUOUS
 62
8
 10
-1.6279169399552
 20
5.0204431507285
  0
VERTEX
  8
F-PTaco-JuntaSeca
  6
CONTINUOUS
 62
8
 10
-1.6238749021036
 20
5.0408468028371
  0
VERTEX
  8
F-PTaco-JuntaSeca
  6
CONTINUOUS
 62
8
 10
-1.631057478625
 20
5.0491171693674
  0
VERTEX
  8
F-PTaco-JuntaSeca
  6
CONTINUOUS
 62
8
 10
-1.6395267779209
 20
5.0619925280547
  0
VERTEX
  8
F-PTaco-JuntaSeca
  6
CONTINUOUS
 62
8
 10
-1.6511985902565
 20
5.0537362115891
  0
VERTEX
  8
F-PTaco-JuntaSeca
  6
CONTINUOUS
 62
8
 10
-1.6612223342505
 20
5.0357228646553
  0
VERTEX
  8
F-PTaco-JuntaSeca
  6
CONTINUOUS
 62
8
 10
-1.6779218756429
 20
5.0226801244579
  0
SEQEND
  0
CIRCLE
  8
F-PTaco-JuntaSeca
  6
CONTINUOUS
 62
8
 10
-1.7061248980443
 20
4.9634409028968
 40
0.0039370078740157
  0
POLYLINE
  8
F-PTaco-JuntaSeca
  6
CONTINUOUS
 62
8
 70
1
 66
1
  0
VERTEX
  8
F-PTaco-JuntaSeca
  6
CONTINUOUS
 62
8
 10
-1.9051851255005
 20
4.9863728425104
  0
VERTEX
  8
F-PTaco-JuntaSeca
  6
CONTINUOUS
 62
8
 10
-1.8988301573438
 20
4.9941311797134
  0
VERTEX
  8
F-PTaco-JuntaSeca
  6
CONTINUOUS
 62
8
 10
-1.9027946467689
 20
5.0005723662394
  0
VERTEX
  8
F-PTaco-JuntaSeca
  6
CONTINUOUS
 62
8
 10
-1.9110100500432
 20
5.0025301062765
  0
VERTEX
  8
F-PTaco-JuntaSeca
  6
CONTINUOUS
 62
8
 10
-1.9179704357983
 20
4.9986763399199
  0
VERTEX
  8
F-PTaco-JuntaSeca
  6
CONTINUOUS
 62
8
 10
-1.9240514102357
 20
4.9927462379329
  0
VERTEX
  8
F-PTaco-JuntaSeca
  6
CONTINUOUS
 62
8
 10
-1.9177692104204
 20
4.9845776926692
  0
VERTEX
  8
F-PTaco-JuntaSeca
  6
CONTINUOUS
 62
8
 10
-1.9051851255005
 20
4.9863728425104
  0
SEQEND
  0
POLYLINE
  8
F-PTaco-JuntaSeca
  6
CONTINUOUS
 62
8
 70
1
 66
1
  0
VERTEX
  8
F-PTaco-JuntaSeca
  6
CONTINUOUS
 62
8
 10
-2.084601884548
 20
4.9686506102492
  0
VERTEX
  8
F-PTaco-JuntaSeca
  6
CONTINUOUS
 62
8
 10
-2.0797364720394
 20
4.9557601042005
  0
VERTEX
  8
F-PTaco-JuntaSeca
  6
CONTINUOUS
 62
8
 10
-2.0693494807922
 20
4.9560523989441
  0
VERTEX
  8
F-PTaco-JuntaSeca
  6
CONTINUOUS
 62
8
 10
-2.0613767931824
 20
4.9644822003612
  0
VERTEX
  8
F-PTaco-JuntaSeca
  6
CONTINUOUS
 62
8
 10
-2.0611806984269
 20
4.9754108723376
  0
VERTEX
  8
F-PTaco-JuntaSeca
  6
CONTINUOUS
 62
8
 10
-2.0640591039004
 20
4.9867195184049
  0
VERTEX
  8
F-PTaco-JuntaSeca
  6
CONTINUOUS
 62
8
 10
-2.0780933918334
 20
4.9848561984731
  0
VERTEX
  8
F-PTaco-JuntaSeca
  6
CONTINUOUS
 62
8
 10
-2.084601884548
 20
4.9686506102492
  0
SEQEND
  0
CIRCLE
  8
F-PTaco-JuntaSeca
  6
CONTINUOUS
 62
8
 10
-2.1887890380495
 20
4.9426349581897
 40
0.0039370078740157
  0
CIRCLE
  8
F-PTaco-JuntaSeca
  6
CONTINUOUS
 62
8
 10
-1.9818060155476
 20
4.8181722186723
 40
0.0039370078740157
  0
CIRCLE
  8
F-PTaco-JuntaSeca
  6
CONTINUOUS
 62
8
 10
-1.7923114792203
 20
4.9154827439611
 40
0.0039370078740157
  0
CIRCLE
  8
F-PTaco-JuntaSeca
  6
CONTINUOUS
 62
8
 10
-1.9429686437745
 20
5.0825752355577
 40
0.0039370078740157
  0
CIRCLE
  8
F-PTaco-JuntaSeca
  6
CONTINUOUS
 62
8
 10
-1.9078470438573
 20
4.89760963271
 40
0.0039370078740157
  0
LINE
  8
F-PTaco-JuntaSeca
  6
DIMSTYLE
 62
8
 10
-2.9821315135101
 20
4.3534544567243
 11
-2.9895877197751
 21
4.1141204670232
  0
LINE
  8
F-PTaco-JuntaSeca
  6
DIMSTYLE
 62
8
 10
-2.9821315135101
 20
4.5696750198192
 11
-2.9821315135101
 21
4.3534544567243
  0
LINE
  8
F-PTaco-JuntaSeca
  6
DIMSTYLE
 62
8
 10
-2.9821315135101
 20
4.5696750198192
 11
-3.0466749651802
 21
4.6059807113836
  0
LINE
  8
F-PTaco-JuntaSeca
  6
DIMSTYLE
 62
8
 10
-2.9895877197751
 20
4.1141204670232
 11
-3.0554531425801
 21
4.1515688270035
  0
LINE
  8
F-PTaco-JuntaSeca
  6
DIMSTYLE
 62
8
 10
-2.6136502555886
 20
3.8893209226358
 11
-2.5920907128531
 21
3.8750953438879
  0
LINE
  8
F-PTaco-JuntaSeca
  6
DIMSTYLE
 62
8
 10
-2.9674770283876
 20
4.1031851313037
 11
-2.6136502555886
 21
3.8893209226358
  0
LINE
  8
F-PTaco-JuntaSeca
  6
DIMSTYLE
 62
8
 10
-2.966606658431
 20
4.5585875270424
 11
-2.7198640789866
 21
4.408539472397
  0
LINE
  8
F-PTaco-JuntaSeca
  6
DIMSTYLE
 62
8
 10
-2.7198640789866
 20
4.408539472397
 11
-2.5984909883019
 21
4.3329282884891
  0
LINE
  8
F-PTaco-JuntaSeca
  6
DIMSTYLE
 62
8
 10
-2.9690445136269
 20
4.1926239949605
 11
-2.9674770283876
 21
4.1031851313037
  0
LINE
  8
F-PTaco-JuntaSeca
  6
DIMSTYLE
 62
8
 10
-2.9744846094576
 20
4.3733458225557
 11
-2.9690445136269
 21
4.1926239949605
  0
LINE
  8
F-PTaco-JuntaSeca
  6
DIMSTYLE
 62
8
 10
-2.9723061481395
 20
4.547797004907
 11
-2.9744846094576
 21
4.3733458225557
  0
LINE
  8
F-PTaco-JuntaSeca
  6
DIMSTYLE
 62
8
 10
-2.5946183777106
 20
4.8101599368108
 11
-2.6103491989667
 21
4.8192421306976
  0
LINE
  8
F-PTaco-JuntaSeca
  6
DIMSTYLE
 62
8
 10
-2.6103491989667
 20
4.8192421306976
 11
-2.7727410166656
 21
4.900399438546
  0
LINE
  8
F-PTaco-JuntaSeca
  6
DIMSTYLE
 62
8
 10
-2.9330113906218
 20
5.0168846072461
 11
-3.106433998696
 21
5.1008108383616
  0
LINE
  8
F-PTaco-JuntaSeca
  6
DIMSTYLE
 62
8
 10
-2.8218518972295
 20
4.48363154259
 11
-3.106433998696
 21
4.6554225877903
  0
LINE
  8
F-PTaco-JuntaSeca
  6
DIMSTYLE
 62
8
 10
-2.5955237044947
 20
4.3488220725199
 11
-2.8218518972295
 21
4.48363154259
  0
LINE
  8
F-PTaco-JuntaSeca
  6
DIMSTYLE
 62
8
 10
-2.6028246239636
 20
3.8505668722312
 11
-2.6185554452198
 21
3.859649066118
  0
LINE
  8
F-PTaco-JuntaSeca
  6
DIMSTYLE
 62
8
 10
-2.6185554452198
 20
3.859649066118
 11
-2.8095032472478
 21
3.9843323309907
  0
LINE
  8
F-PTaco-JuntaSeca
  6
DIMSTYLE
 62
8
 10
-2.997348752433
 20
4.0924951767837
 11
-3.106433998696
 21
4.1368347524736
  0
LINE
  8
F-PTaco-JuntaSeca
  6
DIMSTYLE
 62
8
 10
-2.5013868997646
 20
4.8694170838492
 11
-2.3911229134173
 21
4.9305227657431
  0
LINE
  8
F-PTaco-JuntaSeca
  6
DIMSTYLE
 62
8
 10
-2.5946183777106
 20
4.8101599368108
 11
-2.5013868997646
 21
4.8694170838492
  0
LINE
  8
F-PTaco-JuntaSeca
  6
DIMSTYLE
 62
8
 10
-2.5946183777106
 20
4.7192457929287
 11
-2.5946183777106
 21
4.8101599368108
  0
LINE
  8
F-PTaco-JuntaSeca
  6
DIMSTYLE
 62
8
 10
-2.5946183777106
 20
4.5370486851082
 11
-2.5946183777106
 21
4.7192457929287
  0
LINE
  8
F-PTaco-JuntaSeca
  6
DIMSTYLE
 62
8
 10
-2.5955237044947
 20
4.3488220725199
 11
-2.5946183777106
 21
4.5370486851082
  0
LINE
  8
F-PTaco-JuntaSeca
  6
DIMSTYLE
 62
8
 10
-2.5666986460072
 20
4.358017224781
 11
-2.5955237044947
 21
4.3488220725199
  0
LINE
  8
F-PTaco-JuntaSeca
  6
DIMSTYLE
 62
8
 10
-2.4875654284193
 20
4.4037048092572
 11
-2.5015696947114
 21
4.3956194423437
  0
LINE
  8
F-PTaco-JuntaSeca
  6
DIMSTYLE
 62
8
 10
-2.3885779947636
 20
4.4647945903625
 11
-2.4875654284193
 21
4.4037048092572
  0
LINE
  8
F-PTaco-JuntaSeca
  6
DIMSTYLE
 62
8
 10
-2.3906714204967
 20
4.9307729723944
 11
-2.3206228993872
 21
4.8575879503398
  0
LINE
  8
F-PTaco-JuntaSeca
  6
DIMSTYLE
 62
8
 10
-2.3206228993872
 20
4.8575879503398
 11
-2.3358367267103
 21
4.6537226642107
  0
LINE
  8
F-PTaco-JuntaSeca
  6
DIMSTYLE
 62
8
 10
-2.3358367267103
 20
4.6537226642107
 11
-2.3754848827644
 21
4.5144008879371
  0
LINE
  8
F-PTaco-JuntaSeca
  6
DIMSTYLE
 62
8
 10
-2.3754848827644
 20
4.5144008879371
 11
-2.3885779947636
 21
4.4647945903625
  0
LINE
  8
F-PTaco-JuntaSeca
  6
DIMSTYLE
 62
8
 10
-2.6028246239636
 20
3.8505668722312
 11
-2.3477276429297
 21
4.0045547412027
  0
LINE
  8
F-PTaco-JuntaSeca
  6
DIMSTYLE
 62
8
 10
-2.3477276429297
 20
4.0045547412027
 11
-2.2215598915129
 21
4.0718613291175
  0
LINE
  8
F-PTaco-JuntaSeca
  6
DIMSTYLE
 62
8
 10
-2.6028246239636
 20
3.8505668722312
 11
-2.6156701280677
 21
3.6777152724433
  0
LINE
  8
F-PTaco-JuntaSeca
  6
DIMSTYLE
 62
8
 10
-2.1535125911224
 20
4.0008634682765
 11
-2.186799542511
 21
3.5546165805707
  0
LINE
  8
F-PTaco-JuntaSeca
  6
DIMSTYLE
 62
8
 10
-2.2215598915129
 20
4.0718613291175
 11
-2.1535125911224
 21
4.0008634682765
  0
LINE
  8
F-PTaco-JuntaSeca
  6
DIMSTYLE
 62
8
 10
-2.2316633085177
 20
4.0776640284997
 11
-2.2120782005552
 21
4.0892909033921
  0
LINE
  8
F-PTaco-JuntaSeca
  6
DIMSTYLE
 62
8
 10
-2.5920907128531
 20
3.8750953438879
 11
-2.3541278817818
 21
4.0088360558781
  0
LINE
  8
F-PTaco-JuntaSeca
  6
DIMSTYLE
 62
8
 10
-2.5984909883019
 20
4.3329282884891
 11
-2.343394007268
 21
4.4869161574607
  0
LINE
  8
F-PTaco-JuntaSeca
  6
DIMSTYLE
 62
8
 10
-2.343394007268
 20
4.4869161574607
 11
-2.2172262558512
 21
4.5542227453754
  0
LINE
  8
F-PTaco-JuntaSeca
  6
DIMSTYLE
 62
8
 10
-2.5953560178232
 20
3.9676120227075
 11
-2.5920907128531
 21
3.8750953438879
  0
LINE
  8
F-PTaco-JuntaSeca
  6
DIMSTYLE
 62
8
 10
-2.6007961136539
 20
4.1483338503026
 11
-2.5953560178232
 21
3.9676120227075
  0
LINE
  8
F-PTaco-JuntaSeca
  6
DIMSTYLE
 62
8
 10
-2.5984909883019
 20
4.3329282884891
 11
-2.6007961136539
 21
4.1483338503026
  0
LINE
  8
F-PTaco-JuntaSeca
  6
DIMSTYLE
 62
8
 10
-2.2172262558512
 20
4.5542227453754
 11
-2.0615234826119
 21
4.6356287091971
  0
LINE
  8
F-PTaco-JuntaSeca
  6
DIMSTYLE
 62
8
 10
-2.0615234826119
 20
4.6356287091971
 11
-2.0101958953275
 21
4.5409147839816
  0
LINE
  8
F-PTaco-JuntaSeca
  6
DIMSTYLE
 62
8
 10
-1.9721152245128
 20
4.4090616138484
 11
-2.0286368981433
 21
4.2736124481661
  0
LINE
  8
F-PTaco-JuntaSeca
  6
DIMSTYLE
 62
8
 10
-2.0101958953275
 20
4.5409147839816
 11
-1.9721152245128
 21
4.4090616138484
  0
LINE
  8
F-PTaco-JuntaSeca
  6
DIMSTYLE
 62
8
 10
-2.1306299275821
 20
4.1287557739809
 11
-2.2120320980482
 21
4.0892110515076
  0
LINE
  8
F-PTaco-JuntaSeca
  6
DIMSTYLE
 62
8
 10
-2.0286368981433
 20
4.2736124481661
 11
-2.0661643388735
 21
4.1834359443966
  0
LINE
  8
F-PTaco-JuntaSeca
  6
DIMSTYLE
 62
8
 10
-2.0661643388735
 20
4.1834359443966
 11
-2.1306299275821
 21
4.1287557739809
  0
LINE
  8
F-PTaco-JuntaSeca
  6
DIMSTYLE
 62
8
 10
-1.5316308490897
 20
4.9595532555986
 11
-2.2702789617
 21
4.5330945689466
  0
LINE
  8
F-PTaco-JuntaSeca
  6
DIMSTYLE
 62
8
 10
-2.2702789617
 20
4.9886795435118
 11
-2.2702789617
 21
4.5330945689466
  0
LINE
  8
F-PTaco-JuntaSeca
  6
DIMSTYLE
 62
8
 10
-2.0265098077292
 20
5.129419730177
 11
-2.2702789617
 21
4.9886795435118
  0
LINE
  8
F-PTaco-JuntaSeca
  6
DIMSTYLE
 62
8
 10
-2.3911229134173
 20
4.9305227657431
 11
-2.4068537346735
 21
4.9396049596299
  0
LINE
  8
F-PTaco-JuntaSeca
  6
DIMSTYLE
 62
8
 10
-2.4068537346735
 20
4.9396049596299
 11
-2.6456057856339
 21
5.083730202106
  0
LINE
  8
F-PTaco-JuntaSeca
  6
DIMSTYLE
 62
8
 10
-2.6456057856339
 20
5.083730202106
 11
-2.7311494077508
 21
5.129419730177
  0
LINE
  8
F-PTaco-JuntaSeca
  6
DIMSTYLE
 62
8
 10
-2.2702789617
 20
4.9886795435118
 11
-2.4964253323824
 21
5.129419730177
  0
LINE
  8
F-PTaco-JuntaSeca
  6
DIMSTYLE
 62
8
 10
-2.2702789617
 20
4.5330945689466
 11
-2.3551363195891
 21
4.5859047924899
  0
LINE
  8
F-PTaco-JuntaSeca
  6
DIMSTYLE
 62
8
 10
-3.106433998696
 20
3.5546165805707
 11
-3.106433998696
 21
5.129419730177
  0
LINE
  8
F-PTaco-JuntaSeca
  6
DIMSTYLE
 62
8
 10
-3.106433998696
 20
5.129419730177
 11
-1.5316308490897
 21
5.129419730177
  0
LINE
  8
F-PTaco-JuntaSeca
  6
DIMSTYLE
 62
8
 10
-1.5316308490897
 20
5.129419730177
 11
-1.5316308490897
 21
3.5546165805707
  0
LINE
  8
F-PTaco-JuntaSeca
  6
DIMSTYLE
 62
8
 10
-1.5316308490897
 20
3.5546165805707
 11
-3.106433998696
 21
3.5546165805707
  0
LINE
  8
F-PTaco-JuntaSeca
  6
DIMSTYLE
 62
8
 10
-2.9534602964885
 20
4.5630783677745
 11
-2.966606658431
 21
4.5585875270424
  0
LINE
  8
F-PTaco-JuntaSeca
  6
DIMSTYLE
 62
8
 10
-2.970800249769
 20
4.5735458170007
 11
-2.9821315135101
 21
4.5696750198192
  0
LINE
  8
F-PTaco-JuntaSeca
  6
DIMSTYLE
 62
8
 10
-2.9677991239201
 20
4.1215635234511
 11
-2.9895877197751
 21
4.1141204670232
  0
LINE
  8
F-PTaco-JuntaSeca
  6
DIMSTYLE
 62
8
 10
-2.5818370156872
 20
3.8808581630362
 11
-2.1826253004012
 21
4.5723131368884
  0
LINE
  8
F-PTaco-JuntaSeca
  6
DIMSTYLE
 62
8
 10
-2.5145393043773
 20
3.9186810607778
 11
-2.1175088981606
 21
4.6063578964949
  0
LINE
  8
F-PTaco-JuntaSeca
  6
DIMSTYLE
 62
8
 10
-2.611201289822
 20
3.6194111027999
 11
-2.4108308876542
 21
3.9664628196875
  0
LINE
  8
F-PTaco-JuntaSeca
  6
DIMSTYLE
 62
8
 10
-2.6031497735557
 20
3.5546165805707
 11
-2.3414418365303
 21
4.0079080242428
  0
LINE
  8
F-PTaco-JuntaSeca
  6
DIMSTYLE
 62
8
 10
-2.4213071690866
 20
3.5546165805707
 11
-2.1598492835227
 21
4.0074749224069
  0
LINE
  8
F-PTaco-JuntaSeca
  6
DIMSTYLE
 62
8
 10
-2.3758465179693
 20
3.5546165805707
 11
-2.1587509994514
 21
3.9306370487392
  0
LINE
  8
F-PTaco-JuntaSeca
  6
DIMSTYLE
 62
8
 10
-2.5692008339983
 20
4.3572190304053
 11
-2.326606753653
 21
4.7774043031787
  0
LINE
  8
F-PTaco-JuntaSeca
  6
DIMSTYLE
 62
8
 10
-2.6006091678325
 20
4.1633044716744
 11
-2.4514207271197
 21
4.4217064308911
  0
LINE
  8
F-PTaco-JuntaSeca
  6
DIMSTYLE
 62
8
 10
-2.5946183777106
 20
4.6281551832132
 11
-2.433654522742
 21
4.9069527582009
  0
LINE
  8
F-PTaco-JuntaSeca
  6
DIMSTYLE
 62
8
 10
-2.5946183777106
 20
4.5494150257329
 11
-2.38054783143
 21
4.9201960882949
  0
LINE
  8
F-PTaco-JuntaSeca
  6
DIMSTYLE
 62
8
 10
-2.5015696947114
 20
4.3956194423437
 11
-2.33335516815
 21
4.6869755489191
  0
LINE
  8
F-PTaco-JuntaSeca
  6
DIMSTYLE
 62
8
 10
-2.5015696947114
 20
4.3956194423437
 11
-2.5666986460072
 21
4.358017224781
  0
LINE
  8
F-PTaco-JuntaSeca
  6
DIMSTYLE
 62
8
 10
-2.2453484591376
 20
4.0699726517441
 11
-1.9979433796847
 21
4.4984908194073
  0
LINE
  8
F-PTaco-JuntaSeca
  6
DIMSTYLE
 62
8
 10
-2.3541278817818
 20
4.0088360558781
 11
-2.2868301704719
 21
4.0466589536197
  0
LINE
  8
F-PTaco-JuntaSeca
  6
DIMSTYLE
 62
8
 10
-2.1797169753957
 20
4.1049095586809
 11
-1.9827850687577
 21
4.4460056266093
  0
LINE
  8
F-PTaco-JuntaSeca
  6
DIMSTYLE
 62
8
 10
-2.2868301704719
 20
4.0466589536197
 11
-2.2316633085177
 21
4.0776640284997
  0
CIRCLE
  8
F-PTaco-JuntaSeca
  6
CONTINUOUS
 62
8
 10
-2.9207839996902
 20
4.6676072357923
 40
0.0039370078740157
  0
CIRCLE
  8
F-PTaco-JuntaSeca
  6
CONTINUOUS
 62
8
 10
-2.9489703930902
 20
4.8210885554466
 40
0.0039370078740157
  0
CIRCLE
  8
F-PTaco-JuntaSeca
  6
CONTINUOUS
 62
8
 10
-2.7457076662022
 20
4.6732611177099
 40
0.0039370078740157
  0
CIRCLE
  8
F-PTaco-JuntaSeca
  6
CONTINUOUS
 62
8
 10
-2.6827441279069
 20
4.7800253782976
 40
0.0039370078740157
  0
CIRCLE
  8
F-PTaco-JuntaSeca
  6
CONTINUOUS
 62
8
 10
-3.077635014824
 20
4.7499123817216
 40
0.0039370078740157
  0
CIRCLE
  8
F-PTaco-JuntaSeca
  6
CONTINUOUS
 62
8
 10
-3.0536814948204
 20
4.985341264043
 40
0.0039370078740157
  0
CIRCLE
  8
F-PTaco-JuntaSeca
  6
CONTINUOUS
 62
8
 10
-2.9970071663072
 20
3.7401886397882
 40
0.0039370078740157
  0
CIRCLE
  8
F-PTaco-JuntaSeca
  6
CONTINUOUS
 62
8
 10
-2.9230481946169
 20
3.8196260538259
 40
0.0039370078740157
  0
CIRCLE
  8
F-PTaco-JuntaSeca
  6
CONTINUOUS
 62
8
 10
-2.7676080273484
 20
3.7375404904604
 40
0.0039370078740157
  0
CIRCLE
  8
F-PTaco-JuntaSeca
  6
CONTINUOUS
 62
8
 10
-2.7213260488039
 20
3.8854573240127
 40
0.0039370078740157
  0
CIRCLE
  8
F-PTaco-JuntaSeca
  6
CONTINUOUS
 62
8
 10
-3.0536814948204
 20
3.9743381453535
 40
0.0039370078740157
  0
CIRCLE
  8
F-PTaco-JuntaSeca
  6
CONTINUOUS
 62
8
 10
-3.0906383542546
 20
4.074258543083
 40
0.0039370078740157
  0
CIRCLE
  8
F-PTaco-JuntaSeca
  6
CONTINUOUS
 62
8
 10
-2.9477313537283
 20
4.1907952403714
 40
0.0039370078740157
  0
CIRCLE
  8
F-PTaco-JuntaSeca
  6
CONTINUOUS
 62
8
 10
-2.8784786056509
 20
4.2757485356284
 40
0.0039370078740157
  0
CIRCLE
  8
F-PTaco-JuntaSeca
  6
CONTINUOUS
 62
8
 10
-2.758236817401
 20
4.221604445957
 40
0.0039370078740157
  0
CIRCLE
  8
F-PTaco-JuntaSeca
  6
CONTINUOUS
 62
8
 10
-2.672050236225
 20
4.2695626048927
 40
0.0039370078740157
  0
CIRCLE
  8
F-PTaco-JuntaSeca
  6
CONTINUOUS
 62
8
 10
-3.0221594670761
 20
4.2790470088945
 40
0.0039370078740157
  0
CIRCLE
  8
F-PTaco-JuntaSeca
  6
CONTINUOUS
 62
8
 10
-3.0221594670761
 20
4.4857316672116
 40
0.0039370078740157
  0
CIRCLE
  8
F-PTaco-JuntaSeca
  6
CONTINUOUS
 62
8
 10
-2.776505049064
 20
4.1183396898903
 40
0.0039370078740157
  0
CIRCLE
  8
F-PTaco-JuntaSeca
  6
CONTINUOUS
 62
8
 10
-2.6943786947658
 20
4.0956390924793
 40
0.0039370078740157
  0
CIRCLE
  8
F-PTaco-JuntaSeca
  6
CONTINUOUS
 62
8
 10
-2.9051696707978
 20
4.4304198362234
 40
0.0039370078740157
  0
CIRCLE
  8
F-PTaco-JuntaSeca
  6
CONTINUOUS
 62
8
 10
-2.6889036044793
 20
4.5090084091135
 40
0.0039370078740157
  0
CIRCLE
  8
F-PTaco-JuntaSeca
  6
CONTINUOUS
 62
8
 10
-2.7682924136342
 20
4.533646315403
 40
0.0039370078740157
  0
CIRCLE
  8
F-PTaco-JuntaSeca
  6
CONTINUOUS
 62
8
 10
-3.0097162782043
 20
4.4139059803872
 40
0.0039370078740157
  0
CIRCLE
  8
F-PTaco-JuntaSeca
  6
CONTINUOUS
 62
8
 10
-3.0068174445733
 20
4.3762211431841
 40
0.0039370078740157
  0
LINE
  8
F-PTaco-JuntaSeca
  6
DIMSTYLE
 62
8
 10
-2.5996041618523
 20
4.2437853505745
 11
-2.5212006914093
 21
4.3795841448714
  0
LINE
  8
F-PTaco-JuntaSeca
  6
DIMSTYLE
 62
8
 10
-1.88851921652
 20
3.5546165805707
 11
-1.88851921652
 21
4.7535036605921
  0
LINE
  8
F-PTaco-JuntaSeca
  6
DIMSTYLE
 62
8
 10
-3.106433998696
 20
4.6366388509269
 11
-3.0466749651802
 21
4.6059807113836
  0
LINE
  8
F-PTaco-JuntaSeca
  6
DIMSTYLE
 62
8
 10
-3.106433998696
 20
4.1637750503298
 11
-3.0554531425801
 21
4.1515688270035
  0
CIRCLE
  8
F-PTaco-JuntaSeca
  6
CONTINUOUS
 62
8
 10
-3.0733790209954
 20
4.3601302145547
 40
0.0039370078740157
  0
CIRCLE
  8
F-PTaco-JuntaSeca
  6
CONTINUOUS
 62
8
 10
-3.0625778485511
 20
4.215085898875
 40
0.0039370078740157
  0
LINE
  8
F-PTaco-JuntaSeca
  6
DIMSTYLE
 62
8
 10
-2.997348752433
 20
4.0924951767837
 11
-2.9464808320375
 21
4.0525083891737
  0
LINE
  8
F-PTaco-JuntaSeca
  6
DIMSTYLE
 62
8
 10
-2.9464808320375
 20
4.0525083891737
 11
-2.8095032472478
 21
3.9843323309907
  0
LINE
  8
F-PTaco-JuntaSeca
  6
DIMSTYLE
 62
8
 10
-2.966606658431
 20
4.5585875270424
 11
-2.9723061481395
 21
4.547797004907
  0
LINE
  8
F-PTaco-JuntaSeca
  6
DIMSTYLE
 62
8
 10
-2.7727410166656
 20
4.900399438546
 11
-2.9330113906218
 21
5.0168846072461
  0
LINE
  8
F-PTaco-JuntaSeca
  6
DIMSTYLE
 62
8
 10
-2.6156701280677
 20
3.6777152724433
 11
-2.6062349856824
 21
3.5546165805707
  0
CIRCLE
  8
F-PTaco-JuntaSeca
  6
CONTINUOUS
 62
8
 10
-2.8524922019388
 20
3.6232273251682
 40
0.0039370078740157
  0
CIRCLE
  8
F-PTaco-JuntaSeca
  6
CONTINUOUS
 62
8
 10
-2.7430445502693
 20
3.6383235529846
 40
0.0039370078740157
  0
CIRCLE
  8
F-PTaco-JuntaSeca
  6
CONTINUOUS
 62
8
 10
-2.9091030562506
 20
3.9251518814978
 40
0.0039370078740157
  0
ENDSEC
  0
EOF
