  0
SECTION
  2
HEADER
  9
$EXTMIN
 10
3.8410250327015
 20
7.1584472543538
  9
$EXTMAX
 10
5.4158281823078
 20
8.7332504039601
  9
$LIMMIN
 10
0
 20
0
  9
$LIMMAX
 10
8.2677165354331
 20
11.692913385827
  0
ENDSEC
  0
SECTION
  2
TABLES
  0
TABLE
  2
LTYPE
 70
9
  0
LTYPE
  2
CONTINUOUS
  3
___________________________
 70
64
 72
65
 73
0
 40
0
  0
LTYPE
  2
HIDDEN
  3
_ _ _ _ _ _ _ _ _ _ _ _ _ _ 
 70
64
 72
65
 73
2
 49
0.25
 49
-0.125
 40
0.375
  0
LTYPE
  2
DASHED
  3
__ __ __ __ __ __ __ __ __ 
 70
64
 72
65
 73
2
 49
0.5
 49
-0.25
 40
0.75
  0
LTYPE
  2
CENTER
  3
____ _ ____ _ ____ _ ____ _ 
 70
64
 72
65
 73
4
 49
1.25
 49
-0.25
 49
0.25
 49
-0.25
 40
2
  0
LTYPE
  2
PHANTOM
  3
_____ _ _ _____ _ _ _____ _ _ 
 70
64
 72
65
 73
6
 49
1.25
 49
-0.25
 49
0.25
 49
-0.25
 49
0.25
 49
-0.25
 40
2.5
  0
LTYPE
  2
DOT
  3
...........................
 70
64
 72
65
 73
2
 49
0
 49
-0.25
 40
0.25
  0
LTYPE
  2
DASHDOT
  3
__ . __ . __ . __ . __ . __ . 
 70
64
 72
65
 73
4
 49
0.5
 49
-0.25
 49
0
 49
-0.25
 40
1
  0
LTYPE
  2
DIVIDE
  3
__ . . __ . . __ . . __ . . 
 70
64
 72
65
 73
6
 49
0.5
 49
-0.25
 49
0
 49
-0.25
 49
0
 49
-0.25
 40
1.25
  0
LTYPE
  2
BORDER
  3
__ __ . __ __ . __ __ . __ __ . 
 70
64
 72
65
 73
6
 49
0.5
 49
-0.25
 49
0.5
 49
-0.25
 49
0
 49
-0.25
 40
1.75
  0
ENDTAB
  0
TABLE
  2
LAYER
 70
1
  0
LAYER
  2
BHH-Armado
 62
7
  6
CONTINUOUS
 70
0
  0
ENDTAB
  0
TABLE
  2
STYLE
 70
5
  0
STYLE
  2
ptmarker
 70
1
 40
0
 50
0
 71
0
 41
0
 42
0
  3
ptmarks
  0
STYLE
  2
TXT
 70
0
 40
0
 50
0
 71
0
 41
0
 42
0
  3
TXT
  0
STYLE
  2
ITALIC
 70
0
 40
0
 50
0
 71
0
 41
0
 42
0
  3
ITALIC
  0
STYLE
  2
SIMPLEX
 70
0
 40
0
 50
0
 71
0
 41
0
 42
0
  3
SIMPLEX
  0
STYLE
  2
COMPLEX
 70
0
 40
0
 50
0
 71
0
 41
0
 42
0
  3
COMPLEX
  0
ENDTAB
  0
ENDSEC
  0
SECTION
  2
BLOCKS
  0
ENDSEC
  0
SECTION
  2
ENTITIES
  0
CIRCLE
  8
BHH-Armado
  6
CONTINUOUS
 62
8
 10
4.4881073820525
 20
8.2622814595021
 40
0.0039370078740157
  0
CIRCLE
  8
BHH-Armado
  6
CONTINUOUS
 62
8
 10
4.5357122910424
 20
8.2090759729839
 40
0.0039370078740157
  0
CIRCLE
  8
BHH-Armado
  6
CONTINUOUS
 62
8
 10
4.5357122910424
 20
8.2874840583791
 40
0.0039370078740157
  0
CIRCLE
  8
BHH-Armado
  6
CONTINUOUS
 62
8
 10
4.6645255741918
 20
8.2146765505121
 40
0.0039370078740157
  0
CIRCLE
  8
BHH-Armado
  6
CONTINUOUS
 62
8
 10
4.2543997471814
 20
7.7219872147135
 40
0.0039370078740157
  0
LINE
  8
BHH-Armado
  6
CONTINUOUS
 62
8
 10
4.3744627177337
 20
7.3708295560084
 11
4.2276362046924
 21
7.493185127216
  0
LINE
  8
BHH-Armado
  6
CONTINUOUS
 62
8
 10
4.3744627177337
 20
7.4099271199381
 11
4.0893428308788
 21
7.6475272130965
  0
LINE
  8
BHH-Armado
  6
CONTINUOUS
 62
8
 10
4.3744627177337
 20
7.4099271199381
 11
4.5665888150293
 21
7.5187985750723
  0
LINE
  8
BHH-Armado
  6
CONTINUOUS
 62
8
 10
4.0893428308788
 20
7.6475272130965
 11
4.2814688150293
 21
7.7563985750723
  0
LINE
  8
BHH-Armado
  6
CONTINUOUS
 62
8
 10
4.5797810150293
 20
8.1201941990723
 11
4.4244519590293
 21
8.2483379270723
  0
ARC
  8
BHH-Armado
  6
CONTINUOUS
 62
8
 10
4.6439760214545
 20
8.578221757253
 40
0.049212598425197
 50
0
 51
180
  0
LINE
  8
BHH-Armado
  6
CONTINUOUS
 62
8
 10
4.6931886198797
 20
8.5245256384149
 11
4.6931886198797
 21
8.578221757253
  0
LINE
  8
BHH-Armado
  6
CONTINUOUS
 62
8
 10
4.5947634230293
 20
8.2253304354503
 11
4.5947634230293
 21
8.578221757253
  0
LINE
  8
BHH-Armado
  6
CONTINUOUS
 62
8
 10
4.5118300070293
 20
8.0633909510723
 11
4.5118300070293
 21
7.5644309510723
  0
LINE
  8
BHH-Armado
  6
CONTINUOUS
 62
8
 10
4.3307518070293
 20
8.2142896310723
 11
4.3307518070293
 21
7.7153296310723
  0
LINE
  8
BHH-Armado
  6
CONTINUOUS
 62
8
 10
4.2814688150293
 20
8.2553585750723
 11
4.2814688150293
 21
7.7563985750723
  0
LINE
  8
BHH-Armado
  6
CONTINUOUS
 62
8
 10
4.5665888150293
 20
8.0177585750723
 11
4.5665888150293
 21
7.5187985750723
  0
LINE
  8
BHH-Armado
  6
CONTINUOUS
 62
8
 10
4.5665888150293
 20
7.5187985750723
 11
5.2793888150293
 21
7.9227185750723
  0
LINE
  8
BHH-Armado
  6
CONTINUOUS
 62
8
 10
4.2814688150293
 20
8.2553585750723
 11
4.3307518070293
 21
8.2142896310723
  0
LINE
  8
BHH-Armado
  6
CONTINUOUS
 62
8
 10
4.3801851350293
 20
8.2232534150723
 11
4.5355141910293
 21
8.0951096870723
  0
LINE
  8
BHH-Armado
  6
CONTINUOUS
 62
8
 10
4.5118300070293
 20
8.0633909510723
 11
4.5665888150293
 21
8.0177585750723
  0
LINE
  8
BHH-Armado
  6
CONTINUOUS
 62
8
 10
4.5665888150293
 20
8.0177585750723
 11
5.2793888150293
 21
8.4216785750723
  0
LINE
  8
BHH-Armado
  6
CONTINUOUS
 62
8
 10
5.2793888150293
 20
8.4216785750723
 11
5.2793888150293
 21
7.9227185750723
  0
LINE
  8
BHH-Armado
  6
CONTINUOUS
 62
8
 10
4.2814688150293
 20
8.2553585750723
 11
4.5829523994072
 21
8.4261992728865
  0
LINE
  8
BHH-Armado
  6
CONTINUOUS
 62
8
 10
4.5665888150293
 20
7.5187985750723
 11
4.5118300070293
 21
7.5644309510723
  0
LINE
  8
BHH-Armado
  6
CONTINUOUS
 62
8
 10
5.2793888150293
 20
8.4216785750723
 11
5.2246300070293
 21
8.4673109510723
  0
LINE
  8
BHH-Armado
  6
CONTINUOUS
 62
8
 10
4.6092984950293
 20
8.3530843190723
 11
4.7637009110293
 21
8.2244154950723
  0
LINE
  8
BHH-Armado
  6
CONTINUOUS
 62
8
 10
4.6521297830293
 20
8.3773553750723
 11
4.8065321990293
 21
8.2486865510723
  0
LINE
  8
BHH-Armado
  6
CONTINUOUS
 62
8
 10
4.7493857270293
 20
8.4324671270723
 11
4.9037881430293
 21
8.3037983030723
  0
LINE
  8
BHH-Armado
  6
CONTINUOUS
 62
8
 10
4.7922172310293
 20
8.4567381830723
 11
4.9466196470293
 21
8.3280693590723
  0
LINE
  8
BHH-Armado
  6
CONTINUOUS
 62
8
 10
4.9771451990293
 20
8.5615307990723
 11
5.1315476150293
 21
8.4328619750723
  0
LINE
  8
BHH-Armado
  6
CONTINUOUS
 62
8
 10
5.0214120230293
 20
8.5866153110723
 11
5.1758144390293
 21
8.4579464870723
  0
LINE
  8
BHH-Armado
  6
CONTINUOUS
 62
8
 10
4.9766712950293
 20
8.3268010070723
 11
5.1298571990293
 21
8.4136064390723
  0
LINE
  8
BHH-Armado
  6
CONTINUOUS
 62
8
 10
4.6098326630293
 20
8.1189258470723
 11
4.7620104950293
 21
8.2051599590723
  0
LINE
  8
BHH-Armado
  6
CONTINUOUS
 62
8
 10
4.8365840630293
 20
8.2474181990723
 11
4.9020977270293
 21
8.2845427670723
  0
LINE
  8
BHH-Armado
  6
CONTINUOUS
 62
8
 10
4.6551941750293
 20
8.3981401910723
 11
4.7202462470293
 21
8.4350031830723
  0
LINE
  8
BHH-Armado
  6
CONTINUOUS
 62
8
 10
4.7952816230293
 20
8.4775229990723
 11
4.9480057190293
 21
8.5640666390723
  0
LINE
  8
BHH-Armado
  6
CONTINUOUS
 62
8
 10
5.0244764150293
 20
8.6074001270723
 11
5.0435518070293
 21
8.6182096310723
  0
LINE
  8
BHH-Armado
  6
CONTINUOUS
 62
8
 10
5.2058660870293
 20
8.4566781350723
 11
5.2246300070293
 21
8.4673109510723
  0
LINE
  8
BHH-Armado
  6
CONTINUOUS
 62
8
 10
4.3307518070293
 20
8.2142896310723
 11
4.3510456550293
 21
8.2257894710723
  0
LINE
  8
BHH-Armado
  6
CONTINUOUS
 62
8
 10
4.4275163510293
 20
8.2691229590723
 11
4.5801590150293
 21
8.3556201590723
  0
LINE
  8
BHH-Armado
  6
CONTINUOUS
 62
8
 10
5.0435518070293
 20
8.6182096310723
 11
5.0435518070293
 21
8.5681654550723
  0
LINE
  8
BHH-Armado
  6
CONTINUOUS
 62
8
 10
5.0435518070293
 20
8.6182096310723
 11
4.9942688150293
 21
8.6592785750723
  0
LINE
  8
BHH-Armado
  6
CONTINUOUS
 62
8
 10
4.3801851350293
 20
7.7242934150723
 11
4.5118300070293
 21
7.6156886150723
  0
LINE
  8
BHH-Armado
  6
CONTINUOUS
 62
8
 10
4.3307518070293
 20
7.7153296310723
 11
4.3510456550293
 21
7.7268294710723
  0
LINE
  8
BHH-Armado
  6
CONTINUOUS
 62
8
 10
4.3307518070293
 20
7.7153296310723
 11
4.2814688150293
 21
7.7563985750723
  0
LINE
  8
BHH-Armado
  6
CONTINUOUS
 62
8
 10
4.939996689045
 20
7.6912988064182
 11
4.939996689045
 21
7.1923388064182
  0
LINE
  8
BHH-Armado
  6
CONTINUOUS
 62
8
 10
4.9059809410135
 20
7.672023215867
 11
4.9059809410135
 21
7.173063215867
  0
LINE
  8
BHH-Armado
  6
CONTINUOUS
 62
8
 10
4.1931809410135
 20
7.268103215867
 11
4.9059809410135
 21
7.672023215867
  0
LINE
  8
BHH-Armado
  6
CONTINUOUS
 62
8
 10
4.1931809410135
 20
7.268103215867
 11
4.1931809410135
 21
7.1584472543538
  0
LINE
  8
BHH-Armado
  6
CONTINUOUS
 62
8
 10
4.939996689045
 20
7.6912988064182
 11
5.4158281823078
 21
7.9609366526004
  0
LINE
  8
BHH-Armado
  6
CONTINUOUS
 62
8
 10
4.939996689045
 20
7.1923388064182
 11
5.4158281823078
 21
7.4619766526004
  0
LINE
  8
BHH-Armado
  6
CONTINUOUS
 62
8
 10
4.8801880677549
 20
7.1584472543538
 11
4.9059809410135
 21
7.173063215867
  0
LINE
  8
BHH-Armado
  6
CONTINUOUS
 62
8
 10
4.159165192982
 20
7.2488276253158
 11
4.159165192982
 21
7.1584472543538
  0
LINE
  8
BHH-Armado
  6
CONTINUOUS
 62
8
 10
3.9080609410135
 20
7.505703215867
 11
3.9573439330135
 21
7.464634271867
  0
LINE
  8
BHH-Armado
  6
CONTINUOUS
 62
8
 10
3.9573439330135
 20
7.464634271867
 11
3.9776377810135
 21
7.476134111867
  0
LINE
  8
BHH-Armado
  6
CONTINUOUS
 62
8
 10
4.0067772610135
 20
7.473598055867
 11
4.0631242591886
 21
7.4271127774928
  0
LINE
  8
BHH-Armado
  6
CONTINUOUS
 62
8
 10
4.1384221330135
 20
7.313735591867
 11
4.1598026770135
 21
7.325851247867
  0
LINE
  8
BHH-Armado
  6
CONTINUOUS
 62
8
 10
4.1384221330135
 20
7.313735591867
 11
4.1931809410135
 21
7.268103215867
  0
LINE
  8
BHH-Armado
  6
CONTINUOUS
 62
8
 10
5.3134045630608
 20
8.4409541656235
 11
5.3134045630608
 21
7.9419941656235
  0
LINE
  8
BHH-Armado
  6
CONTINUOUS
 62
8
 10
5.3134045630608
 20
8.4409541656235
 11
5.4158281823078
 21
8.4989942165302
  0
LINE
  8
BHH-Armado
  6
CONTINUOUS
 62
8
 10
5.3134045630608
 20
7.9419941656235
 11
5.4158281823078
 21
8.0000342165302
  0
LINE
  8
BHH-Armado
  6
CONTINUOUS
 62
8
 10
4.3744627177337
 20
7.4099271199381
 11
4.3744627177337
 21
7.3708295560084
  0
LINE
  8
BHH-Armado
  6
CONTINUOUS
 62
8
 10
4.3307518070293
 20
7.7153296310723
 11
4.2814688150293
 21
7.7563988234724
  0
LINE
  8
BHH-Armado
  6
CONTINUOUS
 62
8
 10
4.0893428308788
 20
7.6084296491667
 11
4.0893428308788
 21
7.6475272130965
  0
LINE
  8
BHH-Armado
  6
CONTINUOUS
 62
8
 10
3.904252792982
 20
7.4345491773158
 11
3.923328184982
 21
7.4453586813158
  0
LINE
  8
BHH-Armado
  6
CONTINUOUS
 62
8
 10
3.901188400982
 20
7.4137643613158
 11
3.9571992471031
 21
7.3670886039777
  0
LINE
  8
BHH-Armado
  6
CONTINUOUS
 62
8
 10
4.085642464982
 20
7.2838271853158
 11
4.104406384982
 21
7.2944600013158
  0
LINE
  8
BHH-Armado
  6
CONTINUOUS
 62
8
 10
4.159165192982
 20
7.2488276253158
 11
4.104406384982
 21
7.2944600013158
  0
LINE
  8
BHH-Armado
  6
CONTINUOUS
 62
8
 10
3.923328184982
 20
7.4453586813158
 11
3.923328184982
 21
7.3953145053158
  0
LINE
  8
BHH-Armado
  6
CONTINUOUS
 62
8
 10
3.9573439330135
 20
7.464634271867
 11
3.9573439330135
 21
7.3669680322507
  0
LINE
  8
BHH-Armado
  6
CONTINUOUS
 62
8
 10
3.9080609410135
 20
7.505703215867
 11
4.0893428308788
 21
7.6084297407171
  0
LINE
  8
BHH-Armado
  6
CONTINUOUS
 62
8
 10
5.0282845630608
 20
8.6785541656235
 11
5.0775675550608
 21
8.6374852216235
  0
LINE
  8
BHH-Armado
  6
CONTINUOUS
 62
8
 10
5.1270008830608
 20
8.6464490056235
 11
5.2823299390608
 21
8.5183052776235
  0
LINE
  8
BHH-Armado
  6
CONTINUOUS
 62
8
 10
5.2586457550608
 20
8.4865865416235
 11
5.3134045630608
 21
8.4409541656235
  0
LINE
  8
BHH-Armado
  6
CONTINUOUS
 62
8
 10
5.0282845630608
 20
8.6785541656235
 11
5.1248073365959
 21
8.7332504039601
  0
LINE
  8
BHH-Armado
  6
CONTINUOUS
 62
8
 10
5.2586457550608
 20
8.4865865416235
 11
5.2800262990608
 21
8.4987021976235
  0
LINE
  8
BHH-Armado
  6
CONTINUOUS
 62
8
 10
5.3265967630608
 20
8.5433897896235
 11
5.1712677070608
 21
8.6715335176235
  0
LINE
  8
BHH-Armado
  6
CONTINUOUS
 62
8
 10
5.3566484110608
 20
8.5421214376235
 11
5.4158281823078
 21
8.5756566441301
  0
LINE
  8
BHH-Armado
  6
CONTINUOUS
 62
8
 10
5.0775675550608
 20
8.6374852216235
 11
5.0978614030608
 21
8.6489850616235
  0
LINE
  8
BHH-Armado
  6
CONTINUOUS
 62
8
 10
5.1743320990608
 20
8.6923185496235
 11
5.2465650417271
 21
8.7332504039601
  0
LINE
  8
BHH-Armado
  6
CONTINUOUS
 62
8
 10
3.8643838951499
 20
7.1584472543538
 11
4.009633576982
 21
7.2407554893158
  0
LINE
  8
BHH-Armado
  6
CONTINUOUS
 62
8
 10
3.856921576982
 20
7.3886798493158
 11
3.9129324385317
 21
7.3420040791205
  0
LINE
  8
BHH-Armado
  6
CONTINUOUS
 62
8
 10
3.9996704206961
 20
7.1584472543538
 11
4.159165192982
 21
7.2488276253158
  0
LINE
  8
BHH-Armado
  6
CONTINUOUS
 62
8
 10
3.8410250327015
 20
7.4677162011569
 11
3.874045192982
 21
7.4864276253158
  0
LINE
  8
BHH-Armado
  6
CONTINUOUS
 62
8
 10
3.923328184982
 20
7.4453586813158
 11
3.874045192982
 21
7.4864276253158
  0
LINE
  8
BHH-Armado
  6
CONTINUOUS
 62
8
 10
5.0775675550608
 20
8.6374852216235
 11
5.0775675550608
 21
8.5398189820072
  0
LINE
  8
BHH-Armado
  6
CONTINUOUS
 62
8
 10
4.9491837688074
 20
7.1584472543538
 11
5.2793888150293
 21
7.3455634472129
  0
LINE
  8
BHH-Armado
  6
CONTINUOUS
 62
8
 10
5.2793888150293
 20
7.3455634472129
 11
5.2793888150293
 21
7.1584472543538
  0
LINE
  8
BHH-Armado
  6
CONTINUOUS
 62
8
 10
5.3134045630608
 20
7.3648390377641
 11
5.3134045630608
 21
7.1584472543538
  0
LINE
  8
BHH-Armado
  6
CONTINUOUS
 62
8
 10
5.3134045630608
 20
7.3648390377641
 11
5.4158281823078
 21
7.4228790886707
  0
LINE
  8
BHH-Armado
  6
CONTINUOUS
 62
8
 10
3.874045192982
 20
7.4864276253158
 11
3.9080609410135
 21
7.505703215867
  0
LINE
  8
BHH-Armado
  6
CONTINUOUS
 62
8
 10
3.923328184982
 20
7.4453586813158
 11
3.9573439330135
 21
7.464634271867
  0
LINE
  8
BHH-Armado
  6
CONTINUOUS
 62
8
 10
4.104406384982
 20
7.2944600013158
 11
4.1384221330135
 21
7.313735591867
  0
LINE
  8
BHH-Armado
  6
CONTINUOUS
 62
8
 10
4.159165192982
 20
7.2488276253158
 11
4.1931809410135
 21
7.268103215867
  0
LINE
  8
BHH-Armado
  6
CONTINUOUS
 62
8
 10
4.9942688150293
 20
8.6592785750723
 11
5.0282845630608
 21
8.6785541656235
  0
LINE
  8
BHH-Armado
  6
CONTINUOUS
 62
8
 10
5.0435518070293
 20
8.6182096310723
 11
5.0775675550608
 21
8.6374852216235
  0
LINE
  8
BHH-Armado
  6
CONTINUOUS
 62
8
 10
5.2246300070293
 20
8.4673109510723
 11
5.2586457550608
 21
8.4865865416235
  0
LINE
  8
BHH-Armado
  6
CONTINUOUS
 62
8
 10
5.2793888150293
 20
8.4216785750723
 11
5.3134045630608
 21
8.4409541656235
  0
LINE
  8
BHH-Armado
  6
CONTINUOUS
 62
8
 10
4.2063731410135
 20
7.370538839867
 11
4.126901077694
 21
7.4361018885835
  0
LINE
  8
BHH-Armado
  6
CONTINUOUS
 62
8
 10
4.0541084770135
 20
7.519467599867
 11
4.1386257810161
 21
7.5673605673782
  0
LINE
  8
BHH-Armado
  6
CONTINUOUS
 62
8
 10
4.2364247890135
 20
7.369270487867
 11
4.3197038783355
 21
7.4164619757563
  0
LINE
  8
BHH-Armado
  6
CONTINUOUS
 62
8
 10
3.8410250327015
 20
7.1584472543538
 11
3.8410250327015
 21
8.7332504039601
  0
LINE
  8
BHH-Armado
  6
CONTINUOUS
 62
8
 10
3.8410250327015
 20
8.7332504039601
 11
5.4158281823078
 21
8.7332504039601
  0
LINE
  8
BHH-Armado
  6
CONTINUOUS
 62
8
 10
5.4158281823078
 20
8.7332504039601
 11
5.4158281823078
 21
7.1584472543538
  0
LINE
  8
BHH-Armado
  6
CONTINUOUS
 62
8
 10
5.4158281823078
 20
7.1584472543538
 11
3.8410250327015
 21
7.1584472543538
  0
LINE
  8
BHH-Armado
  6
CONTINUOUS
 62
8
 10
3.9159532282633
 20
7.3301403169373
 11
4.2421861967201
 21
7.5150056657295
  0
LINE
  8
BHH-Armado
  6
CONTINUOUS
 62
8
 10
3.9116650334951
 20
7.3344981114176
 11
4.2378828091495
 21
7.5193548509551
  0
LINE
  8
BHH-Armado
  6
CONTINUOUS
 62
8
 10
3.9174880166287
 20
7.3242222588288
 11
4.243705060502
 21
7.5090785836903
  0
LINE
  8
BHH-Armado
  6
CONTINUOUS
 62
8
 10
3.9115003588081
 20
7.3140414812149
 11
4.2377257519258
 21
7.4989025373149
  0
LINE
  8
BHH-Armado
  6
CONTINUOUS
 62
8
 10
3.8998543925409
 20
7.3345931863924
 11
4.2260797856585
 21
7.5194542424924
  0
CIRCLE
  8
BHH-Armado
  6
CONTINUOUS
 62
8
 10
3.9056773756745
 20
7.3243173338037
 40
0.011811023622047
  0
LINE
  8
BHH-Armado
  6
CONTINUOUS
 62
8
 10
4.2082425853458
 20
7.5093464956485
 11
4.0893428308788
 21
7.6084297407171
  0
LINE
  8
BHH-Armado
  6
CONTINUOUS
 62
8
 10
4.1073910676675
 20
7.4521973022975
 11
4.0510440850135
 21
7.498682567867
  0
LINE
  8
BHH-Armado
  6
CONTINUOUS
 62
8
 10
4.0826342692151
 20
7.4110173637789
 11
4.1621063170135
 21
7.345454327867
  0
LINE
  8
BHH-Armado
  6
CONTINUOUS
 62
8
 10
3.9765928670854
 20
7.3509272359054
 11
4.055590816982
 21
7.2850955373158
  0
LINE
  8
BHH-Armado
  6
CONTINUOUS
 62
8
 10
3.932326058514
 20
7.3258427110482
 11
4.011323992982
 21
7.2600110253158
  0
POLYLINE
  8
BHH-Armado
  6
CONTINUOUS
 62
8
 70
0
 66
1
  0
VERTEX
  8
BHH-Armado
  6
CONTINUOUS
 62
8
 10
4.2278631608001
 20
7.5202771216452
  0
VERTEX
  8
BHH-Armado
  6
CONTINUOUS
 62
8
 10
4.2298518060638
 20
7.5208099775377
  0
VERTEX
  8
BHH-Armado
  6
CONTINUOUS
 62
8
 10
4.2319027687921
 20
7.5209894135257
  0
VERTEX
  8
BHH-Armado
  6
CONTINUOUS
 62
8
 10
4.2339537315205
 20
7.5208099775377
  0
VERTEX
  8
BHH-Armado
  6
CONTINUOUS
 62
8
 10
4.2359423767842
 20
7.5202771216452
  0
VERTEX
  8
BHH-Armado
  6
CONTINUOUS
 62
8
 10
4.2378082806032
 20
7.519407036405
  0
VERTEX
  8
BHH-Armado
  6
CONTINUOUS
 62
8
 10
4.2394947484341
 20
7.5182261589169
  0
VERTEX
  8
BHH-Armado
  6
CONTINUOUS
 62
8
 10
4.2409505378054
 20
7.5167703695456
  0
VERTEX
  8
BHH-Armado
  6
CONTINUOUS
 62
8
 10
4.2421314152935
 20
7.5150839017147
  0
VERTEX
  8
BHH-Armado
  6
CONTINUOUS
 62
8
 10
4.2430015005337
 20
7.5132179978957
  0
VERTEX
  8
BHH-Armado
  6
CONTINUOUS
 62
8
 10
4.2435343564261
 20
7.511229352632
  0
VERTEX
  8
BHH-Armado
  6
CONTINUOUS
 62
8
 10
4.2437137924142
 20
7.5091783899037
  0
VERTEX
  8
BHH-Armado
  6
CONTINUOUS
 62
8
 10
4.2435343564261
 20
7.5071274271753
  0
VERTEX
  8
BHH-Armado
  6
CONTINUOUS
 62
8
 10
4.2430015005337
 20
7.5051387819116
  0
VERTEX
  8
BHH-Armado
  6
CONTINUOUS
 62
8
 10
4.2421314152935
 20
7.5032728780926
  0
VERTEX
  8
BHH-Armado
  6
CONTINUOUS
 62
8
 10
4.2409505378054
 20
7.5015864102617
  0
VERTEX
  8
BHH-Armado
  6
CONTINUOUS
 62
8
 10
4.2394947484341
 20
7.5001306208904
  0
VERTEX
  8
BHH-Armado
  6
CONTINUOUS
 62
8
 10
4.2378082806032
 20
7.4989497434023
  0
SEQEND
  0
LINE
  8
BHH-Armado
  6
CONTINUOUS
 62
8
 10
4.5888579112183
 20
8.2269128125709
 11
4.5888579112183
 21
8.578221757253
  0
LINE
  8
BHH-Armado
  6
CONTINUOUS
 62
8
 10
4.5829523994072
 20
8.2371414590723
 11
4.5829523994072
 21
8.578221757253
  0
LINE
  8
BHH-Armado
  6
CONTINUOUS
 62
8
 10
4.6006689348403
 20
8.2269128125709
 11
4.6006689348403
 21
8.578221757253
  0
LINE
  8
BHH-Armado
  6
CONTINUOUS
 62
8
 10
4.6065744466513
 20
8.2371414590723
 11
4.6065744466513
 21
8.578221757253
  0
LINE
  8
BHH-Armado
  6
CONTINUOUS
 62
8
 10
4.6872831080687
 20
8.5261080155356
 11
4.6872831080687
 21
8.578221757253
  0
LINE
  8
BHH-Armado
  6
CONTINUOUS
 62
8
 10
4.6813775962576
 20
8.536336662037
 11
4.6813775962576
 21
8.578221757253
  0
LINE
  8
BHH-Armado
  6
CONTINUOUS
 62
8
 10
4.6990941316907
 20
8.5261080155356
 11
4.6990941316907
 21
8.578221757253
  0
LINE
  8
BHH-Armado
  6
CONTINUOUS
 62
8
 10
4.7049996435017
 20
8.536336662037
 11
4.7049996435017
 21
8.578221757253
  0
ARC
  8
BHH-Armado
  6
CONTINUOUS
 62
8
 10
4.6439760214545
 20
8.578221757253
 40
0.043307086614173
 50
0
 51
180
  0
ARC
  8
BHH-Armado
  6
CONTINUOUS
 62
8
 10
4.6439760214545
 20
8.578221757253
 40
0.03740157480315
 50
0
 51
180
  0
ARC
  8
BHH-Armado
  6
CONTINUOUS
 62
8
 10
4.6439760214545
 20
8.578221757253
 40
0.05511811023622
 50
0
 51
180
  0
ARC
  8
BHH-Armado
  6
CONTINUOUS
 62
8
 10
4.6439760214545
 20
8.578221757253
 40
0.061023622047244
 50
0
 51
180
  0
POLYLINE
  8
BHH-Armado
  6
CONTINUOUS
 62
8
 70
0
 66
1
  0
VERTEX
  8
BHH-Armado
  6
CONTINUOUS
 62
8
 10
4.5831318353953
 20
8.235090496344
  0
VERTEX
  8
BHH-Armado
  6
CONTINUOUS
 62
8
 10
4.5836646912877
 20
8.2331018510803
  0
VERTEX
  8
BHH-Armado
  6
CONTINUOUS
 62
8
 10
4.5845347765279
 20
8.2312359472613
  0
VERTEX
  8
BHH-Armado
  6
CONTINUOUS
 62
8
 10
4.5857156540161
 20
8.2295494794304
  0
VERTEX
  8
BHH-Armado
  6
CONTINUOUS
 62
8
 10
4.5871714433873
 20
8.2280936900591
  0
VERTEX
  8
BHH-Armado
  6
CONTINUOUS
 62
8
 10
4.5888579112183
 20
8.2269128125709
  0
VERTEX
  8
BHH-Armado
  6
CONTINUOUS
 62
8
 10
4.5907238150373
 20
8.2260427273308
  0
VERTEX
  8
BHH-Armado
  6
CONTINUOUS
 62
8
 10
4.5927124603009
 20
8.2255098714383
  0
VERTEX
  8
BHH-Armado
  6
CONTINUOUS
 62
8
 10
4.5947634230293
 20
8.2253304354503
  0
VERTEX
  8
BHH-Armado
  6
CONTINUOUS
 62
8
 10
4.5968143857576
 20
8.2255098714383
  0
VERTEX
  8
BHH-Armado
  6
CONTINUOUS
 62
8
 10
4.5988030310213
 20
8.2260427273308
  0
VERTEX
  8
BHH-Armado
  6
CONTINUOUS
 62
8
 10
4.6006689348403
 20
8.2269128125709
  0
VERTEX
  8
BHH-Armado
  6
CONTINUOUS
 62
8
 10
4.6023554026713
 20
8.2280936900591
  0
VERTEX
  8
BHH-Armado
  6
CONTINUOUS
 62
8
 10
4.6038111920425
 20
8.2295494794304
  0
VERTEX
  8
BHH-Armado
  6
CONTINUOUS
 62
8
 10
4.6049920695307
 20
8.2312359472613
  0
VERTEX
  8
BHH-Armado
  6
CONTINUOUS
 62
8
 10
4.6058621547709
 20
8.2331018510803
  0
VERTEX
  8
BHH-Armado
  6
CONTINUOUS
 62
8
 10
4.6063950106633
 20
8.235090496344
  0
VERTEX
  8
BHH-Armado
  6
CONTINUOUS
 62
8
 10
4.6065744466513
 20
8.2371414590723
  0
SEQEND
  0
LINE
  8
BHH-Armado
  6
CONTINUOUS
 62
8
 10
4.6092983850784
 20
8.3530841026914
 11
4.6065744466513
 21
8.3546246249447
  0
LINE
  8
BHH-Armado
  6
CONTINUOUS
 62
8
 10
4.5829523994072
 20
8.3566383087321
 11
4.5801589656732
 21
8.3556201460238
  0
POLYLINE
  8
BHH-Armado
  6
CONTINUOUS
 62
8
 70
0
 66
1
  0
VERTEX
  8
BHH-Armado
  6
CONTINUOUS
 62
8
 10
4.6815570322457
 20
8.5342856993086
  0
VERTEX
  8
BHH-Armado
  6
CONTINUOUS
 62
8
 10
4.6820898881381
 20
8.5322970540449
  0
VERTEX
  8
BHH-Armado
  6
CONTINUOUS
 62
8
 10
4.6829599733783
 20
8.5304311502259
  0
VERTEX
  8
BHH-Armado
  6
CONTINUOUS
 62
8
 10
4.6841408508665
 20
8.528744682395
  0
VERTEX
  8
BHH-Armado
  6
CONTINUOUS
 62
8
 10
4.6855966402377
 20
8.5272888930238
  0
VERTEX
  8
BHH-Armado
  6
CONTINUOUS
 62
8
 10
4.6872831080687
 20
8.5261080155356
  0
VERTEX
  8
BHH-Armado
  6
CONTINUOUS
 62
8
 10
4.6891490118876
 20
8.5252379302954
  0
VERTEX
  8
BHH-Armado
  6
CONTINUOUS
 62
8
 10
4.6911376571513
 20
8.524705074403
  0
VERTEX
  8
BHH-Armado
  6
CONTINUOUS
 62
8
 10
4.6931886198797
 20
8.5245256384149
  0
VERTEX
  8
BHH-Armado
  6
CONTINUOUS
 62
8
 10
4.695239582608
 20
8.524705074403
  0
VERTEX
  8
BHH-Armado
  6
CONTINUOUS
 62
8
 10
4.6972282278717
 20
8.5252379302954
  0
VERTEX
  8
BHH-Armado
  6
CONTINUOUS
 62
8
 10
4.6990941316907
 20
8.5261080155356
  0
VERTEX
  8
BHH-Armado
  6
CONTINUOUS
 62
8
 10
4.7007805995216
 20
8.5272888930238
  0
VERTEX
  8
BHH-Armado
  6
CONTINUOUS
 62
8
 10
4.7022363888929
 20
8.528744682395
  0
VERTEX
  8
BHH-Armado
  6
CONTINUOUS
 62
8
 10
4.7034172663811
 20
8.5304311502259
  0
VERTEX
  8
BHH-Armado
  6
CONTINUOUS
 62
8
 10
4.7042873516212
 20
8.5322970540449
  0
VERTEX
  8
BHH-Armado
  6
CONTINUOUS
 62
8
 10
4.7048202075137
 20
8.5342856993086
  0
VERTEX
  8
BHH-Armado
  6
CONTINUOUS
 62
8
 10
4.7049996435017
 20
8.536336662037
  0
SEQEND
  0
CIRCLE
  8
BHH-Armado
  6
CONTINUOUS
 62
8
 10
4.5833172000324
 20
8.1726722190504
 40
0.0039370078740157
  0
CIRCLE
  8
BHH-Armado
  6
CONTINUOUS
 62
8
 10
4.6421232640789
 20
8.2650817482662
 40
0.0039370078740157
  0
CIRCLE
  8
BHH-Armado
  6
CONTINUOUS
 62
8
 10
4.6309221090224
 20
8.1950745291633
 40
0.0039370078740157
  0
CIRCLE
  8
BHH-Armado
  6
CONTINUOUS
 62
8
 10
4.6981290393612
 20
8.2146765505121
 40
0.0039370078740157
  0
CIRCLE
  8
BHH-Armado
  6
CONTINUOUS
 62
8
 10
4.5385125798066
 20
8.2454797269174
 40
0.0039370078740157
  0
CIRCLE
  8
BHH-Armado
  6
CONTINUOUS
 62
8
 10
4.5569196896632
 20
8.3067577071041
 40
0.0039370078740157
  0
CIRCLE
  8
BHH-Armado
  6
CONTINUOUS
 62
8
 10
4.4909076708166
 20
8.2286779943327
 40
0.0039370078740157
  0
CIRCLE
  8
BHH-Armado
  6
CONTINUOUS
 62
8
 10
4.5917180663248
 20
8.1362684651168
 40
0.0039370078740157
  0
CIRCLE
  8
BHH-Armado
  6
CONTINUOUS
 62
8
 10
4.5777166225042
 20
8.2090759729839
 40
0.0039370078740157
  0
CIRCLE
  8
BHH-Armado
  6
CONTINUOUS
 62
8
 10
4.567427613625
 20
8.3277735550277
 40
0.0039370078740157
  0
CIRCLE
  8
BHH-Armado
  6
CONTINUOUS
 62
8
 10
4.5634871421393
 20
8.2791744067045
 40
0.0039370078740157
  0
CIRCLE
  8
BHH-Armado
  6
CONTINUOUS
 62
8
 10
4.6225942144242
 20
8.3172656310659
 40
0.0039370078740157
  0
CIRCLE
  8
BHH-Armado
  6
CONTINUOUS
 62
8
 10
4.6225942144242
 20
8.2877120949234
 40
0.0039370078740157
  0
CIRCLE
  8
BHH-Armado
  6
CONTINUOUS
 62
8
 10
4.6626574063343
 20
8.269979973238
 40
0.0039370078740157
  0
CIRCLE
  8
BHH-Armado
  6
CONTINUOUS
 62
8
 10
4.6974631726518
 20
8.2515911063049
 40
0.0039370078740157
  0
CIRCLE
  8
BHH-Armado
  6
CONTINUOUS
 62
8
 10
4.6370426098716
 20
8.2384562013527
 40
0.0039370078740157
  0
CIRCLE
  8
BHH-Armado
  6
CONTINUOUS
 62
8
 10
4.6560882220523
 20
8.1819761100582
 40
0.0039370078740157
  0
CIRCLE
  8
BHH-Armado
  6
CONTINUOUS
 62
8
 10
4.6186537429386
 20
8.1701546956012
 40
0.0039370078740157
  0
CIRCLE
  8
BHH-Armado
  6
CONTINUOUS
 62
8
 10
4.4564376667788
 20
8.2529045968001
 40
0.0039370078740157
  0
CIRCLE
  8
BHH-Armado
  6
CONTINUOUS
 62
8
 10
4.5076637960924
 20
8.2929660569043
 40
0.0039370078740157
  0
CIRCLE
  8
BHH-Armado
  6
CONTINUOUS
 62
8
 10
4.7289869445371
 20
8.2148133724387
 40
0.0039370078740157
  0
CIRCLE
  8
BHH-Armado
  6
CONTINUOUS
 62
8
 10
4.6849850129472
 20
8.1931407792675
 40
0.0039370078740157
  0
CIRCLE
  8
BHH-Armado
  6
CONTINUOUS
 62
8
 10
4.5483820014443
 20
8.1793491290677
 40
0.0039370078740157
  0
POLYLINE
  8
BHH-Armado
  6
CONTINUOUS
 62
8
 70
0
 66
1
  0
VERTEX
  8
BHH-Armado
  6
CONTINUOUS
 62
8
 10
4.7246384569852
 20
8.436603863536
  0
VERTEX
  8
BHH-Armado
  6
CONTINUOUS
 62
8
 10
4.7297260299129
 20
8.4375476792662
  0
VERTEX
  8
BHH-Armado
  6
CONTINUOUS
 62
8
 10
4.7349002030577
 20
8.4375937085471
  0
VERTEX
  8
BHH-Armado
  6
CONTINUOUS
 62
8
 10
4.7400037617869
 20
8.4367405528022
  0
VERTEX
  8
BHH-Armado
  6
CONTINUOUS
 62
8
 10
4.744881637051
 20
8.4350141347373
  0
VERTEX
  8
BHH-Armado
  6
CONTINUOUS
 62
8
 10
4.7493856170784
 20
8.4324669106914
  0
SEQEND
  0
POLYLINE
  8
BHH-Armado
  6
CONTINUOUS
 62
8
 70
0
 66
1
  0
VERTEX
  8
BHH-Armado
  6
CONTINUOUS
 62
8
 10
4.6535557263743
 20
8.3970127396309
  0
VERTEX
  8
BHH-Armado
  6
CONTINUOUS
 62
8
 10
4.6518618878231
 20
8.3953897297469
  0
VERTEX
  8
BHH-Armado
  6
CONTINUOUS
 62
8
 10
4.6504756151941
 20
8.3934972450523
  0
VERTEX
  8
BHH-Armado
  6
CONTINUOUS
 62
8
 10
4.6494390296799
 20
8.3913927877369
  0
VERTEX
  8
BHH-Armado
  6
CONTINUOUS
 62
8
 10
4.6487836274065
 20
8.3891403006712
  0
VERTEX
  8
BHH-Armado
  6
CONTINUOUS
 62
8
 10
4.6485293224406
 20
8.3868082245349
  0
VERTEX
  8
BHH-Armado
  6
CONTINUOUS
 62
8
 10
4.6486838417098
 20
8.3844674182814
  0
VERTEX
  8
BHH-Armado
  6
CONTINUOUS
 62
8
 10
4.6492424902242
 20
8.3821890061242
  0
VERTEX
  8
BHH-Armado
  6
CONTINUOUS
 62
8
 10
4.6501882937315
 20
8.3800422164637
  0
VERTEX
  8
BHH-Armado
  6
CONTINUOUS
 62
8
 10
4.6514925144708
 20
8.3780922784174
  0
SEQEND
  0
POLYLINE
  8
BHH-Armado
  6
CONTINUOUS
 62
8
 70
0
 66
1
  0
VERTEX
  8
BHH-Armado
  6
CONTINUOUS
 62
8
 10
4.9053475823359
 20
8.3021433554628
  0
VERTEX
  8
BHH-Armado
  6
CONTINUOUS
 62
8
 10
4.9064807323948
 20
8.3003886551219
  0
VERTEX
  8
BHH-Armado
  6
CONTINUOUS
 62
8
 10
4.9072919668416
 20
8.2984638431792
  0
VERTEX
  8
BHH-Armado
  6
CONTINUOUS
 62
8
 10
4.9077566367281
 20
8.2964274040716
  0
VERTEX
  8
BHH-Armado
  6
CONTINUOUS
 62
8
 10
4.9078606232949
 20
8.2943412139709
  0
VERTEX
  8
BHH-Armado
  6
CONTINUOUS
 62
8
 10
4.9076007669629
 20
8.2922686607076
  0
VERTEX
  8
BHH-Armado
  6
CONTINUOUS
 62
8
 10
4.9069849633352
 20
8.290272717764
  0
VERTEX
  8
BHH-Armado
  6
CONTINUOUS
 62
8
 10
4.9060319232934
 20
8.2884140308562
  0
VERTEX
  8
BHH-Armado
  6
CONTINUOUS
 62
8
 10
4.9047706044769
 20
8.2867490752455
  0
VERTEX
  8
BHH-Armado
  6
CONTINUOUS
 62
8
 10
4.9032393314197
 20
8.2853284397657
  0
VERTEX
  8
BHH-Armado
  6
CONTINUOUS
 62
8
 10
4.9014846310788
 20
8.2841952897068
  0
SEQEND
  0
POLYLINE
  8
BHH-Armado
  6
CONTINUOUS
 62
8
 70
0
 66
1
  0
VERTEX
  8
BHH-Armado
  6
CONTINUOUS
 62
8
 10
4.8114265168074
 20
8.2462832224789
  0
VERTEX
  8
BHH-Armado
  6
CONTINUOUS
 62
8
 10
4.8166637105813
 20
8.2447662409104
  0
VERTEX
  8
BHH-Armado
  6
CONTINUOUS
 62
8
 10
4.8220847606987
 20
8.2441817348555
  0
VERTEX
  8
BHH-Armado
  6
CONTINUOUS
 62
8
 10
4.8275249512952
 20
8.2445474642349
  0
VERTEX
  8
BHH-Armado
  6
CONTINUOUS
 62
8
 10
4.8328189849321
 20
8.2458523165465
  0
VERTEX
  8
BHH-Armado
  6
CONTINUOUS
 62
8
 10
4.8365839235778
 20
8.2474182125266
  0
SEQEND
  0
LINE
  8
BHH-Armado
  6
CONTINUOUS
 62
8
 10
4.5118300070293
 20
8.0633909510723
 11
4.5332105510293
 21
8.0755066070723
  0
POLYLINE
  8
BHH-Armado
  6
CONTINUOUS
 62
8
 70
0
 66
1
  0
VERTEX
  8
BHH-Armado
  6
CONTINUOUS
 62
8
 10
4.9523979289852
 20
8.565667319536
  0
VERTEX
  8
BHH-Armado
  6
CONTINUOUS
 62
8
 10
4.9574855019129
 20
8.5666111352662
  0
VERTEX
  8
BHH-Armado
  6
CONTINUOUS
 62
8
 10
4.9626596750577
 20
8.5666571645471
  0
VERTEX
  8
BHH-Armado
  6
CONTINUOUS
 62
8
 10
4.9677632337869
 20
8.5658040088022
  0
VERTEX
  8
BHH-Armado
  6
CONTINUOUS
 62
8
 10
4.972641109051
 20
8.5640775907373
  0
VERTEX
  8
BHH-Armado
  6
CONTINUOUS
 62
8
 10
4.9771450890784
 20
8.5615303666914
  0
SEQEND
  0
POLYLINE
  8
BHH-Armado
  6
CONTINUOUS
 62
8
 70
0
 66
1
  0
VERTEX
  8
BHH-Armado
  6
CONTINUOUS
 62
8
 10
5.1331070543359
 20
8.4312068114628
  0
VERTEX
  8
BHH-Armado
  6
CONTINUOUS
 62
8
 10
5.1342402043948
 20
8.4294521111219
  0
VERTEX
  8
BHH-Armado
  6
CONTINUOUS
 62
8
 10
5.1350514388416
 20
8.4275272991792
  0
VERTEX
  8
BHH-Armado
  6
CONTINUOUS
 62
8
 10
5.1355161087281
 20
8.4254908600716
  0
VERTEX
  8
BHH-Armado
  6
CONTINUOUS
 62
8
 10
5.1356200952949
 20
8.4234046699709
  0
VERTEX
  8
BHH-Armado
  6
CONTINUOUS
 62
8
 10
5.1353602389629
 20
8.4213321167076
  0
VERTEX
  8
BHH-Armado
  6
CONTINUOUS
 62
8
 10
5.1347444353352
 20
8.419336173764
  0
VERTEX
  8
BHH-Armado
  6
CONTINUOUS
 62
8
 10
5.1337913952934
 20
8.4174774868562
  0
VERTEX
  8
BHH-Armado
  6
CONTINUOUS
 62
8
 10
5.1325300764769
 20
8.4158125312455
  0
VERTEX
  8
BHH-Armado
  6
CONTINUOUS
 62
8
 10
5.1309988034197
 20
8.4143918957657
  0
VERTEX
  8
BHH-Armado
  6
CONTINUOUS
 62
8
 10
5.1292441030788
 20
8.4132587457068
  0
SEQEND
  0
POLYLINE
  8
BHH-Armado
  6
CONTINUOUS
 62
8
 70
0
 66
1
  0
VERTEX
  8
BHH-Armado
  6
CONTINUOUS
 62
8
 10
5.1022536130167
 20
8.6505857420872
  0
VERTEX
  8
BHH-Armado
  6
CONTINUOUS
 62
8
 10
5.1073411859444
 20
8.6515295578174
  0
VERTEX
  8
BHH-Armado
  6
CONTINUOUS
 62
8
 10
5.1125153590892
 20
8.6515755870983
  0
VERTEX
  8
BHH-Armado
  6
CONTINUOUS
 62
8
 10
5.1176189178184
 20
8.6507224313534
  0
VERTEX
  8
BHH-Armado
  6
CONTINUOUS
 62
8
 10
5.1224967930825
 20
8.6489960132884
  0
VERTEX
  8
BHH-Armado
  6
CONTINUOUS
 62
8
 10
5.1270007731099
 20
8.6464487892426
  0
SEQEND
  0
POLYLINE
  8
BHH-Armado
  6
CONTINUOUS
 62
8
 70
0
 66
1
  0
VERTEX
  8
BHH-Armado
  6
CONTINUOUS
 62
8
 10
5.2829627383674
 20
8.5161252340139
  0
VERTEX
  8
BHH-Armado
  6
CONTINUOUS
 62
8
 10
5.2840958884263
 20
8.514370533673
  0
VERTEX
  8
BHH-Armado
  6
CONTINUOUS
 62
8
 10
5.2849071228731
 20
8.5124457217303
  0
VERTEX
  8
BHH-Armado
  6
CONTINUOUS
 62
8
 10
5.2853717927596
 20
8.5104092826228
  0
VERTEX
  8
BHH-Armado
  6
CONTINUOUS
 62
8
 10
5.2854757793264
 20
8.5083230925221
  0
VERTEX
  8
BHH-Armado
  6
CONTINUOUS
 62
8
 10
5.2852159229944
 20
8.5062505392588
  0
VERTEX
  8
BHH-Armado
  6
CONTINUOUS
 62
8
 10
5.2846001193667
 20
8.5042545963151
  0
VERTEX
  8
BHH-Armado
  6
CONTINUOUS
 62
8
 10
5.2836470793249
 20
8.5023959094074
  0
VERTEX
  8
BHH-Armado
  6
CONTINUOUS
 62
8
 10
5.2823857605084
 20
8.5007309537967
  0
VERTEX
  8
BHH-Armado
  6
CONTINUOUS
 62
8
 10
5.2808544874512
 20
8.4993103183168
  0
VERTEX
  8
BHH-Armado
  6
CONTINUOUS
 62
8
 10
5.2790997871103
 20
8.498177168258
  0
SEQEND
  0
POLYLINE
  8
BHH-Armado
  6
CONTINUOUS
 62
8
 70
0
 66
1
  0
VERTEX
  8
BHH-Armado
  6
CONTINUOUS
 62
8
 10
4.3554378649852
 20
8.227390151536
  0
VERTEX
  8
BHH-Armado
  6
CONTINUOUS
 62
8
 10
4.3605254379129
 20
8.2283339672662
  0
VERTEX
  8
BHH-Armado
  6
CONTINUOUS
 62
8
 10
4.3656996110577
 20
8.2283799965471
  0
VERTEX
  8
BHH-Armado
  6
CONTINUOUS
 62
8
 10
4.3708031697869
 20
8.2275268408022
  0
VERTEX
  8
BHH-Armado
  6
CONTINUOUS
 62
8
 10
4.375681045051
 20
8.2258004227373
  0
VERTEX
  8
BHH-Armado
  6
CONTINUOUS
 62
8
 10
4.3801850250784
 20
8.2232531986914
  0
SEQEND
  0
POLYLINE
  8
BHH-Armado
  6
CONTINUOUS
 62
8
 70
0
 66
1
  0
VERTEX
  8
BHH-Armado
  6
CONTINUOUS
 62
8
 10
4.5361469903359
 20
8.0929296434628
  0
VERTEX
  8
BHH-Armado
  6
CONTINUOUS
 62
8
 10
4.5372801403948
 20
8.0911749431219
  0
VERTEX
  8
BHH-Armado
  6
CONTINUOUS
 62
8
 10
4.5380913748416
 20
8.0892501311792
  0
VERTEX
  8
BHH-Armado
  6
CONTINUOUS
 62
8
 10
4.5385560447281
 20
8.0872136920716
  0
VERTEX
  8
BHH-Armado
  6
CONTINUOUS
 62
8
 10
4.5386600312949
 20
8.0851275019709
  0
VERTEX
  8
BHH-Armado
  6
CONTINUOUS
 62
8
 10
4.5384001749629
 20
8.0830549487076
  0
VERTEX
  8
BHH-Armado
  6
CONTINUOUS
 62
8
 10
4.5377843713352
 20
8.081059005764
  0
VERTEX
  8
BHH-Armado
  6
CONTINUOUS
 62
8
 10
4.5368313312934
 20
8.0792003188562
  0
VERTEX
  8
BHH-Armado
  6
CONTINUOUS
 62
8
 10
4.5355700124769
 20
8.0775353632455
  0
VERTEX
  8
BHH-Armado
  6
CONTINUOUS
 62
8
 10
4.5340387394197
 20
8.0761147277657
  0
VERTEX
  8
BHH-Armado
  6
CONTINUOUS
 62
8
 10
4.5322840390788
 20
8.0749815777068
  0
SEQEND
  0
POLYLINE
  8
BHH-Armado
  6
CONTINUOUS
 62
8
 70
0
 66
1
  0
VERTEX
  8
BHH-Armado
  6
CONTINUOUS
 62
8
 10
4.3554378649852
 20
7.728430151536
  0
VERTEX
  8
BHH-Armado
  6
CONTINUOUS
 62
8
 10
4.3605254379129
 20
7.7293739672662
  0
VERTEX
  8
BHH-Armado
  6
CONTINUOUS
 62
8
 10
4.3656996110577
 20
7.7294199965471
  0
VERTEX
  8
BHH-Armado
  6
CONTINUOUS
 62
8
 10
4.3708031697869
 20
7.7285668408022
  0
VERTEX
  8
BHH-Armado
  6
CONTINUOUS
 62
8
 10
4.375681045051
 20
7.7268404227373
  0
VERTEX
  8
BHH-Armado
  6
CONTINUOUS
 62
8
 10
4.3801850250784
 20
7.7242931986914
  0
SEQEND
  0
POLYLINE
  8
BHH-Armado
  6
CONTINUOUS
 62
8
 70
0
 66
1
  0
VERTEX
  8
BHH-Armado
  6
CONTINUOUS
 62
8
 10
4.0128834322887
 20
7.2583560777063
  0
VERTEX
  8
BHH-Armado
  6
CONTINUOUS
 62
8
 10
4.0140165823476
 20
7.2566013773654
  0
VERTEX
  8
BHH-Armado
  6
CONTINUOUS
 62
8
 10
4.0148278167944
 20
7.2546765654227
  0
VERTEX
  8
BHH-Armado
  6
CONTINUOUS
 62
8
 10
4.0152924866808
 20
7.2526401263151
  0
VERTEX
  8
BHH-Armado
  6
CONTINUOUS
 62
8
 10
4.0153964732477
 20
7.2505539362144
  0
VERTEX
  8
BHH-Armado
  6
CONTINUOUS
 62
8
 10
4.0151366169157
 20
7.2484813829511
  0
VERTEX
  8
BHH-Armado
  6
CONTINUOUS
 62
8
 10
4.014520813288
 20
7.2464854400075
  0
VERTEX
  8
BHH-Armado
  6
CONTINUOUS
 62
8
 10
4.0135677732462
 20
7.2446267530997
  0
VERTEX
  8
BHH-Armado
  6
CONTINUOUS
 62
8
 10
4.0123064544297
 20
7.242961797489
  0
VERTEX
  8
BHH-Armado
  6
CONTINUOUS
 62
8
 10
4.0107751813725
 20
7.2415411620092
  0
VERTEX
  8
BHH-Armado
  6
CONTINUOUS
 62
8
 10
4.0090204810316
 20
7.2404080119503
  0
SEQEND
  0
POLYLINE
  8
BHH-Armado
  6
CONTINUOUS
 62
8
 70
0
 66
1
  0
VERTEX
  8
BHH-Armado
  6
CONTINUOUS
 62
8
 10
3.9820299909695
 20
7.4777347923307
  0
VERTEX
  8
BHH-Armado
  6
CONTINUOUS
 62
8
 10
3.9871175638972
 20
7.4786786080609
  0
VERTEX
  8
BHH-Armado
  6
CONTINUOUS
 62
8
 10
3.992291737042
 20
7.4787246373418
  0
VERTEX
  8
BHH-Armado
  6
CONTINUOUS
 62
8
 10
3.9973952957712
 20
7.4778714815969
  0
VERTEX
  8
BHH-Armado
  6
CONTINUOUS
 62
8
 10
4.0022731710352
 20
7.4761450635319
  0
VERTEX
  8
BHH-Armado
  6
CONTINUOUS
 62
8
 10
4.0067771510627
 20
7.4735978394861
  0
SEQEND
  0
POLYLINE
  8
BHH-Armado
  6
CONTINUOUS
 62
8
 70
0
 66
1
  0
VERTEX
  8
BHH-Armado
  6
CONTINUOUS
 62
8
 10
4.1627391163202
 20
7.3432742842574
  0
VERTEX
  8
BHH-Armado
  6
CONTINUOUS
 62
8
 10
4.1638722663791
 20
7.3415195839165
  0
VERTEX
  8
BHH-Armado
  6
CONTINUOUS
 62
8
 10
4.1646835008259
 20
7.3395947719739
  0
VERTEX
  8
BHH-Armado
  6
CONTINUOUS
 62
8
 10
4.1651481707123
 20
7.3375583328663
  0
VERTEX
  8
BHH-Armado
  6
CONTINUOUS
 62
8
 10
4.1652521572792
 20
7.3354721427656
  0
VERTEX
  8
BHH-Armado
  6
CONTINUOUS
 62
8
 10
4.1649923009472
 20
7.3333995895023
  0
VERTEX
  8
BHH-Armado
  6
CONTINUOUS
 62
8
 10
4.1643764973195
 20
7.3314036465586
  0
VERTEX
  8
BHH-Armado
  6
CONTINUOUS
 62
8
 10
4.1634234572776
 20
7.3295449596509
  0
VERTEX
  8
BHH-Armado
  6
CONTINUOUS
 62
8
 10
4.1621621384612
 20
7.3278800040402
  0
VERTEX
  8
BHH-Armado
  6
CONTINUOUS
 62
8
 10
4.160630865404
 20
7.3264593685603
  0
VERTEX
  8
BHH-Armado
  6
CONTINUOUS
 62
8
 10
4.1588761650631
 20
7.3253262185015
  0
SEQEND
  0
POLYLINE
  8
BHH-Armado
  6
CONTINUOUS
 62
8
 70
0
 66
1
  0
VERTEX
  8
BHH-Armado
  6
CONTINUOUS
 62
8
 10
4.7936431743743
 20
8.4763955476309
  0
VERTEX
  8
BHH-Armado
  6
CONTINUOUS
 62
8
 10
4.7919493358231
 20
8.4747725377469
  0
VERTEX
  8
BHH-Armado
  6
CONTINUOUS
 62
8
 10
4.7905630631941
 20
8.4728800530523
  0
VERTEX
  8
BHH-Armado
  6
CONTINUOUS
 62
8
 10
4.7895264776799
 20
8.4707755957369
  0
VERTEX
  8
BHH-Armado
  6
CONTINUOUS
 62
8
 10
4.7888710754065
 20
8.4685231086712
  0
VERTEX
  8
BHH-Armado
  6
CONTINUOUS
 62
8
 10
4.7886167704406
 20
8.4661910325349
  0
VERTEX
  8
BHH-Armado
  6
CONTINUOUS
 62
8
 10
4.7887712897098
 20
8.4638502262814
  0
VERTEX
  8
BHH-Armado
  6
CONTINUOUS
 62
8
 10
4.7893299382242
 20
8.4615718141242
  0
VERTEX
  8
BHH-Armado
  6
CONTINUOUS
 62
8
 10
4.7902757417315
 20
8.4594250244637
  0
VERTEX
  8
BHH-Armado
  6
CONTINUOUS
 62
8
 10
4.7915799624708
 20
8.4574750864174
  0
SEQEND
  0
POLYLINE
  8
BHH-Armado
  6
CONTINUOUS
 62
8
 70
0
 66
1
  0
VERTEX
  8
BHH-Armado
  6
CONTINUOUS
 62
8
 10
4.9515139648074
 20
8.3256660304789
  0
VERTEX
  8
BHH-Armado
  6
CONTINUOUS
 62
8
 10
4.9567511585813
 20
8.3241490489104
  0
VERTEX
  8
BHH-Armado
  6
CONTINUOUS
 62
8
 10
4.9621722086987
 20
8.3235645428555
  0
VERTEX
  8
BHH-Armado
  6
CONTINUOUS
 62
8
 10
4.9676123992952
 20
8.3239302722349
  0
VERTEX
  8
BHH-Armado
  6
CONTINUOUS
 62
8
 10
4.9729064329321
 20
8.3252351245465
  0
VERTEX
  8
BHH-Armado
  6
CONTINUOUS
 62
8
 10
4.9766713715778
 20
8.3268010205266
  0
SEQEND
  0
POLYLINE
  8
BHH-Armado
  6
CONTINUOUS
 62
8
 70
0
 66
1
  0
VERTEX
  8
BHH-Armado
  6
CONTINUOUS
 62
8
 10
5.0228379663743
 20
8.6062726756309
  0
VERTEX
  8
BHH-Armado
  6
CONTINUOUS
 62
8
 10
5.0211441278231
 20
8.6046496657469
  0
VERTEX
  8
BHH-Armado
  6
CONTINUOUS
 62
8
 10
5.0197578551941
 20
8.6027571810523
  0
VERTEX
  8
BHH-Armado
  6
CONTINUOUS
 62
8
 10
5.0187212696799
 20
8.6006527237369
  0
VERTEX
  8
BHH-Armado
  6
CONTINUOUS
 62
8
 10
5.0180658674065
 20
8.5984002366712
  0
VERTEX
  8
BHH-Armado
  6
CONTINUOUS
 62
8
 10
5.0178115624406
 20
8.5960681605349
  0
VERTEX
  8
BHH-Armado
  6
CONTINUOUS
 62
8
 10
5.0179660817098
 20
8.5937273542814
  0
VERTEX
  8
BHH-Armado
  6
CONTINUOUS
 62
8
 10
5.0185247302242
 20
8.5914489421242
  0
VERTEX
  8
BHH-Armado
  6
CONTINUOUS
 62
8
 10
5.0194705337315
 20
8.5893021524637
  0
VERTEX
  8
BHH-Armado
  6
CONTINUOUS
 62
8
 10
5.0207747544708
 20
8.5873522144174
  0
SEQEND
  0
POLYLINE
  8
BHH-Armado
  6
CONTINUOUS
 62
8
 70
0
 66
1
  0
VERTEX
  8
BHH-Armado
  6
CONTINUOUS
 62
8
 10
5.1807087568074
 20
8.4555431584789
  0
VERTEX
  8
BHH-Armado
  6
CONTINUOUS
 62
8
 10
5.1859459505813
 20
8.4540261769104
  0
VERTEX
  8
BHH-Armado
  6
CONTINUOUS
 62
8
 10
5.1913670006987
 20
8.4534416708555
  0
VERTEX
  8
BHH-Armado
  6
CONTINUOUS
 62
8
 10
5.1968071912952
 20
8.4538074002349
  0
VERTEX
  8
BHH-Armado
  6
CONTINUOUS
 62
8
 10
5.2021012249321
 20
8.4551122525465
  0
VERTEX
  8
BHH-Armado
  6
CONTINUOUS
 62
8
 10
5.2058661635778
 20
8.4566781485266
  0
SEQEND
  0
POLYLINE
  8
BHH-Armado
  6
CONTINUOUS
 62
8
 70
0
 66
1
  0
VERTEX
  8
BHH-Armado
  6
CONTINUOUS
 62
8
 10
5.1726936504058
 20
8.691191098182
  0
VERTEX
  8
BHH-Armado
  6
CONTINUOUS
 62
8
 10
5.1709998118546
 20
8.6895680882981
  0
VERTEX
  8
BHH-Armado
  6
CONTINUOUS
 62
8
 10
5.1696135392256
 20
8.6876756036035
  0
VERTEX
  8
BHH-Armado
  6
CONTINUOUS
 62
8
 10
5.1685769537114
 20
8.6855711462881
  0
VERTEX
  8
BHH-Armado
  6
CONTINUOUS
 62
8
 10
5.167921551438
 20
8.6833186592224
  0
VERTEX
  8
BHH-Armado
  6
CONTINUOUS
 62
8
 10
5.1676672464721
 20
8.6809865830861
  0
VERTEX
  8
BHH-Armado
  6
CONTINUOUS
 62
8
 10
5.1678217657413
 20
8.6786457768326
  0
VERTEX
  8
BHH-Armado
  6
CONTINUOUS
 62
8
 10
5.1683804142557
 20
8.6763673646754
  0
VERTEX
  8
BHH-Armado
  6
CONTINUOUS
 62
8
 10
5.169326217763
 20
8.6742205750148
  0
VERTEX
  8
BHH-Armado
  6
CONTINUOUS
 62
8
 10
5.1706304385023
 20
8.6722706369685
  0
SEQEND
  0
POLYLINE
  8
BHH-Armado
  6
CONTINUOUS
 62
8
 70
0
 66
1
  0
VERTEX
  8
BHH-Armado
  6
CONTINUOUS
 62
8
 10
5.3305644408388
 20
8.54046158103
  0
VERTEX
  8
BHH-Armado
  6
CONTINUOUS
 62
8
 10
5.3358016346127
 20
8.5389445994616
  0
VERTEX
  8
BHH-Armado
  6
CONTINUOUS
 62
8
 10
5.3412226847302
 20
8.5383600934067
  0
VERTEX
  8
BHH-Armado
  6
CONTINUOUS
 62
8
 10
5.3466628753267
 20
8.5387258227861
  0
VERTEX
  8
BHH-Armado
  6
CONTINUOUS
 62
8
 10
5.3519569089636
 20
8.5400306750977
  0
VERTEX
  8
BHH-Armado
  6
CONTINUOUS
 62
8
 10
5.3557218476093
 20
8.5415965710778
  0
SEQEND
  0
POLYLINE
  8
BHH-Armado
  6
CONTINUOUS
 62
8
 70
0
 66
1
  0
VERTEX
  8
BHH-Armado
  6
CONTINUOUS
 62
8
 10
4.4258779023743
 20
8.2679955076309
  0
VERTEX
  8
BHH-Armado
  6
CONTINUOUS
 62
8
 10
4.4241840638231
 20
8.2663724977469
  0
VERTEX
  8
BHH-Armado
  6
CONTINUOUS
 62
8
 10
4.4227977911941
 20
8.2644800130523
  0
VERTEX
  8
BHH-Armado
  6
CONTINUOUS
 62
8
 10
4.4217612056799
 20
8.2623755557369
  0
VERTEX
  8
BHH-Armado
  6
CONTINUOUS
 62
8
 10
4.4211058034065
 20
8.2601230686712
  0
VERTEX
  8
BHH-Armado
  6
CONTINUOUS
 62
8
 10
4.4208514984406
 20
8.2577909925349
  0
VERTEX
  8
BHH-Armado
  6
CONTINUOUS
 62
8
 10
4.4210060177098
 20
8.2554501862814
  0
VERTEX
  8
BHH-Armado
  6
CONTINUOUS
 62
8
 10
4.4215646662242
 20
8.2531717741242
  0
VERTEX
  8
BHH-Armado
  6
CONTINUOUS
 62
8
 10
4.4225104697315
 20
8.2510249844636
  0
VERTEX
  8
BHH-Armado
  6
CONTINUOUS
 62
8
 10
4.4238146904708
 20
8.2490750464174
  0
SEQEND
  0
POLYLINE
  8
BHH-Armado
  6
CONTINUOUS
 62
8
 70
0
 66
1
  0
VERTEX
  8
BHH-Armado
  6
CONTINUOUS
 62
8
 10
4.5837486928074
 20
8.1172659904789
  0
VERTEX
  8
BHH-Armado
  6
CONTINUOUS
 62
8
 10
4.5889858865813
 20
8.1157490089104
  0
VERTEX
  8
BHH-Armado
  6
CONTINUOUS
 62
8
 10
4.5944069366987
 20
8.1151645028555
  0
VERTEX
  8
BHH-Armado
  6
CONTINUOUS
 62
8
 10
4.5998471272952
 20
8.1155302322349
  0
VERTEX
  8
BHH-Armado
  6
CONTINUOUS
 62
8
 10
4.6051411609321
 20
8.1168350845465
  0
VERTEX
  8
BHH-Armado
  6
CONTINUOUS
 62
8
 10
4.6089060995778
 20
8.1184009805266
  0
SEQEND
  0
POLYLINE
  8
BHH-Armado
  6
CONTINUOUS
 62
8
 70
0
 66
1
  0
VERTEX
  8
BHH-Armado
  6
CONTINUOUS
 62
8
 10
4.0524700283586
 20
7.5183401484255
  0
VERTEX
  8
BHH-Armado
  6
CONTINUOUS
 62
8
 10
4.0507761898073
 20
7.5167171385416
  0
VERTEX
  8
BHH-Armado
  6
CONTINUOUS
 62
8
 10
4.0493899171784
 20
7.514824653847
  0
VERTEX
  8
BHH-Armado
  6
CONTINUOUS
 62
8
 10
4.0483533316641
 20
7.5127201965316
  0
VERTEX
  8
BHH-Armado
  6
CONTINUOUS
 62
8
 10
4.0476979293908
 20
7.5104677094659
  0
VERTEX
  8
BHH-Armado
  6
CONTINUOUS
 62
8
 10
4.0474436244249
 20
7.5081356333296
  0
VERTEX
  8
BHH-Armado
  6
CONTINUOUS
 62
8
 10
4.047598143694
 20
7.5057948270761
  0
VERTEX
  8
BHH-Armado
  6
CONTINUOUS
 62
8
 10
4.0481567922085
 20
7.5035164149189
  0
VERTEX
  8
BHH-Armado
  6
CONTINUOUS
 62
8
 10
4.0491025957158
 20
7.5013696252583
  0
VERTEX
  8
BHH-Armado
  6
CONTINUOUS
 62
8
 10
4.050406816455
 20
7.499419687212
  0
SEQEND
  0
POLYLINE
  8
BHH-Armado
  6
CONTINUOUS
 62
8
 70
0
 66
1
  0
VERTEX
  8
BHH-Armado
  6
CONTINUOUS
 62
8
 10
4.2103408187916
 20
7.3676106312735
  0
VERTEX
  8
BHH-Armado
  6
CONTINUOUS
 62
8
 10
4.2155780125655
 20
7.3660936497051
  0
VERTEX
  8
BHH-Armado
  6
CONTINUOUS
 62
8
 10
4.220999062683
 20
7.3655091436502
  0
VERTEX
  8
BHH-Armado
  6
CONTINUOUS
 62
8
 10
4.2264392532794
 20
7.3658748730296
  0
VERTEX
  8
BHH-Armado
  6
CONTINUOUS
 62
8
 10
4.2317332869164
 20
7.3671797253412
  0
VERTEX
  8
BHH-Armado
  6
CONTINUOUS
 62
8
 10
4.235498225562
 20
7.3687456213213
  0
SEQEND
  0
POLYLINE
  8
BHH-Armado
  6
CONTINUOUS
 62
8
 70
0
 66
1
  0
VERTEX
  8
BHH-Armado
  6
CONTINUOUS
 62
8
 10
3.9026143443271
 20
7.4334217258744
  0
VERTEX
  8
BHH-Armado
  6
CONTINUOUS
 62
8
 10
3.9009205057758
 20
7.4317987159904
  0
VERTEX
  8
BHH-Armado
  6
CONTINUOUS
 62
8
 10
3.8995342331469
 20
7.4299062312958
  0
VERTEX
  8
BHH-Armado
  6
CONTINUOUS
 62
8
 10
3.8984976476326
 20
7.4278017739804
  0
VERTEX
  8
BHH-Armado
  6
CONTINUOUS
 62
8
 10
3.8978422453593
 20
7.4255492869147
  0
VERTEX
  8
BHH-Armado
  6
CONTINUOUS
 62
8
 10
3.8975879403934
 20
7.4232172107784
  0
VERTEX
  8
BHH-Armado
  6
CONTINUOUS
 62
8
 10
3.8977424596625
 20
7.4208764045249
  0
VERTEX
  8
BHH-Armado
  6
CONTINUOUS
 62
8
 10
3.898301108177
 20
7.4185979923677
  0
VERTEX
  8
BHH-Armado
  6
CONTINUOUS
 62
8
 10
3.8992469116843
 20
7.4164512027072
  0
VERTEX
  8
BHH-Armado
  6
CONTINUOUS
 62
8
 10
3.9005511324235
 20
7.4145012646609
  0
SEQEND
  0
POLYLINE
  8
BHH-Armado
  6
CONTINUOUS
 62
8
 70
0
 66
1
  0
VERTEX
  8
BHH-Armado
  6
CONTINUOUS
 62
8
 10
4.0604851347601
 20
7.2826922087224
  0
VERTEX
  8
BHH-Armado
  6
CONTINUOUS
 62
8
 10
4.065722328534
 20
7.2811752271539
  0
VERTEX
  8
BHH-Armado
  6
CONTINUOUS
 62
8
 10
4.0711433786515
 20
7.280590721099
  0
VERTEX
  8
BHH-Armado
  6
CONTINUOUS
 62
8
 10
4.0765835692479
 20
7.2809564504784
  0
VERTEX
  8
BHH-Armado
  6
CONTINUOUS
 62
8
 10
4.0818776028849
 20
7.28226130279
  0
VERTEX
  8
BHH-Armado
  6
CONTINUOUS
 62
8
 10
4.0856425415305
 20
7.2838271987701
  0
SEQEND
  0
LINE
  8
BHH-Armado
  6
CONTINUOUS
 62
8
 10
4.6065744466513
 20
8.4395850996581
 11
4.9942688150293
 21
8.6592785750723
  0
CIRCLE
  8
BHH-Armado
  6
CONTINUOUS
 62
8
 10
4.4139682826682
 20
7.5789637933592
 40
0.0039370078740157
  0
CIRCLE
  8
BHH-Armado
  6
CONTINUOUS
 62
8
 10
4.2862760795331
 20
7.6350709735246
 40
0.0039370078740157
  0
CIRCLE
  8
BHH-Armado
  6
CONTINUOUS
 62
8
 10
4.1405263931264
 20
7.6447446252773
 40
0.0039370078740157
  0
CIRCLE
  8
BHH-Armado
  6
CONTINUOUS
 62
8
 10
4.2179156071477
 20
7.6150787599025
 40
0.0039370078740157
  0
CIRCLE
  8
BHH-Armado
  6
CONTINUOUS
 62
8
 10
4.3617305632038
 20
7.5815434338266
 40
0.0039370078740157
  0
CIRCLE
  8
BHH-Armado
  6
CONTINUOUS
 62
8
 10
4.3694694846059
 20
7.6879536031058
 40
0.0039370078740157
  0
CIRCLE
  8
BHH-Armado
  6
CONTINUOUS
 62
8
 10
4.4674958223662
 20
7.5886374451119
 40
0.0039370078740157
  0
CIRCLE
  8
BHH-Armado
  6
CONTINUOUS
 62
8
 10
4.4900676764557
 20
7.5409140964654
 40
0.0039370078740157
  0
CIRCLE
  8
BHH-Armado
  6
CONTINUOUS
 62
8
 10
4.4591119908472
 20
7.526081163778
 40
0.0039370078740157
  0
CIRCLE
  8
BHH-Armado
  6
CONTINUOUS
 62
8
 10
4.443634148043
 20
7.4828721859495
 40
0.0039370078740157
  0
CIRCLE
  8
BHH-Armado
  6
CONTINUOUS
 62
8
 10
4.4088090017334
 20
7.4770679948979
 40
0.0039370078740157
  0
CIRCLE
  8
BHH-Armado
  6
CONTINUOUS
 62
8
 10
4.3765634958912
 20
7.4525614104578
 40
0.0039370078740157
  0
CIRCLE
  8
BHH-Armado
  6
CONTINUOUS
 62
8
 10
4.3462527203996
 20
7.4860967365337
 40
0.0039370078740157
  0
CIRCLE
  8
BHH-Armado
  6
CONTINUOUS
 62
8
 10
4.2954865303712
 20
7.5169704954498
 40
0.0039370078740157
  0
CIRCLE
  8
BHH-Armado
  6
CONTINUOUS
 62
8
 10
4.3572161923859
 20
7.629266782473
 40
0.0039370078740157
  0
CIRCLE
  8
BHH-Armado
  6
CONTINUOUS
 62
8
 10
4.2224299779656
 20
7.5744494225413
 40
0.0039370078740157
  0
CIRCLE
  8
BHH-Armado
  6
CONTINUOUS
 62
8
 10
4.2353281803024
 20
7.6711859400679
 40
0.0039370078740157
  0
CIRCLE
  8
BHH-Armado
  6
CONTINUOUS
 62
8
 10
4.4487934289777
 20
7.6228176813046
 40
0.0039370078740157
  0
CIRCLE
  8
BHH-Armado
  6
CONTINUOUS
 62
8
 10
4.3017539223373
 20
7.5576817595034
 40
0.0039370078740157
  0
POLYLINE
  8
BHH-Armado
  6
CONTINUOUS
 62
8
 70
0
 66
1
  0
VERTEX
  8
BHH-Armado
  6
CONTINUOUS
 62
8
 10
4.7652603503359
 20
8.2227605474628
  0
VERTEX
  8
BHH-Armado
  6
CONTINUOUS
 62
8
 10
4.7663935003948
 20
8.2210058471219
  0
VERTEX
  8
BHH-Armado
  6
CONTINUOUS
 62
8
 10
4.7672047348416
 20
8.2190810351792
  0
VERTEX
  8
BHH-Armado
  6
CONTINUOUS
 62
8
 10
4.7676694047281
 20
8.2170445960716
  0
VERTEX
  8
BHH-Armado
  6
CONTINUOUS
 62
8
 10
4.7677733912949
 20
8.2149584059709
  0
VERTEX
  8
BHH-Armado
  6
CONTINUOUS
 62
8
 10
4.7675135349629
 20
8.2128858527076
  0
VERTEX
  8
BHH-Armado
  6
CONTINUOUS
 62
8
 10
4.7668977313352
 20
8.210889909764
  0
VERTEX
  8
BHH-Armado
  6
CONTINUOUS
 62
8
 10
4.7659446912934
 20
8.2090312228562
  0
VERTEX
  8
BHH-Armado
  6
CONTINUOUS
 62
8
 10
4.7646833724769
 20
8.2073662672455
  0
VERTEX
  8
BHH-Armado
  6
CONTINUOUS
 62
8
 10
4.7631520994197
 20
8.2059456317657
  0
VERTEX
  8
BHH-Armado
  6
CONTINUOUS
 62
8
 10
4.7613973990788
 20
8.2048124817068
  0
SEQEND
  0
POLYLINE
  8
BHH-Armado
  6
CONTINUOUS
 62
8
 70
0
 66
1
  0
VERTEX
  8
BHH-Armado
  6
CONTINUOUS
 62
8
 10
3.8517367687295
 20
7.3910689210773
  0
VERTEX
  8
BHH-Armado
  6
CONTINUOUS
 62
8
 10
3.8465431997462
 20
7.3928660883181
  0
VERTEX
  8
BHH-Armado
  6
CONTINUOUS
 62
8
 10
3.8410250327015
 20
7.3937646719385
  0
SEQEND
  0
ENDSEC
  0
EOF
