  0
SECTION
  2
HEADER
  9
$EXTMIN
 10
4.4291338582677
 20
9.7244094488189
  9
$EXTMAX
 10
6.003937007874
 20
11.299212598425
  9
$LIMMIN
 10
0
 20
0
  9
$LIMMAX
 10
8.2677165354331
 20
11.692913385827
  0
ENDSEC
  0
SECTION
  2
TABLES
  0
TABLE
  2
LTYPE
 70
9
  0
LTYPE
  2
CONTINUOUS
  3
___________________________
 70
64
 72
65
 73
0
 40
0
  0
LTYPE
  2
HIDDEN
  3
_ _ _ _ _ _ _ _ _ _ _ _ _ _ 
 70
64
 72
65
 73
2
 49
0.25
 49
-0.125
 40
0.375
  0
LTYPE
  2
DASHED
  3
__ __ __ __ __ __ __ __ __ 
 70
64
 72
65
 73
2
 49
0.5
 49
-0.25
 40
0.75
  0
LTYPE
  2
CENTER
  3
____ _ ____ _ ____ _ ____ _ 
 70
64
 72
65
 73
4
 49
1.25
 49
-0.25
 49
0.25
 49
-0.25
 40
2
  0
LTYPE
  2
PHANTOM
  3
_____ _ _ _____ _ _ _____ _ _ 
 70
64
 72
65
 73
6
 49
1.25
 49
-0.25
 49
0.25
 49
-0.25
 49
0.25
 49
-0.25
 40
2.5
  0
LTYPE
  2
DOT
  3
...........................
 70
64
 72
65
 73
2
 49
0
 49
-0.25
 40
0.25
  0
LTYPE
  2
DASHDOT
  3
__ . __ . __ . __ . __ . __ . 
 70
64
 72
65
 73
4
 49
0.5
 49
-0.25
 49
0
 49
-0.25
 40
1
  0
LTYPE
  2
DIVIDE
  3
__ . . __ . . __ . . __ . . 
 70
64
 72
65
 73
6
 49
0.5
 49
-0.25
 49
0
 49
-0.25
 49
0
 49
-0.25
 40
1.25
  0
LTYPE
  2
BORDER
  3
__ __ . __ __ . __ __ . __ __ . 
 70
64
 72
65
 73
6
 49
0.5
 49
-0.25
 49
0.5
 49
-0.25
 49
0
 49
-0.25
 40
1.75
  0
ENDTAB
  0
TABLE
  2
LAYER
 70
1
  0
LAYER
  2
LHD-MP
 62
7
  6
CONTINUOUS
 70
0
  0
ENDTAB
  0
TABLE
  2
STYLE
 70
5
  0
STYLE
  2
ptmarker
 70
1
 40
0
 50
0
 71
0
 41
0
 42
0
  3
ptmarks
  0
STYLE
  2
TXT
 70
0
 40
0
 50
0
 71
0
 41
0
 42
0
  3
TXT
  0
STYLE
  2
ITALIC
 70
0
 40
0
 50
0
 71
0
 41
0
 42
0
  3
ITALIC
  0
STYLE
  2
SIMPLEX
 70
0
 40
0
 50
0
 71
0
 41
0
 42
0
  3
SIMPLEX
  0
STYLE
  2
COMPLEX
 70
0
 40
0
 50
0
 71
0
 41
0
 42
0
  3
COMPLEX
  0
ENDTAB
  0
ENDSEC
  0
SECTION
  2
BLOCKS
  0
ENDSEC
  0
SECTION
  2
ENTITIES
  0
LINE
  8
LHD-MP
  6
CONTINUOUS
 62
8
 10
6.003937007874
 20
9.7244094488189
 11
4.4291338582677
 21
9.7244094488189
  0
LINE
  8
LHD-MP
  6
CONTINUOUS
 62
8
 10
6.003937007874
 20
11.299212598425
 11
6.003937007874
 21
9.7244094488189
  0
LINE
  8
LHD-MP
  6
CONTINUOUS
 62
8
 10
4.4291338582677
 20
11.299212598425
 11
6.003937007874
 21
11.299212598425
  0
LINE
  8
LHD-MP
  6
CONTINUOUS
 62
8
 10
4.4291338582677
 20
9.7244094488189
 11
4.4291338582677
 21
11.299212598425
  0
LINE
  8
LHD-MP
  6
CONTINUOUS
 62
8
 10
4.5487441724424
 20
9.9037184641944
 11
4.8593163525236
 21
9.7244094488189
  0
LINE
  8
LHD-MP
  6
CONTINUOUS
 62
8
 10
4.4291338582677
 20
9.9727755434789
 11
4.5192166133873
 21
9.9207662163119
  0
LINE
  8
LHD-MP
  6
CONTINUOUS
 62
8
 10
4.5192166133873
 20
9.7244094488189
 11
4.5192166133873
 21
9.9207662163119
  0
LINE
  8
LHD-MP
  6
CONTINUOUS
 62
8
 10
4.5487441724424
 20
9.7244094488189
 11
4.5487441724424
 21
9.9037184641944
  0
LINE
  8
LHD-MP
  6
CONTINUOUS
 62
8
 10
4.4291338582677
 20
10.006871035791
 11
4.9059794849424
 21
9.7315639565067
  0
LINE
  8
LHD-MP
  6
CONTINUOUS
 62
8
 10
4.9355070439975
 20
9.7315639565067
 11
4.9355070439975
 21
10.020700244316
  0
LINE
  8
LHD-MP
  6
CONTINUOUS
 62
8
 10
4.9059794849424
 20
9.7315639565067
 11
4.9059794849424
 21
10.037747996433
  0
LINE
  8
LHD-MP
  6
CONTINUOUS
 62
8
 10
5.2927423564975
 20
9.8485457366278
 11
5.5077526137969
 21
9.7244094488189
  0
LINE
  8
LHD-MP
  6
CONTINUOUS
 62
8
 10
4.5192166133873
 20
10.295141240863
 11
4.5192166133873
 21
10.601325280789
  0
LINE
  8
LHD-MP
  6
CONTINUOUS
 62
8
 10
4.5487441724424
 20
10.278093488745
 11
4.5487441724424
 21
10.584277528672
  0
LINE
  8
LHD-MP
  6
CONTINUOUS
 62
8
 10
5.1510119849424
 20
10.577408410861
 11
5.2425899849424
 21
10.630281160861
  0
LINE
  8
LHD-MP
  6
CONTINUOUS
 62
8
 10
5.2425899849424
 20
10.630281160861
 11
5.1510119849424
 21
10.683154285861
  0
LINE
  8
LHD-MP
  6
CONTINUOUS
 62
8
 10
5.1510119849424
 20
10.577408410861
 11
5.1510119849424
 21
10.694777035861
  0
LINE
  8
LHD-MP
  6
CONTINUOUS
 62
8
 10
5.1510119849424
 20
10.694777035861
 11
5.2425899849424
 21
10.747649785861
  0
LINE
  8
LHD-MP
  6
CONTINUOUS
 62
8
 10
5.2425899849424
 20
10.630281160861
 11
5.2425899849424
 21
10.747649785861
  0
LINE
  8
LHD-MP
  6
CONTINUOUS
 62
8
 10
4.9355070439975
 20
10.020700244316
 11
5.4486975163375
 21
9.7244094488189
  0
LINE
  8
LHD-MP
  6
CONTINUOUS
 62
8
 10
4.4291338582677
 20
10.653334607956
 11
4.5192166133873
 21
10.601325280789
  0
LINE
  8
LHD-MP
  6
CONTINUOUS
 62
8
 10
4.4291338582677
 20
10.34715056803
 11
4.5192166133873
 21
10.295141240863
  0
LINE
  8
LHD-MP
  6
CONTINUOUS
 62
8
 10
5.2632149849424
 20
10.584277420419
 11
5.6204502974424
 21
10.378027528672
  0
LINE
  8
LHD-MP
  6
CONTINUOUS
 62
8
 10
5.2632149849424
 20
10.618373020984
 11
5.2632149849424
 21
10.584277420419
  0
LINE
  8
LHD-MP
  6
CONTINUOUS
 62
8
 10
4.9059794849424
 20
10.378027420419
 11
5.2632149849424
 21
10.584277420419
  0
LINE
  8
LHD-MP
  6
CONTINUOUS
 62
8
 10
4.5487441724424
 20
10.278093488745
 11
5.2632147974424
 21
9.8655934887453
  0
LINE
  8
LHD-MP
  6
CONTINUOUS
 62
8
 10
4.5487441724424
 20
10.584277528672
 11
5.2632147974424
 21
10.171777528672
  0
LINE
  8
LHD-MP
  6
CONTINUOUS
 62
8
 10
4.9059794849424
 20
10.378027528672
 11
4.9059794849424
 21
10.412123020984
  0
LINE
  8
LHD-MP
  6
CONTINUOUS
 62
8
 10
5.2632147974424
 20
10.171777528672
 11
5.6204502974424
 21
10.378027528672
  0
LINE
  8
LHD-MP
  6
CONTINUOUS
 62
8
 10
5.2632147974424
 20
9.8655934887453
 11
5.2632147974424
 21
10.171777528672
  0
LINE
  8
LHD-MP
  6
CONTINUOUS
 62
8
 10
4.4291338582677
 20
10.313055075718
 11
4.9059794849424
 21
10.037747996433
  0
LINE
  8
LHD-MP
  6
CONTINUOUS
 62
8
 10
4.9059794849424
 20
10.412123020984
 11
4.9059794849424
 21
10.71830706091
  0
LINE
  8
LHD-MP
  6
CONTINUOUS
 62
8
 10
4.4291338582677
 20
10.687430100268
 11
4.9059794849424
 21
10.412123020984
  0
LINE
  8
LHD-MP
  6
CONTINUOUS
 62
8
 10
4.4291338582677
 20
10.993614140195
 11
4.9059794849424
 21
10.71830706091
  0
LINE
  8
LHD-MP
  6
CONTINUOUS
 62
8
 10
4.9266044849424
 20
10.447846270984
 11
4.9266044849424
 21
10.565214895984
  0
LINE
  8
LHD-MP
  6
CONTINUOUS
 62
8
 10
4.9266044849424
 20
10.565214895984
 11
5.0181832349424
 21
10.618088020984
  0
LINE
  8
LHD-MP
  6
CONTINUOUS
 62
8
 10
5.0181832349424
 20
10.500719395984
 11
4.9266044849424
 21
10.553592520984
  0
LINE
  8
LHD-MP
  6
CONTINUOUS
 62
8
 10
4.9266044849424
 20
10.447846270984
 11
5.0181832349424
 21
10.500719395984
  0
LINE
  8
LHD-MP
  6
CONTINUOUS
 62
8
 10
4.9059794849424
 20
10.412123020984
 11
5.2632149849424
 21
10.618373020984
  0
LINE
  8
LHD-MP
  6
CONTINUOUS
 62
8
 10
4.9266044849424
 20
10.58903031091
 11
5.0181824849424
 21
10.64190306091
  0
LINE
  8
LHD-MP
  6
CONTINUOUS
 62
8
 10
4.9266044849424
 20
10.58903031091
 11
4.9266044849424
 21
10.70639893591
  0
LINE
  8
LHD-MP
  6
CONTINUOUS
 62
8
 10
5.0181824849424
 20
10.64190306091
 11
4.9266044849424
 21
10.69477618591
  0
LINE
  8
LHD-MP
  6
CONTINUOUS
 62
8
 10
4.9266044849424
 20
10.70639893591
 11
5.0181824849424
 21
10.75927168591
  0
LINE
  8
LHD-MP
  6
CONTINUOUS
 62
8
 10
4.9059794849424
 20
10.71830706091
 11
5.2632149849424
 21
10.92455706091
  0
LINE
  8
LHD-MP
  6
CONTINUOUS
 62
8
 10
4.6142925205938
 20
11.299212598425
 11
5.2632149849424
 21
10.92455706091
  0
LINE
  8
LHD-MP
  6
CONTINUOUS
 62
8
 10
5.2927423564975
 20
9.8485457366278
 11
5.2927423564975
 21
10.154729776554
  0
LINE
  8
LHD-MP
  6
CONTINUOUS
 62
8
 10
5.2927423564975
 20
10.154729776554
 11
6.003937007874
 21
9.7441211616894
  0
LINE
  8
LHD-MP
  6
CONTINUOUS
 62
8
 10
5.6499778642465
 20
10.360979781028
 11
6.003937007874
 21
10.15662127889
  0
LINE
  8
LHD-MP
  6
CONTINUOUS
 62
8
 10
5.2927423564975
 20
10.154729776554
 11
5.6499778642465
 21
10.360979781028
  0
LINE
  8
LHD-MP
  6
CONTINUOUS
 62
8
 10
5.2632147974424
 20
10.171777528672
 11
5.2927423564975
 21
10.154729776554
  0
LINE
  8
LHD-MP
  6
CONTINUOUS
 62
8
 10
5.6204502974424
 20
10.378027528672
 11
5.6499778564975
 21
10.360979776554
  0
LINE
  8
LHD-MP
  6
CONTINUOUS
 62
8
 10
5.0181824849424
 20
10.500719020984
 11
5.0181824849424
 21
10.618087645984
  0
LINE
  8
LHD-MP
  6
CONTINUOUS
 62
8
 10
5.0181824849424
 20
10.64190306091
 11
5.0181824849424
 21
10.75927168591
  0
LINE
  8
LHD-MP
  6
CONTINUOUS
 62
8
 10
5.0388082349424
 20
10.512627340922
 11
5.0388082349424
 21
10.629995965922
  0
LINE
  8
LHD-MP
  6
CONTINUOUS
 62
8
 10
5.0388082349424
 20
10.629995965922
 11
5.1303869849424
 21
10.682869090922
  0
LINE
  8
LHD-MP
  6
CONTINUOUS
 62
8
 10
5.1303869849424
 20
10.565500465922
 11
5.0388082349424
 21
10.618373590922
  0
LINE
  8
LHD-MP
  6
CONTINUOUS
 62
8
 10
5.0388082349424
 20
10.512627340922
 11
5.1303869849424
 21
10.565500465922
  0
LINE
  8
LHD-MP
  6
CONTINUOUS
 62
8
 10
5.0388082349424
 20
10.653811380849
 11
5.1303862349424
 21
10.706684130849
  0
LINE
  8
LHD-MP
  6
CONTINUOUS
 62
8
 10
5.0388082349424
 20
10.653811380849
 11
5.0388082349424
 21
10.771180005849
  0
LINE
  8
LHD-MP
  6
CONTINUOUS
 62
8
 10
5.1303862349424
 20
10.706684130849
 11
5.0388082349424
 21
10.759557255849
  0
LINE
  8
LHD-MP
  6
CONTINUOUS
 62
8
 10
5.0388082349424
 20
10.771180005849
 11
5.1303862349424
 21
10.824052755849
  0
LINE
  8
LHD-MP
  6
CONTINUOUS
 62
8
 10
5.1510119849424
 20
10.718592450787
 11
5.2425899849424
 21
10.771465200787
  0
LINE
  8
LHD-MP
  6
CONTINUOUS
 62
8
 10
5.2425899849424
 20
10.771465200787
 11
5.1510119849424
 21
10.824338325787
  0
LINE
  8
LHD-MP
  6
CONTINUOUS
 62
8
 10
5.1510119849424
 20
10.718592450787
 11
5.1510119849424
 21
10.835961075787
  0
LINE
  8
LHD-MP
  6
CONTINUOUS
 62
8
 10
5.1510119849424
 20
10.835961075787
 11
5.2425899849424
 21
10.888833825787
  0
LINE
  8
LHD-MP
  6
CONTINUOUS
 62
8
 10
5.1303862349424
 20
10.565500090922
 11
5.1303862349424
 21
10.682868715922
  0
LINE
  8
LHD-MP
  6
CONTINUOUS
 62
8
 10
5.1303862349424
 20
10.706684130849
 11
5.1303862349424
 21
10.824052755849
  0
LINE
  8
LHD-MP
  6
CONTINUOUS
 62
8
 10
5.2425899849424
 20
10.771465200787
 11
5.2425899849424
 21
10.888833825787
  0
LINE
  8
LHD-MP
  6
CONTINUOUS
 62
8
 10
5.2632149849424
 20
10.618373229453
 11
5.2632149849424
 21
10.92455706091
  0
ENDSEC
  0
EOF
