  0
SECTION
  2
HEADER
  9
$EXTMIN
 10
0.77268267973018
 20
9.4798904819308
  9
$EXTMAX
 10
2.3474858293365
 20
11.054693631537
  9
$LIMMIN
 10
0
 20
0
  9
$LIMMAX
 10
8.2677165354331
 20
11.692913385827
  0
ENDSEC
  0
SECTION
  2
TABLES
  0
TABLE
  2
LTYPE
 70
9
  0
LTYPE
  2
CONTINUOUS
  3
___________________________
 70
64
 72
65
 73
0
 40
0
  0
LTYPE
  2
HIDDEN
  3
_ _ _ _ _ _ _ _ _ _ _ _ _ _ 
 70
64
 72
65
 73
2
 49
0.25
 49
-0.125
 40
0.375
  0
LTYPE
  2
DASHED
  3
__ __ __ __ __ __ __ __ __ 
 70
64
 72
65
 73
2
 49
0.5
 49
-0.25
 40
0.75
  0
LTYPE
  2
CENTER
  3
____ _ ____ _ ____ _ ____ _ 
 70
64
 72
65
 73
4
 49
1.25
 49
-0.25
 49
0.25
 49
-0.25
 40
2
  0
LTYPE
  2
PHANTOM
  3
_____ _ _ _____ _ _ _____ _ _ 
 70
64
 72
65
 73
6
 49
1.25
 49
-0.25
 49
0.25
 49
-0.25
 49
0.25
 49
-0.25
 40
2.5
  0
LTYPE
  2
DOT
  3
...........................
 70
64
 72
65
 73
2
 49
0
 49
-0.25
 40
0.25
  0
LTYPE
  2
DASHDOT
  3
__ . __ . __ . __ . __ . __ . 
 70
64
 72
65
 73
4
 49
0.5
 49
-0.25
 49
0
 49
-0.25
 40
1
  0
LTYPE
  2
DIVIDE
  3
__ . . __ . . __ . . __ . . 
 70
64
 72
65
 73
6
 49
0.5
 49
-0.25
 49
0
 49
-0.25
 49
0
 49
-0.25
 40
1.25
  0
LTYPE
  2
BORDER
  3
__ __ . __ __ . __ __ . __ __ . 
 70
64
 72
65
 73
6
 49
0.5
 49
-0.25
 49
0.5
 49
-0.25
 49
0
 49
-0.25
 40
1.75
  0
ENDTAB
  0
TABLE
  2
LAYER
 70
1
  0
LAYER
  2
LHD-Panderete
 62
7
  6
CONTINUOUS
 70
0
  0
ENDTAB
  0
TABLE
  2
STYLE
 70
5
  0
STYLE
  2
ptmarker
 70
1
 40
0
 50
0
 71
0
 41
0
 42
0
  3
ptmarks
  0
STYLE
  2
TXT
 70
0
 40
0
 50
0
 71
0
 41
0
 42
0
  3
TXT
  0
STYLE
  2
ITALIC
 70
0
 40
0
 50
0
 71
0
 41
0
 42
0
  3
ITALIC
  0
STYLE
  2
SIMPLEX
 70
0
 40
0
 50
0
 71
0
 41
0
 42
0
  3
SIMPLEX
  0
STYLE
  2
COMPLEX
 70
0
 40
0
 50
0
 71
0
 41
0
 42
0
  3
COMPLEX
  0
ENDTAB
  0
ENDSEC
  0
SECTION
  2
BLOCKS
  0
ENDSEC
  0
SECTION
  2
ENTITIES
  0
LINE
  8
LHD-Panderete
  6
CONTINUOUS
 62
8
 10
1.2495283064049
 20
9.6520449896186
 11
1.5477085214455
 21
9.4798904819308
  0
LINE
  8
LHD-Panderete
  6
CONTINUOUS
 62
8
 10
1.2495283064049
 20
9.4798904819308
 11
1.2495283064049
 21
9.6520449896186
  0
LINE
  8
LHD-Panderete
  6
CONTINUOUS
 62
8
 10
0.86276543484975
 20
9.9094382340483
 11
0.86276543484975
 21
10.356806313901
  0
LINE
  8
LHD-Panderete
  6
CONTINUOUS
 62
8
 10
0.77268267973018
 20
10.408815641068
 11
0.86276543484975
 21
10.356806313901
  0
LINE
  8
LHD-Panderete
  6
CONTINUOUS
 62
8
 10
0.77268267973018
 20
9.9614475612153
 11
0.86276543484975
 21
9.9094382340483
  0
LINE
  8
LHD-Panderete
  6
CONTINUOUS
 62
8
 10
1.4945600564049
 20
10.274977592061
 11
1.8517953689049
 21
10.068727700314
  0
LINE
  8
LHD-Panderete
  6
CONTINUOUS
 62
8
 10
1.4945600564049
 20
10.309073192626
 11
1.4945600564049
 21
10.274977592061
  0
LINE
  8
LHD-Panderete
  6
CONTINUOUS
 62
8
 10
1.2495283064049
 20
10.13350845353
 11
1.4945600564049
 21
10.274977592061
  0
LINE
  8
LHD-Panderete
  6
CONTINUOUS
 62
8
 10
0.89229299390486
 20
9.8923904819308
 11
0.89229299390486
 21
10.339758561784
  0
LINE
  8
LHD-Panderete
  6
CONTINUOUS
 62
8
 10
0.89229299390486
 20
9.8923904819308
 11
1.6067636189049
 21
9.4798904819308
  0
LINE
  8
LHD-Panderete
  6
CONTINUOUS
 62
8
 10
0.89229299390486
 20
10.339758561784
 11
1.6067636189049
 21
9.9272585617836
  0
LINE
  8
LHD-Panderete
  6
CONTINUOUS
 62
8
 10
1.2495283064049
 20
10.133508561784
 11
1.2495283064049
 21
10.167604054096
  0
LINE
  8
LHD-Panderete
  6
CONTINUOUS
 62
8
 10
1.6067636189049
 20
9.9272585617836
 11
1.8517953689049
 21
10.068727700314
  0
LINE
  8
LHD-Panderete
  6
CONTINUOUS
 62
8
 10
1.6067636189049
 20
9.4798904819308
 11
1.6067636189049
 21
9.9272585617836
  0
LINE
  8
LHD-Panderete
  6
CONTINUOUS
 62
8
 10
1.6067636189049
 20
9.4798904819308
 11
1.6067636189049
 21
9.9272585617836
  0
LINE
  8
LHD-Panderete
  6
CONTINUOUS
 62
8
 10
1.2200007473497
 20
9.4798904819308
 11
1.2200007473497
 21
9.6690927417361
  0
LINE
  8
LHD-Panderete
  6
CONTINUOUS
 62
8
 10
0.77268267973018
 20
9.927352068903
 11
1.2200007473497
 21
9.6690927417361
  0
LINE
  8
LHD-Panderete
  6
CONTINUOUS
 62
8
 10
1.2495283064049
 20
10.167604054096
 11
1.2495283064049
 21
10.614972133949
  0
LINE
  8
LHD-Panderete
  6
CONTINUOUS
 62
8
 10
0.77268267973018
 20
10.44291113338
 11
1.2495283064049
 21
10.167604054096
  0
LINE
  8
LHD-Panderete
  6
CONTINUOUS
 62
8
 10
0.77268267973018
 20
10.890279213233
 11
1.2495283064049
 21
10.614972133949
  0
LINE
  8
LHD-Panderete
  6
CONTINUOUS
 62
8
 10
1.2701533064049
 20
10.203327304096
 11
1.2701533064049
 21
10.320695929096
  0
LINE
  8
LHD-Panderete
  6
CONTINUOUS
 62
8
 10
1.2701533064049
 20
10.320695929096
 11
1.3617320564049
 21
10.373569054096
  0
LINE
  8
LHD-Panderete
  6
CONTINUOUS
 62
8
 10
1.3617320564049
 20
10.256200429096
 11
1.2701533064049
 21
10.309073554096
  0
LINE
  8
LHD-Panderete
  6
CONTINUOUS
 62
8
 10
1.2701533064049
 20
10.203327304096
 11
1.3617320564049
 21
10.256200429096
  0
LINE
  8
LHD-Panderete
  6
CONTINUOUS
 62
8
 10
1.2495283064049
 20
10.167604054096
 11
1.4945600564049
 21
10.309073192626
  0
LINE
  8
LHD-Panderete
  6
CONTINUOUS
 62
8
 10
1.2701533064049
 20
10.344511344022
 11
1.3617313064049
 21
10.397384094022
  0
LINE
  8
LHD-Panderete
  6
CONTINUOUS
 62
8
 10
1.2701533064049
 20
10.344511344022
 11
1.2701533064049
 21
10.461879969022
  0
LINE
  8
LHD-Panderete
  6
CONTINUOUS
 62
8
 10
1.3617313064049
 20
10.397384094022
 11
1.2701533064049
 21
10.450257219022
  0
LINE
  8
LHD-Panderete
  6
CONTINUOUS
 62
8
 10
1.2701533064049
 20
10.461879969022
 11
1.3617313064049
 21
10.514752719022
  0
LINE
  8
LHD-Panderete
  6
CONTINUOUS
 62
8
 10
1.2701533064049
 20
10.485695383949
 11
1.3617313064049
 21
10.538568133949
  0
LINE
  8
LHD-Panderete
  6
CONTINUOUS
 62
8
 10
1.3617313064049
 20
10.538568133949
 11
1.2701533064049
 21
10.591441258949
  0
LINE
  8
LHD-Panderete
  6
CONTINUOUS
 62
8
 10
1.2701533064049
 20
10.485695383949
 11
1.2701533064049
 21
10.603064008949
  0
LINE
  8
LHD-Panderete
  6
CONTINUOUS
 62
8
 10
1.2701533064049
 20
10.603064008949
 11
1.3617313064049
 21
10.655936758949
  0
LINE
  8
LHD-Panderete
  6
CONTINUOUS
 62
8
 10
1.2495283064049
 20
10.614972133949
 11
1.4945600564049
 21
10.756441272479
  0
LINE
  8
LHD-Panderete
  6
CONTINUOUS
 62
8
 10
0.97797178675989
 20
11.054693631537
 11
1.4945600564049
 21
10.756441272479
  0
LINE
  8
LHD-Panderete
  6
CONTINUOUS
 62
8
 10
1.63629117796
 20
9.4798904819308
 11
1.63629117796
 21
9.9102108096661
  0
LINE
  8
LHD-Panderete
  6
CONTINUOUS
 62
8
 10
1.63629117796
 20
9.9102108096661
 11
2.3474858293365
 21
9.4996021948013
  0
LINE
  8
LHD-Panderete
  6
CONTINUOUS
 62
8
 10
1.88132292796
 20
10.051679948197
 11
2.3474858293365
 21
9.7825405461143
  0
LINE
  8
LHD-Panderete
  6
CONTINUOUS
 62
8
 10
1.63629117796
 20
9.9102108096661
 11
1.881322935709
 21
10.05167995267
  0
LINE
  8
LHD-Panderete
  6
CONTINUOUS
 62
8
 10
1.6067636189049
 20
9.9272585617836
 11
1.63629117796
 21
9.9102108096661
  0
LINE
  8
LHD-Panderete
  6
CONTINUOUS
 62
8
 10
1.8517953689049
 20
10.068727700314
 11
1.88132292796
 21
10.051679948197
  0
LINE
  8
LHD-Panderete
  6
CONTINUOUS
 62
8
 10
1.3617313064049
 20
10.256200054096
 11
1.3617313064049
 21
10.373568679096
  0
LINE
  8
LHD-Panderete
  6
CONTINUOUS
 62
8
 10
1.3617313064049
 20
10.397384094022
 11
1.3617313064049
 21
10.514752719022
  0
LINE
  8
LHD-Panderete
  6
CONTINUOUS
 62
8
 10
1.3617313064049
 20
10.538568133949
 11
1.3617313064049
 21
10.655936758949
  0
LINE
  8
LHD-Panderete
  6
CONTINUOUS
 62
8
 10
1.3823570564049
 20
10.268108374034
 11
1.3823570564049
 21
10.385476999034
  0
LINE
  8
LHD-Panderete
  6
CONTINUOUS
 62
8
 10
1.3823570564049
 20
10.385476999034
 11
1.4739358064049
 21
10.438350124034
  0
LINE
  8
LHD-Panderete
  6
CONTINUOUS
 62
8
 10
1.4739358064049
 20
10.320981499034
 11
1.3823570564049
 21
10.373854624034
  0
LINE
  8
LHD-Panderete
  6
CONTINUOUS
 62
8
 10
1.3823570564049
 20
10.268108374034
 11
1.4739358064049
 21
10.320981499034
  0
LINE
  8
LHD-Panderete
  6
CONTINUOUS
 62
8
 10
1.3823570564049
 20
10.409292413961
 11
1.4739350564049
 21
10.462165163961
  0
LINE
  8
LHD-Panderete
  6
CONTINUOUS
 62
8
 10
1.3823570564049
 20
10.409292413961
 11
1.3823570564049
 21
10.526661038961
  0
LINE
  8
LHD-Panderete
  6
CONTINUOUS
 62
8
 10
1.4739350564049
 20
10.462165163961
 11
1.3823570564049
 21
10.515038288961
  0
LINE
  8
LHD-Panderete
  6
CONTINUOUS
 62
8
 10
1.3823570564049
 20
10.526661038961
 11
1.4739350564049
 21
10.579533788961
  0
LINE
  8
LHD-Panderete
  6
CONTINUOUS
 62
8
 10
1.3823570564049
 20
10.550476453887
 11
1.4739350564049
 21
10.603349203887
  0
LINE
  8
LHD-Panderete
  6
CONTINUOUS
 62
8
 10
1.4739350564049
 20
10.603349203887
 11
1.3823570564049
 21
10.656222328887
  0
LINE
  8
LHD-Panderete
  6
CONTINUOUS
 62
8
 10
1.3823570564049
 20
10.550476453887
 11
1.3823570564049
 21
10.667845078887
  0
LINE
  8
LHD-Panderete
  6
CONTINUOUS
 62
8
 10
1.3823570564049
 20
10.667845078887
 11
1.4739350564049
 21
10.720717828887
  0
LINE
  8
LHD-Panderete
  6
CONTINUOUS
 62
8
 10
1.4739350564049
 20
10.320981124034
 11
1.4739350564049
 21
10.438349749034
  0
LINE
  8
LHD-Panderete
  6
CONTINUOUS
 62
8
 10
1.4739350564049
 20
10.462165163961
 11
1.4739350564049
 21
10.579533788961
  0
LINE
  8
LHD-Panderete
  6
CONTINUOUS
 62
8
 10
1.4739350564049
 20
10.603349203887
 11
1.4739350564049
 21
10.720717828887
  0
LINE
  8
LHD-Panderete
  6
CONTINUOUS
 62
8
 10
1.4945600564049
 20
10.309073192626
 11
1.4945600564049
 21
10.756441272479
  0
LINE
  8
LHD-Panderete
  6
CONTINUOUS
 62
8
 10
0.77268267973018
 20
9.4798904819308
 11
0.77268267973018
 21
11.054693631537
  0
LINE
  8
LHD-Panderete
  6
CONTINUOUS
 62
8
 10
0.77268267973018
 20
11.054693631537
 11
2.3474858293365
 21
11.054693631537
  0
LINE
  8
LHD-Panderete
  6
CONTINUOUS
 62
8
 10
2.3474858293365
 20
11.054693631537
 11
2.3474858293365
 21
9.4798904819308
  0
LINE
  8
LHD-Panderete
  6
CONTINUOUS
 62
8
 10
2.3474858293365
 20
9.4798904819308
 11
0.77268267973018
 21
9.4798904819308
  0
ENDSEC
  0
EOF
