  0
SECTION
  2
HEADER
  9
$EXTMIN
 10
2.5590551181102
 20
7.755905511811
  9
$EXTMAX
 10
4.1338582677165
 20
9.3311908928203
  9
$LIMMIN
 10
0
 20
0
  9
$LIMMAX
 10
8.2677165354331
 20
11.692913385827
  0
ENDSEC
  0
SECTION
  2
TABLES
  0
TABLE
  2
LTYPE
 70
9
  0
LTYPE
  2
CONTINUOUS
  3
___________________________
 70
64
 72
65
 73
0
 40
0
  0
LTYPE
  2
HIDDEN
  3
_ _ _ _ _ _ _ _ _ _ _ _ _ _ 
 70
64
 72
65
 73
2
 49
0.25
 49
-0.125
 40
0.375
  0
LTYPE
  2
DASHED
  3
__ __ __ __ __ __ __ __ __ 
 70
64
 72
65
 73
2
 49
0.5
 49
-0.25
 40
0.75
  0
LTYPE
  2
CENTER
  3
____ _ ____ _ ____ _ ____ _ 
 70
64
 72
65
 73
4
 49
1.25
 49
-0.25
 49
0.25
 49
-0.25
 40
2
  0
LTYPE
  2
PHANTOM
  3
_____ _ _ _____ _ _ _____ _ _ 
 70
64
 72
65
 73
6
 49
1.25
 49
-0.25
 49
0.25
 49
-0.25
 49
0.25
 49
-0.25
 40
2.5
  0
LTYPE
  2
DOT
  3
...........................
 70
64
 72
65
 73
2
 49
0
 49
-0.25
 40
0.25
  0
LTYPE
  2
DASHDOT
  3
__ . __ . __ . __ . __ . __ . 
 70
64
 72
65
 73
4
 49
0.5
 49
-0.25
 49
0
 49
-0.25
 40
1
  0
LTYPE
  2
DIVIDE
  3
__ . . __ . . __ . . __ . . 
 70
64
 72
65
 73
6
 49
0.5
 49
-0.25
 49
0
 49
-0.25
 49
0
 49
-0.25
 40
1.25
  0
LTYPE
  2
BORDER
  3
__ __ . __ __ . __ __ . __ __ . 
 70
64
 72
65
 73
6
 49
0.5
 49
-0.25
 49
0.5
 49
-0.25
 49
0
 49
-0.25
 40
1.75
  0
ENDTAB
  0
TABLE
  2
LAYER
 70
1
  0
LAYER
  2
F-LM-CV
 62
7
  6
CONTINUOUS
 70
0
  0
ENDTAB
  0
TABLE
  2
STYLE
 70
5
  0
STYLE
  2
ptmarker
 70
1
 40
0
 50
0
 71
0
 41
0
 42
0
  3
ptmarks
  0
STYLE
  2
TXT
 70
0
 40
0
 50
0
 71
0
 41
0
 42
0
  3
TXT
  0
STYLE
  2
ITALIC
 70
0
 40
0
 50
0
 71
0
 41
0
 42
0
  3
ITALIC
  0
STYLE
  2
SIMPLEX
 70
0
 40
0
 50
0
 71
0
 41
0
 42
0
  3
SIMPLEX
  0
STYLE
  2
COMPLEX
 70
0
 40
0
 50
0
 71
0
 41
0
 42
0
  3
COMPLEX
  0
ENDTAB
  0
ENDSEC
  0
SECTION
  2
BLOCKS
  0
ENDSEC
  0
SECTION
  2
ENTITIES
  0
LINE
  8
F-LM-CV
  6
CONTINUOUS
 62
8
 10
3.2288449353183
 20
9.3307086614173
 11
3.6771817836575
 21
9.0718611406534
  0
LINE
  8
F-LM-CV
  6
DIMSTYLE
 62
8
 10
3.6771817836575
 20
9.0718611406534
 11
3.6771817836575
 21
7.755905511811
  0
LINE
  8
F-LM-CV
  6
CONTINUOUS
 62
8
 10
4.1338582677165
 20
7.755905511811
 11
2.5590551181102
 21
7.755905511811
  0
LINE
  8
F-LM-CV
  6
CONTINUOUS
 62
8
 10
4.1338582677165
 20
9.3307086614173
 11
4.1338582677165
 21
7.755905511811
  0
LINE
  8
F-LM-CV
  6
CONTINUOUS
 62
8
 10
2.5590551181102
 20
9.3307086614173
 11
4.1338582677165
 21
9.3307086614173
  0
LINE
  8
F-LM-CV
  6
CONTINUOUS
 62
8
 10
2.5590551181102
 20
7.755905511811
 11
2.5590551181102
 21
9.3307086614173
  0
LINE
  8
F-LM-CV
  6
CONTINUOUS
 62
8
 10
3.3033343364218
 20
8.1050987837674
 11
3.3033343364218
 21
8.0657288493648
  0
LINE
  8
F-LM-CV
  6
CONTINUOUS
 62
8
 10
3.3033343364218
 20
7.8457287050272
 11
3.3033343364218
 21
7.8063587706247
  0
LINE
  8
F-LM-CV
  6
CONTINUOUS
 62
8
 10
3.3033343364218
 20
7.8063587706247
 11
3.3033343364218
 21
7.755905511811
  0
LINE
  8
F-LM-CV
  6
CONTINUOUS
 62
8
 10
3.215946723627
 20
7.755905511811
 11
3.3033343364218
 21
7.8063587706247
  0
LINE
  8
F-LM-CV
  6
CONTINUOUS
 62
8
 10
3.8741400894707
 20
7.755905511811
 11
3.8741400894707
 21
7.9016719170868
  0
LINE
  8
F-LM-CV
  6
CONTINUOUS
 62
8
 10
3.8466390894707
 20
7.755905511811
 11
3.8466390894707
 21
7.8540398036553
  0
LINE
  8
F-LM-CV
  6
CONTINUOUS
 62
8
 10
3.7245350894707
 20
7.7835428036553
 11
3.8466390894707
 21
7.8540398036553
  0
LINE
  8
F-LM-CV
  6
CONTINUOUS
 62
8
 10
3.7455624761916
 20
7.755905511811
 11
3.7245350894707
 21
7.7680458036553
  0
LINE
  8
F-LM-CV
  6
CONTINUOUS
 62
8
 10
3.7245350894707
 20
7.755905511811
 11
3.7245350894707
 21
7.7835428036553
  0
LINE
  8
F-LM-CV
  6
CONTINUOUS
 62
8
 10
2.8270203364218
 20
7.755905511811
 11
2.8270203364218
 21
7.7907288493648
  0
LINE
  8
F-LM-CV
  6
CONTINUOUS
 62
8
 10
3.3033343364218
 20
7.8457287050272
 11
3.1477559929543
 21
7.755905511811
  0
LINE
  8
F-LM-CV
  6
CONTINUOUS
 62
8
 10
3.3033343364218
 20
8.0657288493648
 11
3.3033343364218
 21
7.8457287050272
  0
LINE
  8
F-LM-CV
  6
CONTINUOUS
 62
8
 10
2.8270203364218
 20
7.7907288493648
 11
3.3033343364218
 21
8.0657288493648
  0
LINE
  8
F-LM-CV
  6
CONTINUOUS
 62
8
 10
2.5590551181102
 20
7.9454386312223
 11
2.8270203364218
 21
7.7907288493648
  0
LINE
  8
F-LM-CV
  6
CONTINUOUS
 62
8
 10
2.5590551181102
 20
7.9908992816735
 11
2.8270203364218
 21
7.836189499816
  0
LINE
  8
F-LM-CV
  6
CONTINUOUS
 62
8
 10
3.8466400894707
 20
7.9630096044092
 11
3.8466400894707
 21
8.1195011044092
  0
LINE
  8
F-LM-CV
  6
CONTINUOUS
 62
8
 10
3.7245350894707
 20
7.8925121044092
 11
3.7245350894707
 21
8.0490036044092
  0
LINE
  8
F-LM-CV
  6
CONTINUOUS
 62
8
 10
3.8466400894707
 20
7.9630096044092
 11
3.7245350894707
 21
8.0335071044092
  0
LINE
  8
F-LM-CV
  6
CONTINUOUS
 62
8
 10
3.7245350894707
 20
7.8925121044092
 11
3.8466400894707
 21
7.9630096044092
  0
LINE
  8
F-LM-CV
  6
CONTINUOUS
 62
8
 10
3.8741400894707
 20
7.9471327178407
 11
3.8741400894707
 21
8.5436234909777
  0
LINE
  8
F-LM-CV
  6
CONTINUOUS
 62
8
 10
3.6970350894707
 20
7.7994203036553
 11
3.8741400894707
 21
7.9016719170868
  0
LINE
  8
F-LM-CV
  6
CONTINUOUS
 62
8
 10
3.6970350894707
 20
7.8448811044092
 11
3.8741400894707
 21
7.9471327178407
  0
LINE
  8
F-LM-CV
  6
CONTINUOUS
 62
8
 10
3.8741400894707
 20
7.9471327178407
 11
3.8741400894707
 21
7.9016719170868
  0
LINE
  8
F-LM-CV
  6
CONTINUOUS
 62
8
 10
3.6227613116289
 20
9.3307086614173
 11
3.8741400894707
 21
9.1855750648686
  0
LINE
  8
F-LM-CV
  6
CONTINUOUS
 62
8
 10
3.6970350894707
 20
8.4413718775462
 11
3.8741400894707
 21
8.5436234909777
  0
LINE
  8
F-LM-CV
  6
CONTINUOUS
 62
8
 10
3.7245350894707
 20
8.4254943775462
 11
3.8466390894707
 21
8.4959913775462
  0
LINE
  8
F-LM-CV
  6
CONTINUOUS
 62
8
 10
3.7245350894707
 20
8.2690028775462
 11
3.7245350894707
 21
8.4254943775462
  0
LINE
  8
F-LM-CV
  6
CONTINUOUS
 62
8
 10
3.8466390894707
 20
8.3394998775462
 11
3.8466390894707
 21
8.4959913775462
  0
LINE
  8
F-LM-CV
  6
CONTINUOUS
 62
8
 10
3.8466390894707
 20
8.3394998775462
 11
3.7245350894707
 21
8.4099973775462
  0
LINE
  8
F-LM-CV
  6
CONTINUOUS
 62
8
 10
3.7245350894707
 20
8.2690028775462
 11
3.8466390894707
 21
8.3394998775462
  0
LINE
  8
F-LM-CV
  6
CONTINUOUS
 62
8
 10
3.8466390894707
 20
8.1512544909777
 11
3.8466390894707
 21
8.3077459909777
  0
LINE
  8
F-LM-CV
  6
CONTINUOUS
 62
8
 10
3.7245350894707
 20
8.2372489909777
 11
3.8466390894707
 21
8.3077459909777
  0
LINE
  8
F-LM-CV
  6
CONTINUOUS
 62
8
 10
3.8466390894707
 20
8.1512544909777
 11
3.7245350894707
 21
8.2217519909777
  0
LINE
  8
F-LM-CV
  6
CONTINUOUS
 62
8
 10
3.7245350894707
 20
8.0807574909777
 11
3.7245350894707
 21
8.2372489909777
  0
LINE
  8
F-LM-CV
  6
CONTINUOUS
 62
8
 10
3.7245350894707
 20
8.0807574909777
 11
3.8466390894707
 21
8.1512544909777
  0
LINE
  8
F-LM-CV
  6
CONTINUOUS
 62
8
 10
3.7245350894707
 20
8.0490036044092
 11
3.8466400894707
 21
8.1195011044092
  0
LINE
  8
F-LM-CV
  6
CONTINUOUS
 62
8
 10
3.8741400894707
 20
8.5890842917316
 11
3.8741400894707
 21
9.1855750648686
  0
LINE
  8
F-LM-CV
  6
CONTINUOUS
 62
8
 10
3.8466400894707
 20
8.6049611783001
 11
3.8466400894707
 21
8.7614526783001
  0
LINE
  8
F-LM-CV
  6
CONTINUOUS
 62
8
 10
3.6970350894707
 20
9.0833234514371
 11
3.8741400894707
 21
9.1855750648686
  0
LINE
  8
F-LM-CV
  6
CONTINUOUS
 62
8
 10
3.7245350894707
 20
9.0674459514371
 11
3.8466390894707
 21
9.1379429514371
  0
LINE
  8
F-LM-CV
  6
CONTINUOUS
 62
8
 10
3.7245350894707
 20
8.9109544514371
 11
3.7245350894707
 21
9.0674459514371
  0
LINE
  8
F-LM-CV
  6
CONTINUOUS
 62
8
 10
3.8466390894707
 20
8.9814514514371
 11
3.8466390894707
 21
9.1379429514371
  0
LINE
  8
F-LM-CV
  6
CONTINUOUS
 62
8
 10
3.8466390894707
 20
8.9814514514371
 11
3.7245350894707
 21
9.0519489514371
  0
LINE
  8
F-LM-CV
  6
CONTINUOUS
 62
8
 10
3.7245350894707
 20
8.9109544514371
 11
3.8466390894707
 21
8.9814514514371
  0
LINE
  8
F-LM-CV
  6
CONTINUOUS
 62
8
 10
3.8466390894707
 20
8.7932060648686
 11
3.8466390894707
 21
8.9496975648686
  0
LINE
  8
F-LM-CV
  6
CONTINUOUS
 62
8
 10
3.7245350894707
 20
8.8792005648686
 11
3.8466390894707
 21
8.9496975648686
  0
LINE
  8
F-LM-CV
  6
CONTINUOUS
 62
8
 10
3.8466390894707
 20
8.7932060648686
 11
3.7245350894707
 21
8.8637035648686
  0
LINE
  8
F-LM-CV
  6
CONTINUOUS
 62
8
 10
3.7245350894707
 20
8.7227090648686
 11
3.7245350894707
 21
8.8792005648686
  0
LINE
  8
F-LM-CV
  6
CONTINUOUS
 62
8
 10
3.7245350894707
 20
8.7227090648686
 11
3.8466390894707
 21
8.7932060648686
  0
LINE
  8
F-LM-CV
  6
CONTINUOUS
 62
8
 10
3.6970350894707
 20
8.4868326783001
 11
3.8741400894707
 21
8.5890842917316
  0
LINE
  8
F-LM-CV
  6
CONTINUOUS
 62
8
 10
3.7245350894707
 20
8.5344636783001
 11
3.8466400894707
 21
8.6049611783001
  0
LINE
  8
F-LM-CV
  6
CONTINUOUS
 62
8
 10
3.8466400894707
 20
8.6049611783001
 11
3.7245350894707
 21
8.6754586783001
  0
LINE
  8
F-LM-CV
  6
CONTINUOUS
 62
8
 10
3.7245350894707
 20
8.6909551783001
 11
3.8466400894707
 21
8.7614526783001
  0
LINE
  8
F-LM-CV
  6
CONTINUOUS
 62
8
 10
3.7245350894707
 20
8.5344636783001
 11
3.7245350894707
 21
8.6909551783001
  0
LINE
  8
F-LM-CV
  6
CONTINUOUS
 62
8
 10
3.8741400894707
 20
8.5890842917316
 11
3.8741400894707
 21
8.5436234909777
  0
LINE
  8
F-LM-CV
  6
CONTINUOUS
 62
8
 10
2.5590551181102
 20
8.5157300108648
 11
2.8270203364218
 21
8.3610202290073
  0
LINE
  8
F-LM-CV
  6
CONTINUOUS
 62
8
 10
2.8270203364218
 20
8.3610202290073
 11
3.3033343364218
 21
8.6360202290073
  0
LINE
  8
F-LM-CV
  6
CONTINUOUS
 62
8
 10
2.8270203364218
 20
8.5810202290073
 11
3.3427044151619
 21
8.8787505532336
  0
LINE
  8
F-LM-CV
  6
CONTINUOUS
 62
8
 10
3.3033343364218
 20
8.8560202290073
 11
3.3033343364218
 21
8.6360202290073
  0
LINE
  8
F-LM-CV
  6
CONTINUOUS
 62
8
 10
2.8270203364218
 20
8.3610202290073
 11
2.8270203364218
 21
8.5810202290073
  0
LINE
  8
F-LM-CV
  6
CONTINUOUS
 62
8
 10
2.5590551181102
 20
9.285730236404
 11
3.3033343364218
 21
8.8560202290073
  0
LINE
  8
F-LM-CV
  6
CONTINUOUS
 62
8
 10
2.5590551181102
 20
8.7357300108648
 11
2.8270203364218
 21
8.5810202290073
  0
LINE
  8
F-LM-CV
  6
CONTINUOUS
 62
8
 10
2.5590551181102
 20
8.2502693604136
 11
2.8270203364218
 21
8.0955595785561
  0
LINE
  8
F-LM-CV
  6
CONTINUOUS
 62
8
 10
2.5590551181102
 20
8.4702693604136
 11
2.8270203364218
 21
8.3155595785561
  0
LINE
  8
F-LM-CV
  6
CONTINUOUS
 62
8
 10
2.8270203364218
 20
8.0955594342185
 11
2.8270203364218
 21
8.056189499816
  0
LINE
  8
F-LM-CV
  6
CONTINUOUS
 62
8
 10
2.8270203364218
 20
8.056189499816
 11
3.3033343364218
 21
8.331189499816
  0
LINE
  8
F-LM-CV
  6
CONTINUOUS
 62
8
 10
3.3033343364218
 20
8.3705594342185
 11
3.3033343364218
 21
8.331189499816
  0
LINE
  8
F-LM-CV
  6
CONTINUOUS
 62
8
 10
2.8270203364218
 20
8.3610202290073
 11
2.8270203364218
 21
8.3155595785561
  0
LINE
  8
F-LM-CV
  6
CONTINUOUS
 62
8
 10
3.3033343364218
 20
8.6360202290073
 11
3.3033343364218
 21
8.5905595785561
  0
LINE
  8
F-LM-CV
  6
CONTINUOUS
 62
8
 10
2.5590551181102
 20
8.2108992816735
 11
2.8270203364218
 21
8.056189499816
  0
LINE
  8
F-LM-CV
  6
CONTINUOUS
 62
8
 10
3.2685515365246
 20
9.3307086614173
 11
3.6970350894707
 21
9.0833234514371
  0
LINE
  8
F-LM-CV
  6
CONTINUOUS
 62
8
 10
2.8270203364218
 20
7.836189499816
 11
2.8270203364218
 21
8.056189499816
  0
LINE
  8
F-LM-CV
  6
CONTINUOUS
 62
8
 10
2.8270203364218
 20
7.836189499816
 11
3.3033343364218
 21
8.111189499816
  0
LINE
  8
F-LM-CV
  6
CONTINUOUS
 62
8
 10
3.3033343364218
 20
8.331189499816
 11
3.3033343364218
 21
8.111189499816
  0
POLYLINE
  8
F-LM-CV
  6
CONTINUOUS
 62
8
 70
1
 66
1
  0
VERTEX
  8
F-LM-CV
  6
CONTINUOUS
 62
8
 10
2.8270203364218
 20
8.3155595785561
  0
VERTEX
  8
F-LM-CV
  6
CONTINUOUS
 62
8
 10
3.3033343364218
 20
8.5905595785561
  0
VERTEX
  8
F-LM-CV
  6
CONTINUOUS
 62
8
 10
3.3033343364218
 20
8.3705594342185
  0
VERTEX
  8
F-LM-CV
  6
CONTINUOUS
 62
8
 10
2.8270203364218
 20
8.0955594342185
  0
VERTEX
  8
F-LM-CV
  6
CONTINUOUS
 62
8
 10
2.8270203364218
 20
8.3155595785561
  0
SEQEND
  0
LINE
  8
F-LM-CV
  6
CONTINUOUS
 62
8
 10
3.6970350894707
 20
9.0833234514371
 11
3.6970350894707
 21
7.755905511811
  0
LINE
  8
F-LM-CV
  6
CONTINUOUS
 62
8
 10
2.9535910167411
 20
9.3307086614173
 11
3.5395547882512
 21
8.9924021624652
  0
LINE
  8
F-LM-CV
  6
CONTINUOUS
 62
8
 10
3.5395547882512
 20
8.9924021624652
 11
3.6970350894707
 21
9.0833234514371
  0
LINE
  8
F-LM-CV
  6
CONTINUOUS
 62
8
 10
3.5395547882512
 20
8.9924021624652
 11
3.5395547882512
 21
7.755905511811
  0
LINE
  8
F-LM-CV
  6
DIMSTYLE
 62
8
 10
3.6222319536055
 20
9.0401358433405
 11
3.6222319536055
 21
7.755905511811
  0
LINE
  8
F-LM-CV
  6
DIMSTYLE
 62
8
 10
3.5946728984873
 20
9.0242246163821
 11
3.5946728984873
 21
7.755905511811
  0
LINE
  8
F-LM-CV
  6
DIMSTYLE
 62
8
 10
3.5671138433692
 20
9.0083133894236
 11
3.5671138433692
 21
7.755905511811
  0
LINE
  8
F-LM-CV
  6
CONTINUOUS
 62
8
 10
3.6771817836574
 20
7.8317326467521
 11
3.5458453333471
 21
7.755905511811
  0
LINE
  8
F-LM-CV
  6
CONTINUOUS
 62
8
 10
3.6771817836574
 20
7.9271271466412
 11
3.5395547882512
 21
7.8476681637957
  0
LINE
  8
F-LM-CV
  6
CONTINUOUS
 62
8
 10
3.6771817836574
 20
8.0225216465304
 11
3.5395547882511
 21
7.9430626636848
  0
LINE
  8
F-LM-CV
  6
CONTINUOUS
 62
8
 10
3.6771817836574
 20
8.1179161464195
 11
3.5395547882511
 21
8.0384571635739
  0
LINE
  8
F-LM-CV
  6
CONTINUOUS
 62
8
 10
3.6771817836574
 20
8.2133106463087
 11
3.5395547882512
 21
8.1338516634631
  0
LINE
  8
F-LM-CV
  6
CONTINUOUS
 62
8
 10
3.6771817836574
 20
8.3087051461978
 11
3.5395547882512
 21
8.2292461633522
  0
LINE
  8
F-LM-CV
  6
CONTINUOUS
 62
8
 10
3.6771817836574
 20
8.4040996460869
 11
3.5395547882512
 21
8.3246406632414
  0
LINE
  8
F-LM-CV
  6
CONTINUOUS
 62
8
 10
3.6771817836574
 20
8.499494145976
 11
3.5395547882512
 21
8.4200351631305
  0
LINE
  8
F-LM-CV
  6
CONTINUOUS
 62
8
 10
3.6771817836574
 20
8.5948886458652
 11
3.5395547882511
 21
8.5154296630196
  0
LINE
  8
F-LM-CV
  6
CONTINUOUS
 62
8
 10
3.6771817836574
 20
8.6902831457543
 11
3.5395547882511
 21
8.6108241629087
  0
LINE
  8
F-LM-CV
  6
CONTINUOUS
 62
8
 10
3.6771817836574
 20
8.7856776456434
 11
3.5395547882511
 21
8.7062186627978
  0
LINE
  8
F-LM-CV
  6
CONTINUOUS
 62
8
 10
3.6771817836574
 20
8.8810721455325
 11
3.5395547882511
 21
8.801613162687
  0
LINE
  8
F-LM-CV
  6
CONTINUOUS
 62
8
 10
3.6771817836574
 20
8.9764666454217
 11
3.5395547882511
 21
8.8970076625761
  0
LINE
  8
F-LM-CV
  6
CONTINUOUS
 62
8
 10
3.6771817836574
 20
9.0241638953662
 11
3.5395547882511
 21
8.9447049125206
  0
LINE
  8
F-LM-CV
  6
CONTINUOUS
 62
8
 10
3.6771817836574
 20
8.9287693954771
 11
3.5395547882511
 21
8.8493104126315
  0
LINE
  8
F-LM-CV
  6
CONTINUOUS
 62
8
 10
3.6771817836574
 20
7.7840353968076
 11
3.6284593936324
 21
7.755905511811
  0
LINE
  8
F-LM-CV
  6
CONTINUOUS
 62
8
 10
3.6771817836574
 20
7.8794298966967
 11
3.5395547882512
 21
7.7999709138511
  0
LINE
  8
F-LM-CV
  6
CONTINUOUS
 62
8
 10
3.6771817836574
 20
7.9748243965858
 11
3.5395547882512
 21
7.8953654137402
  0
LINE
  8
F-LM-CV
  6
CONTINUOUS
 62
8
 10
3.6771817836574
 20
8.0702188964749
 11
3.5395547882511
 21
7.9907599136294
  0
LINE
  8
F-LM-CV
  6
CONTINUOUS
 62
8
 10
3.6771817836574
 20
8.1656133963641
 11
3.5395547882512
 21
8.0861544135186
  0
LINE
  8
F-LM-CV
  6
CONTINUOUS
 62
8
 10
3.6771817836574
 20
8.2610078962532
 11
3.5395547882512
 21
8.1815489134077
  0
LINE
  8
F-LM-CV
  6
CONTINUOUS
 62
8
 10
3.6771817836574
 20
8.3564023961423
 11
3.5395547882512
 21
8.2769434132968
  0
LINE
  8
F-LM-CV
  6
CONTINUOUS
 62
8
 10
3.6771817836574
 20
8.4517968960315
 11
3.5395547882512
 21
8.3723379131859
  0
LINE
  8
F-LM-CV
  6
CONTINUOUS
 62
8
 10
3.6771817836574
 20
8.5471913959206
 11
3.5395547882511
 21
8.467732413075
  0
LINE
  8
F-LM-CV
  6
CONTINUOUS
 62
8
 10
3.6771817836574
 20
8.6425858958097
 11
3.5395547882511
 21
8.5631269129641
  0
LINE
  8
F-LM-CV
  6
CONTINUOUS
 62
8
 10
3.6771817836574
 20
8.7379803956988
 11
3.5395547882511
 21
8.6585214128533
  0
LINE
  8
F-LM-CV
  6
CONTINUOUS
 62
8
 10
3.6771817836574
 20
8.833374895588
 11
3.5395547882511
 21
8.7539159127424
  0
LINE
  8
F-LM-CV
  6
DIMSTYLE
 62
8
 10
3.6497068686314
 20
9.0559984919969
 11
3.6497068686316
 21
7.755905511811
  0
LINE
  8
F-LM-CV
  6
CONTINUOUS
 62
8
 10
3.3427044151619
 20
8.8787505492669
 11
3.3427044151619
 21
7.755905511811
  0
LINE
  8
F-LM-CV
  6
CONTINUOUS
 62
8
 10
2.5590551181102
 20
9.3311908928203
 11
3.3427044151619
 21
8.8787505492669
  0
LINE
  8
F-LM-CV
  6
CONTINUOUS
 62
8
 10
3.3348303994139
 20
8.8742044883883
 11
3.3348303994139
 21
7.755905511811
  0
LINE
  8
F-LM-CV
  6
CONTINUOUS
 62
8
 10
3.3269563836659
 20
8.8696584235431
 11
3.3269563836659
 21
7.755905511811
  0
LINE
  8
F-LM-CV
  6
CONTINUOUS
 62
8
 10
3.3190823679179
 20
8.8651123586978
 11
3.3190823679179
 21
7.755905511811
  0
LINE
  8
F-LM-CV
  6
CONTINUOUS
 62
8
 10
3.3112083521698
 20
8.8605662938525
 11
3.3112083521698
 21
7.755905511811
  0
ENDSEC
  0
EOF
