  0
SECTION
  2
HEADER
  9
$EXTMIN
 10
0.97454730821514
 20
9.1972800020519
  9
$EXTMAX
 10
2.5493504578214
 20
10.772083151658
  9
$LIMMIN
 10
0
 20
0
  9
$LIMMAX
 10
8.2677165354331
 20
11.692913385827
  0
ENDSEC
  0
SECTION
  2
TABLES
  0
TABLE
  2
LTYPE
 70
9
  0
LTYPE
  2
CONTINUOUS
  3
___________________________
 70
64
 72
65
 73
0
 40
0
  0
LTYPE
  2
HIDDEN
  3
_ _ _ _ _ _ _ _ _ _ _ _ _ _ 
 70
64
 72
65
 73
2
 49
0.25
 49
-0.125
 40
0.375
  0
LTYPE
  2
DASHED
  3
__ __ __ __ __ __ __ __ __ 
 70
64
 72
65
 73
2
 49
0.5
 49
-0.25
 40
0.75
  0
LTYPE
  2
CENTER
  3
____ _ ____ _ ____ _ ____ _ 
 70
64
 72
65
 73
4
 49
1.25
 49
-0.25
 49
0.25
 49
-0.25
 40
2
  0
LTYPE
  2
PHANTOM
  3
_____ _ _ _____ _ _ _____ _ _ 
 70
64
 72
65
 73
6
 49
1.25
 49
-0.25
 49
0.25
 49
-0.25
 49
0.25
 49
-0.25
 40
2.5
  0
LTYPE
  2
DOT
  3
...........................
 70
64
 72
65
 73
2
 49
0
 49
-0.25
 40
0.25
  0
LTYPE
  2
DASHDOT
  3
__ . __ . __ . __ . __ . __ . 
 70
64
 72
65
 73
4
 49
0.5
 49
-0.25
 49
0
 49
-0.25
 40
1
  0
LTYPE
  2
DIVIDE
  3
__ . . __ . . __ . . __ . . 
 70
64
 72
65
 73
6
 49
0.5
 49
-0.25
 49
0
 49
-0.25
 49
0
 49
-0.25
 40
1.25
  0
LTYPE
  2
BORDER
  3
__ __ . __ __ . __ __ . __ __ . 
 70
64
 72
65
 73
6
 49
0.5
 49
-0.25
 49
0.5
 49
-0.25
 49
0
 49
-0.25
 40
1.75
  0
ENDTAB
  0
TABLE
  2
LAYER
 70
1
  0
LAYER
  2
F-LM-CV
 62
7
  6
CONTINUOUS
 70
0
  0
ENDTAB
  0
TABLE
  2
STYLE
 70
5
  0
STYLE
  2
ptmarker
 70
1
 40
0
 50
0
 71
0
 41
0
 42
0
  3
ptmarks
  0
STYLE
  2
TXT
 70
0
 40
0
 50
0
 71
0
 41
0
 42
0
  3
TXT
  0
STYLE
  2
ITALIC
 70
0
 40
0
 50
0
 71
0
 41
0
 42
0
  3
ITALIC
  0
STYLE
  2
SIMPLEX
 70
0
 40
0
 50
0
 71
0
 41
0
 42
0
  3
SIMPLEX
  0
STYLE
  2
COMPLEX
 70
0
 40
0
 50
0
 71
0
 41
0
 42
0
  3
COMPLEX
  0
ENDTAB
  0
ENDSEC
  0
SECTION
  2
BLOCKS
  0
ENDSEC
  0
SECTION
  2
ENTITIES
  0
LINE
  8
F-LM-CV
  6
CONTINUOUS
 62
8
 10
1.7267005422747
 20
9.1972800020519
 11
1.7267005422747
 21
10.301940784093
  0
LINE
  8
F-LM-CV
  6
CONTINUOUS
 62
8
 10
1.7345745580228
 20
9.1972800020519
 11
1.7345745580228
 21
10.306486848939
  0
LINE
  8
F-LM-CV
  6
CONTINUOUS
 62
8
 10
1.7424485737708
 20
9.1972800020519
 11
1.7424485737708
 21
10.311032913784
  0
LINE
  8
F-LM-CV
  6
CONTINUOUS
 62
8
 10
1.7503225895188
 20
9.1972800020519
 11
1.7503225895188
 21
10.315578978629
  0
LINE
  8
F-LM-CV
  6
CONTINUOUS
 62
8
 10
1.6443371254232
 20
10.772083151658
 11
2.0926739737624
 21
10.513235630894
  0
LINE
  8
F-LM-CV
  6
CONTINUOUS
 62
8
 10
0.97538255711673
 20
10.772083151658
 11
1.7581966052668
 21
10.320125039508
  0
LINE
  8
F-LM-CV
  6
CONTINUOUS
 62
8
 10
1.7581966052669
 20
9.1972800020519
 11
1.7581966052668
 21
10.320125039508
  0
LINE
  8
F-LM-CV
  6
CONTINUOUS
 62
8
 10
0.97454730821514
 20
10.351778345715
 11
1.3937844121801
 21
10.109731578032
  0
LINE
  8
F-LM-CV
  6
CONTINUOUS
 62
8
 10
1.6914668329017
 20
9.1972800020519
 11
1.6914668329017
 21
9.2367602749345
  0
LINE
  8
F-LM-CV
  6
CONTINUOUS
 62
8
 10
1.3937844121801
 20
10.109731578032
 11
1.7581966018316
 21
10.320125041491
  0
LINE
  8
F-LM-CV
  6
CONTINUOUS
 62
8
 10
1.3937844121801
 20
9.4710552731685
 11
1.7188265265267
 21
9.6587184143848
  0
LINE
  8
F-LM-CV
  6
CONTINUOUS
 62
8
 10
1.3937844121801
 20
9.4710554167696
 11
1.3937844121801
 21
9.5162841306438
  0
LINE
  8
F-LM-CV
  6
CONTINUOUS
 62
8
 10
1.3937844121801
 20
9.5162841306438
 11
1.3937844121801
 21
10.109731578032
  0
LINE
  8
F-LM-CV
  6
CONTINUOUS
 62
8
 10
1.4211441058051
 20
9.5636721149003
 11
1.4211441058051
 21
9.7193651874427
  0
LINE
  8
F-LM-CV
  6
CONTINUOUS
 62
8
 10
1.4211441058051
 20
9.7193651874427
 11
1.5426261199899
 21
9.7895030056728
  0
LINE
  8
F-LM-CV
  6
CONTINUOUS
 62
8
 10
1.5426261199899
 20
9.6338099331304
 11
1.4211441058051
 21
9.7039477513605
  0
LINE
  8
F-LM-CV
  6
CONTINUOUS
 62
8
 10
1.4211441058051
 20
9.5636721149003
 11
1.5426261199899
 21
9.6338099331304
  0
LINE
  8
F-LM-CV
  6
CONTINUOUS
 62
8
 10
1.3937844121801
 20
9.5162841306438
 11
1.7188265265267
 21
9.7039472718601
  0
LINE
  8
F-LM-CV
  6
CONTINUOUS
 62
8
 10
1.4211441058051
 20
9.7509570640943
 11
1.5426251250919
 21
9.8210943848754
  0
LINE
  8
F-LM-CV
  6
CONTINUOUS
 62
8
 10
1.4211441058051
 20
9.7509570640943
 11
1.4211441058051
 21
9.9066501366367
  0
LINE
  8
F-LM-CV
  6
CONTINUOUS
 62
8
 10
1.5426251250919
 20
9.8210943848754
 11
1.4211441058051
 21
9.8912322031055
  0
LINE
  8
F-LM-CV
  6
CONTINUOUS
 62
8
 10
1.4211441058051
 20
9.9066501366367
 11
1.5426251250919
 21
9.9767874574178
  0
LINE
  8
F-LM-CV
  6
CONTINUOUS
 62
8
 10
1.4211441058051
 20
9.9382420132882
 11
1.5426251250919
 21
10.008379334069
  0
LINE
  8
F-LM-CV
  6
CONTINUOUS
 62
8
 10
1.5426251250919
 20
10.008379334069
 11
1.4211441058051
 21
10.0785171523
  0
LINE
  8
F-LM-CV
  6
CONTINUOUS
 62
8
 10
1.4211441058051
 20
9.9382420132882
 11
1.4211441058051
 21
10.093935085831
  0
LINE
  8
F-LM-CV
  6
CONTINUOUS
 62
8
 10
1.4211441058051
 20
10.093935085831
 11
1.5426251250919
 21
10.164072406612
  0
LINE
  8
F-LM-CV
  6
CONTINUOUS
 62
8
 10
1.5426251250919
 20
9.6338094356814
 11
1.5426251250919
 21
9.7895025082239
  0
LINE
  8
F-LM-CV
  6
CONTINUOUS
 62
8
 10
1.5426251250919
 20
9.8210943848754
 11
1.5426251250919
 21
9.9767874574178
  0
LINE
  8
F-LM-CV
  6
CONTINUOUS
 62
8
 10
1.5426251250919
 20
10.008379334069
 11
1.5426251250919
 21
10.164072406612
  0
LINE
  8
F-LM-CV
  6
CONTINUOUS
 62
8
 10
1.5699858136149
 20
9.6496061864742
 11
1.5699858136149
 21
9.8052992590167
  0
LINE
  8
F-LM-CV
  6
CONTINUOUS
 62
8
 10
1.5699858136149
 20
9.8052992590167
 11
1.6914678277996
 21
9.8754370772468
  0
LINE
  8
F-LM-CV
  6
CONTINUOUS
 62
8
 10
1.6914678277996
 20
9.7197440047044
 11
1.5699858136149
 21
9.7898818229345
  0
LINE
  8
F-LM-CV
  6
CONTINUOUS
 62
8
 10
1.5699858136149
 20
9.6496061864742
 11
1.6914678277996
 21
9.7197440047044
  0
LINE
  8
F-LM-CV
  6
CONTINUOUS
 62
8
 10
1.5699858136149
 20
9.8368911356682
 11
1.6914668329017
 21
9.9070284564494
  0
LINE
  8
F-LM-CV
  6
CONTINUOUS
 62
8
 10
1.5699858136149
 20
9.8368911356682
 11
1.5699858136149
 21
9.9925842082106
  0
LINE
  8
F-LM-CV
  6
CONTINUOUS
 62
8
 10
1.6914668329017
 20
9.9070284564494
 11
1.5699858136149
 21
9.9771662746795
  0
LINE
  8
F-LM-CV
  6
CONTINUOUS
 62
8
 10
1.5699858136149
 20
9.9925842082106
 11
1.6914668329017
 21
10.062721528992
  0
LINE
  8
F-LM-CV
  6
CONTINUOUS
 62
8
 10
1.5699858136149
 20
10.024176084862
 11
1.6914668329017
 21
10.094313405643
  0
LINE
  8
F-LM-CV
  6
CONTINUOUS
 62
8
 10
1.6914668329017
 20
10.094313405643
 11
1.5699858136149
 21
10.164451223873
  0
LINE
  8
F-LM-CV
  6
CONTINUOUS
 62
8
 10
1.5699858136149
 20
10.024176084862
 11
1.5699858136149
 21
10.179869157405
  0
LINE
  8
F-LM-CV
  6
CONTINUOUS
 62
8
 10
1.5699858136149
 20
10.179869157405
 11
1.6914668329017
 21
10.250006478186
  0
LINE
  8
F-LM-CV
  6
CONTINUOUS
 62
8
 10
1.6914668329017
 20
9.7197435072554
 11
1.6914668329017
 21
9.8754365797978
  0
LINE
  8
F-LM-CV
  6
CONTINUOUS
 62
8
 10
1.6914668329017
 20
9.9070284564494
 11
1.6914668329017
 21
10.062721528992
  0
LINE
  8
F-LM-CV
  6
CONTINUOUS
 62
8
 10
1.6914668329017
 20
10.094313405643
 11
1.6914668329017
 21
10.250006478186
  0
LINE
  8
F-LM-CV
  6
CONTINUOUS
 62
8
 10
1.7188265265267
 20
9.1972800020519
 11
1.7188265265267
 21
10.297394719248
  0
LINE
  8
F-LM-CV
  6
CONTINUOUS
 62
8
 10
1.3937844121802
 20
9.1972800020519
 11
1.3937844121802
 21
9.4710552731685
  0
LINE
  8
F-LM-CV
  6
CONTINUOUS
 62
8
 10
1.4211441058051
 20
9.1972800020519
 11
1.4211441058051
 21
9.2679738317733
  0
LINE
  8
F-LM-CV
  6
CONTINUOUS
 62
8
 10
1.5168837849204
 20
9.1972800020519
 11
1.4211441058051
 21
9.2525558982422
  0
LINE
  8
F-LM-CV
  6
CONTINUOUS
 62
8
 10
1.4211441058051
 20
9.2679738317733
 11
1.5426251250919
 21
9.3381111525545
  0
LINE
  8
F-LM-CV
  6
CONTINUOUS
 62
8
 10
1.4211441058051
 20
9.2995657084249
 11
1.5426251250919
 21
9.3697030292061
  0
LINE
  8
F-LM-CV
  6
CONTINUOUS
 62
8
 10
1.5426251250919
 20
9.3697030292061
 11
1.4211441058051
 21
9.4398408474362
  0
LINE
  8
F-LM-CV
  6
CONTINUOUS
 62
8
 10
1.4211441058051
 20
9.2995657084249
 11
1.4211441058051
 21
9.4552587809673
  0
LINE
  8
F-LM-CV
  6
CONTINUOUS
 62
8
 10
1.4211441058051
 20
9.4552587809673
 11
1.5426251250919
 21
9.5253961017485
  0
LINE
  8
F-LM-CV
  6
CONTINUOUS
 62
8
 10
1.3937844121801
 20
9.4710552731685
 11
1.7188265265267
 21
9.6587184143848
  0
LINE
  8
F-LM-CV
  6
CONTINUOUS
 62
8
 10
1.5426251250919
 20
9.1972800020519
 11
1.5426251250919
 21
9.3381111525545
  0
LINE
  8
F-LM-CV
  6
CONTINUOUS
 62
8
 10
1.5426251250919
 20
9.3697030292061
 11
1.5426251250919
 21
9.5253961017485
  0
LINE
  8
F-LM-CV
  6
CONTINUOUS
 62
8
 10
1.6230852686829
 20
9.1972800020519
 11
1.6914678277996
 21
9.2367607723834
  0
LINE
  8
F-LM-CV
  6
CONTINUOUS
 62
8
 10
1.5699858136149
 20
9.1982148308049
 11
1.6914668329017
 21
9.268352151586
  0
LINE
  8
F-LM-CV
  6
CONTINUOUS
 62
8
 10
1.5699858136149
 20
9.1982148308049
 11
1.5699858136149
 21
9.3539079033473
  0
LINE
  8
F-LM-CV
  6
CONTINUOUS
 62
8
 10
1.6914668329017
 20
9.268352151586
 11
1.5699858136149
 21
9.3384899698161
  0
LINE
  8
F-LM-CV
  6
CONTINUOUS
 62
8
 10
1.5699858136149
 20
9.3539079033473
 11
1.6914668329017
 21
9.4240452241284
  0
LINE
  8
F-LM-CV
  6
CONTINUOUS
 62
8
 10
1.5699858136149
 20
9.3854997799988
 11
1.6914668329017
 21
9.45563710078
  0
LINE
  8
F-LM-CV
  6
CONTINUOUS
 62
8
 10
1.6914668329017
 20
9.45563710078
 11
1.5699858136149
 21
9.5257749190101
  0
LINE
  8
F-LM-CV
  6
CONTINUOUS
 62
8
 10
1.5699858136149
 20
9.3854997799988
 11
1.5699858136149
 21
9.5411928525413
  0
LINE
  8
F-LM-CV
  6
CONTINUOUS
 62
8
 10
1.5699858136149
 20
9.5411928525413
 11
1.6914668329017
 21
9.6113301733224
  0
LINE
  8
F-LM-CV
  6
CONTINUOUS
 62
8
 10
1.6914668329017
 20
9.268352151586
 11
1.6914668329017
 21
9.4240452241284
  0
LINE
  8
F-LM-CV
  6
CONTINUOUS
 62
8
 10
1.6914668329017
 20
9.45563710078
 11
1.6914668329017
 21
9.6113301733224
  0
LINE
  8
F-LM-CV
  6
DIMSTYLE
 62
8
 10
2.0926739737624
 20
10.513235630894
 11
2.0926739737624
 21
9.1972800020519
  0
LINE
  8
F-LM-CV
  6
CONTINUOUS
 62
8
 10
2.5493504578214
 20
9.1972800020519
 11
0.97454730821514
 21
9.1972800020519
  0
LINE
  8
F-LM-CV
  6
CONTINUOUS
 62
8
 10
2.5493504578214
 20
10.772083151658
 11
2.5493504578214
 21
9.1972800020519
  0
LINE
  8
F-LM-CV
  6
CONTINUOUS
 62
8
 10
0.97454730821514
 20
10.772083151658
 11
2.5493504578214
 21
10.772083151658
  0
LINE
  8
F-LM-CV
  6
CONTINUOUS
 62
8
 10
0.97454730821514
 20
9.1972800020519
 11
0.97454730821514
 21
10.772083151658
  0
LINE
  8
F-LM-CV
  6
CONTINUOUS
 62
8
 10
2.2896322795756
 20
9.1972800020519
 11
2.2896322795756
 21
9.3430464073276
  0
LINE
  8
F-LM-CV
  6
CONTINUOUS
 62
8
 10
2.2621312795756
 20
9.1972800020519
 11
2.2621312795756
 21
9.2954142938962
  0
LINE
  8
F-LM-CV
  6
CONTINUOUS
 62
8
 10
2.1400272795756
 20
9.2249172938962
 11
2.2621312795756
 21
9.2954142938962
  0
LINE
  8
F-LM-CV
  6
CONTINUOUS
 62
8
 10
2.1610546662965
 20
9.1972800020519
 11
2.1400272795756
 21
9.2094202938962
  0
LINE
  8
F-LM-CV
  6
CONTINUOUS
 62
8
 10
2.1400272795756
 20
9.1972800020519
 11
2.1400272795756
 21
9.2249172938962
  0
LINE
  8
F-LM-CV
  6
CONTINUOUS
 62
8
 10
2.2621322795756
 20
9.40438409465
 11
2.2621322795756
 21
9.56087559465
  0
LINE
  8
F-LM-CV
  6
CONTINUOUS
 62
8
 10
2.1400272795756
 20
9.33388659465
 11
2.1400272795756
 21
9.49037809465
  0
LINE
  8
F-LM-CV
  6
CONTINUOUS
 62
8
 10
2.2621322795756
 20
9.40438409465
 11
2.1400272795756
 21
9.47488159465
  0
LINE
  8
F-LM-CV
  6
CONTINUOUS
 62
8
 10
2.1400272795756
 20
9.33388659465
 11
2.2621322795756
 21
9.40438409465
  0
LINE
  8
F-LM-CV
  6
CONTINUOUS
 62
8
 10
2.2896322795756
 20
9.3885072080815
 11
2.2896322795756
 21
9.9849979812185
  0
LINE
  8
F-LM-CV
  6
CONTINUOUS
 62
8
 10
2.1125272795756
 20
9.2407947938962
 11
2.2896322795756
 21
9.3430464073276
  0
LINE
  8
F-LM-CV
  6
CONTINUOUS
 62
8
 10
2.1125272795756
 20
9.28625559465
 11
2.2896322795756
 21
9.3885072080815
  0
LINE
  8
F-LM-CV
  6
CONTINUOUS
 62
8
 10
2.2896322795756
 20
9.3885072080815
 11
2.2896322795756
 21
9.3430464073276
  0
LINE
  8
F-LM-CV
  6
CONTINUOUS
 62
8
 10
2.0382535017338
 20
10.772083151658
 11
2.2896322795756
 21
10.626949555109
  0
LINE
  8
F-LM-CV
  6
CONTINUOUS
 62
8
 10
2.1125272795756
 20
9.8827463677871
 11
2.2896322795756
 21
9.9849979812185
  0
LINE
  8
F-LM-CV
  6
CONTINUOUS
 62
8
 10
2.1400272795756
 20
9.8668688677871
 11
2.2621312795756
 21
9.9373658677871
  0
LINE
  8
F-LM-CV
  6
CONTINUOUS
 62
8
 10
2.1400272795756
 20
9.7103773677871
 11
2.1400272795756
 21
9.8668688677871
  0
LINE
  8
F-LM-CV
  6
CONTINUOUS
 62
8
 10
2.2621312795756
 20
9.7808743677871
 11
2.2621312795756
 21
9.9373658677871
  0
LINE
  8
F-LM-CV
  6
CONTINUOUS
 62
8
 10
2.2621312795756
 20
9.7808743677871
 11
2.1400272795756
 21
9.8513718677871
  0
LINE
  8
F-LM-CV
  6
CONTINUOUS
 62
8
 10
2.1400272795756
 20
9.7103773677871
 11
2.2621312795756
 21
9.7808743677871
  0
LINE
  8
F-LM-CV
  6
CONTINUOUS
 62
8
 10
2.2621312795756
 20
9.5926289812185
 11
2.2621312795756
 21
9.7491204812185
  0
LINE
  8
F-LM-CV
  6
CONTINUOUS
 62
8
 10
2.1400272795756
 20
9.6786234812185
 11
2.2621312795756
 21
9.7491204812185
  0
LINE
  8
F-LM-CV
  6
CONTINUOUS
 62
8
 10
2.2621312795756
 20
9.5926289812185
 11
2.1400272795756
 21
9.6631264812185
  0
LINE
  8
F-LM-CV
  6
CONTINUOUS
 62
8
 10
2.1400272795756
 20
9.5221319812185
 11
2.1400272795756
 21
9.6786234812185
  0
LINE
  8
F-LM-CV
  6
CONTINUOUS
 62
8
 10
2.1400272795756
 20
9.5221319812185
 11
2.2621312795756
 21
9.5926289812185
  0
LINE
  8
F-LM-CV
  6
CONTINUOUS
 62
8
 10
2.1400272795756
 20
9.49037809465
 11
2.2621322795756
 21
9.56087559465
  0
LINE
  8
F-LM-CV
  6
CONTINUOUS
 62
8
 10
2.2896322795756
 20
10.030458781972
 11
2.2896322795756
 21
10.626949555109
  0
LINE
  8
F-LM-CV
  6
CONTINUOUS
 62
8
 10
2.2621322795756
 20
10.046335668541
 11
2.2621322795756
 21
10.202827168541
  0
LINE
  8
F-LM-CV
  6
CONTINUOUS
 62
8
 10
2.1125272795756
 20
10.524697941678
 11
2.2896322795756
 21
10.626949555109
  0
LINE
  8
F-LM-CV
  6
CONTINUOUS
 62
8
 10
2.1400272795756
 20
10.508820441678
 11
2.2621312795756
 21
10.579317441678
  0
LINE
  8
F-LM-CV
  6
CONTINUOUS
 62
8
 10
2.1400272795756
 20
10.352328941678
 11
2.1400272795756
 21
10.508820441678
  0
LINE
  8
F-LM-CV
  6
CONTINUOUS
 62
8
 10
2.2621312795756
 20
10.422825941678
 11
2.2621312795756
 21
10.579317441678
  0
LINE
  8
F-LM-CV
  6
CONTINUOUS
 62
8
 10
2.2621312795756
 20
10.422825941678
 11
2.1400272795756
 21
10.493323441678
  0
LINE
  8
F-LM-CV
  6
CONTINUOUS
 62
8
 10
2.1400272795756
 20
10.352328941678
 11
2.2621312795756
 21
10.422825941678
  0
LINE
  8
F-LM-CV
  6
CONTINUOUS
 62
8
 10
2.2621312795756
 20
10.234580555109
 11
2.2621312795756
 21
10.391072055109
  0
LINE
  8
F-LM-CV
  6
CONTINUOUS
 62
8
 10
2.1400272795756
 20
10.320575055109
 11
2.2621312795756
 21
10.391072055109
  0
LINE
  8
F-LM-CV
  6
CONTINUOUS
 62
8
 10
2.2621312795756
 20
10.234580555109
 11
2.1400272795756
 21
10.305078055109
  0
LINE
  8
F-LM-CV
  6
CONTINUOUS
 62
8
 10
2.1400272795756
 20
10.164083555109
 11
2.1400272795756
 21
10.320575055109
  0
LINE
  8
F-LM-CV
  6
CONTINUOUS
 62
8
 10
2.1400272795756
 20
10.164083555109
 11
2.2621312795756
 21
10.234580555109
  0
LINE
  8
F-LM-CV
  6
CONTINUOUS
 62
8
 10
2.1125272795756
 20
9.9282071685409
 11
2.2896322795756
 21
10.030458781972
  0
LINE
  8
F-LM-CV
  6
CONTINUOUS
 62
8
 10
2.1400272795756
 20
9.9758381685409
 11
2.2621322795756
 21
10.046335668541
  0
LINE
  8
F-LM-CV
  6
CONTINUOUS
 62
8
 10
2.2621322795756
 20
10.046335668541
 11
2.1400272795756
 21
10.116833168541
  0
LINE
  8
F-LM-CV
  6
CONTINUOUS
 62
8
 10
2.1400272795756
 20
10.132329668541
 11
2.2621322795756
 21
10.202827168541
  0
LINE
  8
F-LM-CV
  6
CONTINUOUS
 62
8
 10
2.1400272795756
 20
9.9758381685409
 11
2.1400272795756
 21
10.132329668541
  0
LINE
  8
F-LM-CV
  6
CONTINUOUS
 62
8
 10
2.2896322795756
 20
10.030458781972
 11
2.2896322795756
 21
9.9849979812185
  0
LINE
  8
F-LM-CV
  6
CONTINUOUS
 62
8
 10
0.97454730821514
 20
10.727104726645
 11
1.7188265265267
 21
10.297394719248
  0
LINE
  8
F-LM-CV
  6
CONTINUOUS
 62
8
 10
1.6840437266295
 20
10.772083151658
 11
2.1125272795756
 21
10.524697941678
  0
LINE
  8
F-LM-CV
  6
CONTINUOUS
 62
8
 10
2.1125272795756
 20
10.524697941678
 11
2.1125272795756
 21
9.1972800020519
  0
LINE
  8
F-LM-CV
  6
CONTINUOUS
 62
8
 10
1.369083206846
 20
10.772083151658
 11
1.9550469783561
 21
10.433776652706
  0
LINE
  8
F-LM-CV
  6
CONTINUOUS
 62
8
 10
1.9550469783561
 20
10.433776652706
 11
2.1125272795756
 21
10.524697941678
  0
LINE
  8
F-LM-CV
  6
CONTINUOUS
 62
8
 10
0.97454730821514
 20
9.7131021844524
 11
1.3937844121802
 21
9.4710554167696
  0
LINE
  8
F-LM-CV
  6
CONTINUOUS
 62
8
 10
0.97454730821514
 20
9.7583308983266
 11
1.3937844121801
 21
9.5162841306438
  0
LINE
  8
F-LM-CV
  6
CONTINUOUS
 62
8
 10
1.9550469783561
 20
10.433776652706
 11
1.9550469783561
 21
9.1972800020519
  0
LINE
  8
F-LM-CV
  6
DIMSTYLE
 62
8
 10
2.0377241437104
 20
10.481510333581
 11
2.0377241437104
 21
9.1972800020519
  0
LINE
  8
F-LM-CV
  6
DIMSTYLE
 62
8
 10
2.0101650885922
 20
10.465599106623
 11
2.0101650885922
 21
9.1972800020519
  0
LINE
  8
F-LM-CV
  6
DIMSTYLE
 62
8
 10
1.9826060334741
 20
10.449687879664
 11
1.9826060334741
 21
9.1972800020519
  0
LINE
  8
F-LM-CV
  6
CONTINUOUS
 62
8
 10
2.0926739737623
 20
9.273107136993
 11
1.961337523452
 21
9.1972800020519
  0
LINE
  8
F-LM-CV
  6
CONTINUOUS
 62
8
 10
2.0926739737623
 20
9.3685016368821
 11
1.9550469783561
 21
9.2890426540365
  0
LINE
  8
F-LM-CV
  6
CONTINUOUS
 62
8
 10
2.0926739737623
 20
9.4638961367712
 11
1.955046978356
 21
9.3844371539256
  0
LINE
  8
F-LM-CV
  6
CONTINUOUS
 62
8
 10
2.0926739737623
 20
9.5592906366603
 11
1.955046978356
 21
9.4798316538148
  0
LINE
  8
F-LM-CV
  6
CONTINUOUS
 62
8
 10
2.0926739737623
 20
9.6546851365495
 11
1.9550469783561
 21
9.575226153704
  0
LINE
  8
F-LM-CV
  6
CONTINUOUS
 62
8
 10
2.0926739737623
 20
9.7500796364386
 11
1.9550469783561
 21
9.6706206535931
  0
LINE
  8
F-LM-CV
  6
CONTINUOUS
 62
8
 10
2.0926739737623
 20
9.8454741363278
 11
1.9550469783561
 21
9.7660151534822
  0
LINE
  8
F-LM-CV
  6
CONTINUOUS
 62
8
 10
2.0926739737623
 20
9.9408686362169
 11
1.9550469783561
 21
9.8614096533713
  0
LINE
  8
F-LM-CV
  6
CONTINUOUS
 62
8
 10
2.0926739737623
 20
10.036263136106
 11
1.955046978356
 21
9.9568041532604
  0
LINE
  8
F-LM-CV
  6
CONTINUOUS
 62
8
 10
2.0926739737623
 20
10.131657635995
 11
1.955046978356
 21
10.05219865315
  0
LINE
  8
F-LM-CV
  6
CONTINUOUS
 62
8
 10
2.0926739737623
 20
10.227052135884
 11
1.955046978356
 21
10.147593153039
  0
LINE
  8
F-LM-CV
  6
CONTINUOUS
 62
8
 10
2.0926739737623
 20
10.322446635773
 11
1.955046978356
 21
10.242987652928
  0
LINE
  8
F-LM-CV
  6
CONTINUOUS
 62
8
 10
2.0926739737623
 20
10.417841135663
 11
1.955046978356
 21
10.338382152817
  0
LINE
  8
F-LM-CV
  6
CONTINUOUS
 62
8
 10
2.0926739737623
 20
10.465538385607
 11
1.955046978356
 21
10.386079402761
  0
LINE
  8
F-LM-CV
  6
CONTINUOUS
 62
8
 10
2.0926739737623
 20
10.370143885718
 11
1.955046978356
 21
10.290684902872
  0
LINE
  8
F-LM-CV
  6
CONTINUOUS
 62
8
 10
2.0926739737623
 20
9.2254098870484
 11
2.0439515837373
 21
9.1972800020519
  0
LINE
  8
F-LM-CV
  6
CONTINUOUS
 62
8
 10
2.0926739737623
 20
9.3208043869375
 11
1.9550469783561
 21
9.241345404092
  0
LINE
  8
F-LM-CV
  6
CONTINUOUS
 62
8
 10
2.0926739737623
 20
9.4161988868266
 11
1.9550469783561
 21
9.3367399039811
  0
LINE
  8
F-LM-CV
  6
CONTINUOUS
 62
8
 10
2.0926739737623
 20
9.5115933867158
 11
1.955046978356
 21
9.4321344038702
  0
LINE
  8
F-LM-CV
  6
CONTINUOUS
 62
8
 10
2.0926739737623
 20
9.6069878866049
 11
1.9550469783561
 21
9.5275289037594
  0
LINE
  8
F-LM-CV
  6
CONTINUOUS
 62
8
 10
2.0926739737623
 20
9.7023823864941
 11
1.9550469783561
 21
9.6229234036485
  0
LINE
  8
F-LM-CV
  6
CONTINUOUS
 62
8
 10
2.0926739737623
 20
9.7977768863832
 11
1.9550469783561
 21
9.7183179035376
  0
LINE
  8
F-LM-CV
  6
CONTINUOUS
 62
8
 10
2.0926739737623
 20
9.8931713862723
 11
1.9550469783561
 21
9.8137124034268
  0
LINE
  8
F-LM-CV
  6
CONTINUOUS
 62
8
 10
2.0926739737623
 20
9.9885658861614
 11
1.9550469783561
 21
9.9091069033159
  0
LINE
  8
F-LM-CV
  6
CONTINUOUS
 62
8
 10
2.0926739737623
 20
10.083960386051
 11
1.955046978356
 21
10.004501403205
  0
LINE
  8
F-LM-CV
  6
CONTINUOUS
 62
8
 10
2.0926739737623
 20
10.17935488594
 11
1.955046978356
 21
10.099895903094
  0
LINE
  8
F-LM-CV
  6
CONTINUOUS
 62
8
 10
2.0926739737623
 20
10.274749385829
 11
1.955046978356
 21
10.195290402983
  0
LINE
  8
F-LM-CV
  6
DIMSTYLE
 62
8
 10
2.0651990587363
 20
10.497372982238
 11
2.0651990587365
 21
9.1972800020519
  0
ENDSEC
  0
EOF
