  0
SECTION
  2
HEADER
  9
$EXTMIN
 10
3.2758040729437
 20
8.309075636718
  9
$EXTMAX
 10
4.85060722255
 20
9.8838787863243
  9
$LIMMIN
 10
0
 20
0
  9
$LIMMAX
 10
8.2677165354331
 20
11.692913385827
  0
ENDSEC
  0
SECTION
  2
TABLES
  0
TABLE
  2
LTYPE
 70
9
  0
LTYPE
  2
CONTINUOUS
  3
___________________________
 70
64
 72
65
 73
0
 40
0
  0
LTYPE
  2
HIDDEN
  3
_ _ _ _ _ _ _ _ _ _ _ _ _ _ 
 70
64
 72
65
 73
2
 49
0.25
 49
-0.125
 40
0.375
  0
LTYPE
  2
DASHED
  3
__ __ __ __ __ __ __ __ __ 
 70
64
 72
65
 73
2
 49
0.5
 49
-0.25
 40
0.75
  0
LTYPE
  2
CENTER
  3
____ _ ____ _ ____ _ ____ _ 
 70
64
 72
65
 73
4
 49
1.25
 49
-0.25
 49
0.25
 49
-0.25
 40
2
  0
LTYPE
  2
PHANTOM
  3
_____ _ _ _____ _ _ _____ _ _ 
 70
64
 72
65
 73
6
 49
1.25
 49
-0.25
 49
0.25
 49
-0.25
 49
0.25
 49
-0.25
 40
2.5
  0
LTYPE
  2
DOT
  3
...........................
 70
64
 72
65
 73
2
 49
0
 49
-0.25
 40
0.25
  0
LTYPE
  2
DASHDOT
  3
__ . __ . __ . __ . __ . __ . 
 70
64
 72
65
 73
4
 49
0.5
 49
-0.25
 49
0
 49
-0.25
 40
1
  0
LTYPE
  2
DIVIDE
  3
__ . . __ . . __ . . __ . . 
 70
64
 72
65
 73
6
 49
0.5
 49
-0.25
 49
0
 49
-0.25
 49
0
 49
-0.25
 40
1.25
  0
LTYPE
  2
BORDER
  3
__ __ . __ __ . __ __ . __ __ . 
 70
64
 72
65
 73
6
 49
0.5
 49
-0.25
 49
0.5
 49
-0.25
 49
0
 49
-0.25
 40
1.75
  0
ENDTAB
  0
TABLE
  2
LAYER
 70
1
  0
LAYER
  2
EEML.1$
 62
7
  6
CONTINUOUS
 70
0
  0
ENDTAB
  0
TABLE
  2
STYLE
 70
5
  0
STYLE
  2
ptmarker
 70
1
 40
0
 50
0
 71
0
 41
0
 42
0
  3
ptmarks
  0
STYLE
  2
TXT
 70
0
 40
0
 50
0
 71
0
 41
0
 42
0
  3
TXT
  0
STYLE
  2
ITALIC
 70
0
 40
0
 50
0
 71
0
 41
0
 42
0
  3
ITALIC
  0
STYLE
  2
SIMPLEX
 70
0
 40
0
 50
0
 71
0
 41
0
 42
0
  3
SIMPLEX
  0
STYLE
  2
COMPLEX
 70
0
 40
0
 50
0
 71
0
 41
0
 42
0
  3
COMPLEX
  0
ENDTAB
  0
ENDSEC
  0
SECTION
  2
BLOCKS
  0
ENDSEC
  0
SECTION
  2
ENTITIES
  0
LINE
  8
EEML.1$
  6
CONTINUOUS
 62
8
 10
3.8887086167023
 20
8.355400464644
 11
3.8887086167023
 21
9.1428020394472
  0
LINE
  8
EEML.1$
  6
CONTINUOUS
 62
8
 10
3.8887086167023
 20
9.1428020394472
 11
4.7718894921811
 21
9.8838787863243
  0
LINE
  8
EEML.1$
  6
CONTINUOUS
 62
8
 10
4.85060722255
 20
9.0968090930407
 11
4.2483115031021
 21
9.4445446887956
  0
LINE
  8
EEML.1$
  6
CONTINUOUS
 62
8
 10
3.2758040729437
 20
9.8838787863243
 11
3.2758040729437
 21
8.309075636718
  0
LINE
  8
EEML.1$
  6
CONTINUOUS
 62
8
 10
3.2758040729437
 20
8.309075636718
 11
4.85060722255
 21
8.309075636718
  0
LINE
  8
EEML.1$
  6
CONTINUOUS
 62
8
 10
4.85060722255
 20
8.309075636718
 11
4.85060722255
 21
9.8838787863243
  0
LINE
  8
EEML.1$
  6
CONTINUOUS
 62
8
 10
4.85060722255
 20
9.8838787863243
 11
3.2758040729437
 21
9.8838787863243
  0
LINE
  8
EEML.1$
  6
CONTINUOUS
 62
8
 10
3.5477537333226
 20
8.5522508583448
 11
3.5477537333226
 21
9.339652433148
  0
LINE
  8
EEML.1$
  6
CONTINUOUS
 62
8
 10
3.8887086167023
 20
8.355400464644
 11
3.5477537333226
 21
8.5522508583448
  0
LINE
  8
EEML.1$
  6
CONTINUOUS
 62
8
 10
3.5477537333226
 20
9.339652433148
 11
4.196337444905
 21
9.8838787863243
  0
LINE
  8
EEML.1$
  6
CONTINUOUS
 62
8
 10
3.8887086167023
 20
8.355400464644
 11
4.4598018993455
 21
8.8346046274778
  0
LINE
  8
EEML.1$
  6
CONTINUOUS
 62
8
 10
3.8887086167023
 20
9.0291504116539
 11
3.5477537333226
 21
9.2260008053547
  0
LINE
  8
EEML.1$
  6
CONTINUOUS
 62
8
 10
3.8887086167023
 20
8.9154987838607
 11
3.5477537333226
 21
9.1123491775615
  0
LINE
  8
EEML.1$
  6
CONTINUOUS
 62
8
 10
3.8887086167023
 20
8.6881955282742
 11
3.5477537333226
 21
8.885045921975
  0
LINE
  8
EEML.1$
  6
CONTINUOUS
 62
8
 10
3.8887086167023
 20
8.8018471560675
 11
3.5477537333226
 21
8.9986975497683
  0
LINE
  8
EEML.1$
  6
CONTINUOUS
 62
8
 10
3.8887086167023
 20
8.4608922726878
 11
3.5477537333226
 21
8.6577426663886
  0
LINE
  8
EEML.1$
  6
CONTINUOUS
 62
8
 10
3.8887086167023
 20
8.574543900481
 11
3.5477537333226
 21
8.7713942941818
  0
LINE
  8
EEML.1$
  6
CONTINUOUS
 62
8
 10
3.8887086167023
 20
9.0291504116539
 11
4.2329992607118
 21
9.3180445640601
  0
LINE
  8
EEML.1$
  6
CONTINUOUS
 62
8
 10
3.8887086167023
 20
8.9154987838607
 11
4.2329992607118
 21
9.2043929362669
  0
LINE
  8
EEML.1$
  6
CONTINUOUS
 62
8
 10
3.8887086167023
 20
8.8018471560675
 11
4.2329992607118
 21
9.0907413084737
  0
LINE
  8
EEML.1$
  6
CONTINUOUS
 62
8
 10
3.8887086167023
 20
8.6881955282742
 11
4.2329992607118
 21
8.9770896806804
  0
LINE
  8
EEML.1$
  6
CONTINUOUS
 62
8
 10
3.8887086167023
 20
8.574543900481
 11
4.3050887423322
 21
8.9239283103266
  0
LINE
  8
EEML.1$
  6
CONTINUOUS
 62
8
 10
3.8887086167023
 20
8.4608922726878
 11
4.3853256979518
 21
8.8776034824006
  0
LINE
  8
EEML.1$
  6
CONTINUOUS
 62
8
 10
3.8887086167023
 20
9.1428020394472
 11
3.5477537333226
 21
9.339652433148
  0
LINE
  8
EEML.1$
  6
CONTINUOUS
 62
8
 10
4.85060722255
 20
9.395842361778
 11
4.4594261134105
 21
9.6216908804415
  0
LINE
  8
EEML.1$
  6
CONTINUOUS
 62
8
 10
3.9073566197224
 20
9.6413950824964
 11
3.4873625246849
 21
9.8838787863243
  0
LINE
  8
EEML.1$
  6
CONTINUOUS
 62
8
 10
4.2483115031021
 20
9.4126911000122
 11
4.2483115031021
 21
9.4445446887956
  0
LINE
  8
EEML.1$
  6
CONTINUOUS
 62
8
 10
4.85060722255
 20
8.6422025818677
 11
4.6144262734156
 21
8.7785617164279
  0
LINE
  8
EEML.1$
  6
CONTINUOUS
 62
8
 10
4.1184712300308
 20
9.8185412741423
 11
4.0053033392914
 21
9.8838787863243
  0
LINE
  8
EEML.1$
  6
CONTINUOUS
 62
8
 10
4.5396630690302
 20
9.5753660525155
 11
4.85060722255
 21
9.8362791770507
  0
LINE
  8
EEML.1$
  6
CONTINUOUS
 62
8
 10
4.6199000246499
 20
9.5290412245896
 11
4.85060722255
 21
9.7226275492575
  0
LINE
  8
EEML.1$
  6
CONTINUOUS
 62
8
 10
4.7001369802696
 20
9.4827163966636
 11
4.85060722255
 21
9.6089759214642
  0
LINE
  8
EEML.1$
  6
CONTINUOUS
 62
8
 10
4.7803739358892
 20
9.4363915687376
 11
4.85060722255
 21
9.495324293671
  0
LINE
  8
EEML.1$
  6
CONTINUOUS
 62
8
 10
4.8506072225499
 20
8.9831574652474
 11
4.3191506828644
 21
9.2899940414975
  0
LINE
  8
EEML.1$
  6
CONTINUOUS
 62
8
 10
4.85060722255
 20
8.8695058374542
 11
4.4175758797148
 21
9.1195165998076
  0
LINE
  8
EEML.1$
  6
CONTINUOUS
 62
8
 10
4.85060722255
 20
8.755854209661
 11
4.5160010765652
 21
8.9490391581178
  0
LINE
  8
EEML.1$
  6
CONTINUOUS
 62
8
 10
3.8271196641028
 20
9.5740682826291
 11
3.2905121309842
 21
9.8838787863243
  0
LINE
  8
EEML.1$
  6
CONTINUOUS
 62
8
 10
3.7468827084831
 20
9.5067414827619
 11
3.2758040729437
 21
9.7787188598001
  0
LINE
  8
EEML.1$
  6
CONTINUOUS
 62
8
 10
3.6666457528634
 20
9.4394146828946
 11
3.2758040729437
 21
9.6650672320068
  0
LINE
  8
EEML.1$
  6
CONTINUOUS
 62
8
 10
3.5864087972437
 20
9.3720878830274
 11
3.2758040729437
 21
9.5514156042136
  0
LINE
  8
EEML.1$
  6
CONTINUOUS
 62
8
 10
4.2483115031021
 20
9.4126911000122
 11
4.6144262734156
 21
8.7785617164279
  0
ARC
  8
EEML.1$
  6
CONTINUOUS
 62
8
 10
3.5769976450842
 20
9.0105858124603
 40
0.28257793888725
 50
7.4770913609209
 51
43.088625395638
  0
ARC
  8
EEML.1$
  6
CONTINUOUS
 62
8
 10
3.5769976450842
 20
9.0105858124603
 40
0.26289289951717
 50
10.844140058344
 51
96.386736504285
  0
ARC
  8
EEML.1$
  6
CONTINUOUS
 62
8
 10
3.5769976450842
 20
9.0105858124603
 40
0.24320786014709
 50
14.986332906881
 51
96.90609592293
  0
ARC
  8
EEML.1$
  6
CONTINUOUS
 62
8
 10
3.5769976450842
 20
9.0105858124603
 40
0.30226297825733
 50
4.6679063332904
 51
33.437437239082
  0
ARC
  8
EEML.1$
  6
CONTINUOUS
 62
8
 10
3.5769976450842
 20
9.0105858124603
 40
0.3219480176274
 50
14.487372509298
 51
27.114466913314
  0
ARC
  8
EEML.1$
  6
CONTINUOUS
 62
8
 10
3.5769976450842
 20
9.0105858124603
 40
0.22352282077701
 50
20.281761469257
 51
97.517666343225
  0
ARC
  8
EEML.1$
  6
CONTINUOUS
 62
8
 10
3.5769976450842
 20
9.0105858124603
 40
0.20383778140693
 50
27.509344106872
 51
92.490655893129
  0
ARC
  8
EEML.1$
  6
CONTINUOUS
 62
8
 10
3.5769976450842
 20
9.0105858124603
 40
0.18415274203685
 50
39.009990694184
 51
80.990009305816
  0
ARC
  8
EEML.1$
  6
CONTINUOUS
 62
8
 10
3.5769976450842
 20
9.0105858124603
 40
0.28257793888725
 50
76.911374604362
 51
95.940159837229
  0
ARC
  8
EEML.1$
  6
CONTINUOUS
 62
8
 10
3.5769976450842
 20
9.0105858124603
 40
0.30226297825733
 50
86.562562760918
 51
95.55204549493
  0
ARC
  8
EEML.1$
  6
CONTINUOUS
 62
8
 10
3.5769976450842
 20
9.0105858124603
 40
0.3219480176274
 50
92.885533086686
 51
95.211603588044
  0
LINE
  8
EEML.1$
  6
DOT
 62
8
 10
3.5607905350866
 20
9.3321256321401
 11
4.2336339112523
 21
9.8838787863243
  0
LINE
  8
EEML.1$
  6
DOT
 62
8
 10
3.5951209142794
 20
9.3123049784718
 11
4.3062428093359
 21
9.8838787863243
  0
LINE
  8
EEML.1$
  6
DOT
 62
8
 10
3.6409896644488
 20
9.2858226432141
 11
4.3825254888962
 21
9.8838787863243
  0
LINE
  8
EEML.1$
  6
DOT
 62
8
 10
3.7833637228918
 20
9.2036229422464
 11
4.5057010158041
 21
9.8838787863243
  0
LINE
  8
EEML.1$
  6
DOT
 62
8
 10
3.8292324730612
 20
9.1771406069887
 11
4.5977825088297
 21
9.8838787863243
  0
LINE
  8
EEML.1$
  6
DOT
 62
8
 10
3.863562852254
 20
9.1573199533204
 11
4.6761292643464
 21
9.8838787863243
  0
LINE
  8
EEML.1$
  6
CONTINUOUS
 62
8
 10
4.2329992607118
 20
9.3998426030699
 11
4.6091083874414
 21
8.7484024863839
  0
LINE
  8
EEML.1$
  6
CONTINUOUS
 62
8
 10
4.2329992607118
 20
9.3998426030699
 11
4.2483115031021
 21
9.4126911000122
  0
LINE
  8
EEML.1$
  6
CONTINUOUS
 62
8
 10
4.2329992607118
 20
8.9655491919459
 11
4.2329992607118
 21
9.3998426030699
  0
LINE
  8
EEML.1$
  6
CONTINUOUS
 62
8
 10
4.6091083874414
 20
8.7484024863839
 11
4.632568103831
 21
8.768087525754
  0
LINE
  8
EEML.1$
  6
CONTINUOUS
 62
8
 10
4.6091083874414
 20
8.7484024863839
 11
4.2329992607118
 21
8.9655491919459
  0
ARC
  8
EEML.1$
  6
CONTINUOUS
 62
8
 10
3.3935752544135
 20
9.1148412959134
 40
0.26289289951717
 50
346.56033226801
 51
11.25546892981
  0
ARC
  8
EEML.1$
  6
CONTINUOUS
 62
8
 10
3.3935752544135
 20
9.1148412959134
 40
0.24320786014709
 50
347.94443307599
 51
15.462395981635
  0
ARC
  8
EEML.1$
  6
CONTINUOUS
 62
8
 10
3.3935752544135
 20
9.1148412959134
 40
0.22352282077701
 50
349.58637412004
 51
20.856172655996
  0
ARC
  8
EEML.1$
  6
CONTINUOUS
 62
8
 10
3.3935752544135
 20
9.1148412959134
 40
0.20383778140693
 50
351.56774949185
 51
28.261907231232
  0
ARC
  8
EEML.1$
  6
CONTINUOUS
 62
8
 10
3.3935752544135
 20
9.1148412959134
 40
0.18415274203685
 50
354.00999069418
 51
33.151081336006
  0
ARC
  8
EEML.1$
  6
CONTINUOUS
 62
8
 10
3.3935752544135
 20
9.1148412959134
 40
0.28257793888725
 50
345.37701442756
 51
7.8416302827403
  0
ARC
  8
EEML.1$
  6
CONTINUOUS
 62
8
 10
3.3935752544135
 20
9.1148412959134
 40
0.30226297825733
 50
344.35328155602
 51
4.9965929976998
  0
ARC
  8
EEML.1$
  6
CONTINUOUS
 62
8
 10
3.3935752544135
 20
9.1148412959134
 40
0.3219480176274
 50
343.45859091891
 51
2.5788803436767
  0
ARC
  8
EEML.1$
  6
CONTINUOUS
 62
8
 10
3.3935752544135
 20
9.1148412959134
 40
0.16446770266677
 50
357.10335664329
 51
20.374135872281
  0
ARC
  8
EEML.1$
  6
CONTINUOUS
 62
8
 10
3.3935752544135
 20
9.1148412959134
 40
0.34163305699748
 50
342.6697908665
 51
0.49305455420075
  0
ARC
  8
EEML.1$
  6
CONTINUOUS
 62
8
 10
3.3935752544135
 20
9.1148412959134
 40
0.36131809636756
 50
341.9689961479
 51
358.67157706212
  0
ARC
  8
EEML.1$
  6
CONTINUOUS
 62
8
 10
3.3935752544135
 20
9.1148412959134
 40
0.38100313573764
 50
341.34216113567
 51
357.0648956819
  0
ARC
  8
EEML.1$
  6
CONTINUOUS
 62
8
 10
3.3935752544135
 20
9.1148412959134
 40
0.40068817510772
 50
340.77809581484
 51
355.63560940569
  0
ARC
  8
EEML.1$
  6
CONTINUOUS
 62
8
 10
3.3935752544135
 20
9.1148412959134
 40
0.4203732144778
 50
340.26777126218
 51
354.3548334208
  0
ARC
  8
EEML.1$
  6
CONTINUOUS
 62
8
 10
3.3935752544135
 20
9.1148412959134
 40
0.44005825384788
 50
339.80381941505
 51
353.19983138077
  0
ARC
  8
EEML.1$
  6
CONTINUOUS
 62
8
 10
3.3935752544135
 20
9.1148412959134
 40
0.45974329321796
 50
339.38016626152
 51
352.15241634938
  0
ARC
  8
EEML.1$
  6
CONTINUOUS
 62
8
 10
3.3935752544135
 20
9.1148412959134
 40
0.47942833258803
 50
338.99175853175
 51
351.19783805292
  0
ARC
  8
EEML.1$
  6
CONTINUOUS
 62
8
 10
3.3935752544135
 20
9.1148412959134
 40
0.49911337195811
 50
338.63435711258
 51
350.32398875166
  0
ARC
  8
EEML.1$
  6
CONTINUOUS
 62
8
 10
3.3935752544135
 20
9.1148412959134
 40
0.51879841132819
 50
338.30437885804
 51
342.62771826446
  0
ARC
  8
EEML.1$
  6
CONTINUOUS
 62
8
 10
4.020604697546
 20
8.9892110843478
 40
0.16446770266677
 50
202.10335664329
 51
216.68257712386
  0
ARC
  8
EEML.1$
  6
CONTINUOUS
 62
8
 10
4.020604697546
 20
8.9892110843478
 40
0.18415274203685
 50
194.81071887578
 51
224.25574540603
  0
ARC
  8
EEML.1$
  6
CONTINUOUS
 62
8
 10
4.020604697546
 20
8.9892110843478
 40
0.20383778140693
 50
189.54664020791
 51
229.67939937299
  0
ARC
  8
EEML.1$
  6
CONTINUOUS
 62
8
 10
4.020604697546
 20
8.9892110843478
 40
0.22352282077701
 50
185.49508915912
 51
233.83739876455
  0
ARC
  8
EEML.1$
  6
CONTINUOUS
 62
8
 10
4.020604697546
 20
8.9892110843478
 40
0.24320786014709
 50
182.25153783153
 51
219.77346461782
  0
ARC
  8
EEML.1$
  6
CONTINUOUS
 62
8
 10
4.020604697546
 20
8.9892110843478
 40
0.26289289951717
 50
179.58269517528
 51
210.23535928219
  0
ARC
  8
EEML.1$
  6
CONTINUOUS
 62
8
 10
4.020604697546
 20
8.9892110843478
 40
0.28257793888725
 50
177.34119782161
 51
203.8621097368
  0
ARC
  8
EEML.1$
  6
CONTINUOUS
 62
8
 10
4.020604697546
 20
8.9892110843478
 40
0.30226297825733
 50
175.42802832057
 51
199.02577837953
  0
ARC
  8
EEML.1$
  6
CONTINUOUS
 62
8
 10
4.020604697546
 20
8.9892110843478
 40
0.3219480176274
 50
173.77358029614
 51
195.14069582034
  0
ARC
  8
EEML.1$
  6
CONTINUOUS
 62
8
 10
4.020604697546
 20
8.9892110843478
 40
0.34163305699748
 50
172.32719247187
 51
191.91268354155
  0
ARC
  8
EEML.1$
  6
CONTINUOUS
 62
8
 10
4.020604697546
 20
8.9892110843478
 40
0.36131809636756
 50
171.0509553276
 51
189.16856359598
  0
ARC
  8
EEML.1$
  6
CONTINUOUS
 62
8
 10
4.020604697546
 20
8.9892110843478
 40
0.38100313573764
 50
169.91584825278
 51
186.79626139066
  0
ARC
  8
EEML.1$
  6
CONTINUOUS
 62
8
 10
4.020604697546
 20
8.9892110843478
 40
0.40068817510772
 50
168.89922706528
 51
184.71850598702
  0
ARC
  8
EEML.1$
  6
CONTINUOUS
 62
8
 10
4.020604697546
 20
8.9892110843478
 40
0.4203732144778
 50
167.98313274185
 51
182.87954403319
  0
ARC
  8
EEML.1$
  6
CONTINUOUS
 62
8
 10
4.020604697546
 20
8.9892110843478
 40
0.44005825384788
 50
167.15311977118
 51
181.2377421024
  0
ARC
  8
EEML.1$
  6
CONTINUOUS
 62
8
 10
4.020604697546
 20
8.9892110843478
 40
0.45974329321796
 50
166.39742440283
 51
179.76116160574
  0
ARC
  8
EEML.1$
  6
CONTINUOUS
 62
8
 10
4.020604697546
 20
8.9892110843478
 40
0.47942833258803
 50
165.70636160357
 51
170.49833679215
  0
ARC
  8
EEML.1$
  6
CONTINUOUS
 62
8
 10
3.6223995610809
 20
8.947692119298
 40
0.3219480176274
 50
313.47439627366
 51
325.81016614383
  0
ARC
  8
EEML.1$
  6
CONTINUOUS
 62
8
 10
3.6223995610809
 20
8.947692119298
 40
0.30226297825733
 50
312.36402406185
 51
331.29839663061
  0
ARC
  8
EEML.1$
  6
CONTINUOUS
 62
8
 10
3.6223995610809
 20
8.947692119298
 40
0.28257793888725
 50
311.09052787498
 51
331.38886311563
  0
ARC
  8
EEML.1$
  6
CONTINUOUS
 62
8
 10
3.6223995610809
 20
8.947692119298
 40
0.26289289951717
 50
309.61418442799
 51
331.49288189335
  0
ARC
  8
EEML.1$
  6
CONTINUOUS
 62
8
 10
3.6223995610809
 20
8.947692119298
 40
0.24320786014709
 50
307.88082351309
 51
331.61374526025
  0
ARC
  8
EEML.1$
  6
CONTINUOUS
 62
8
 10
3.6223995610809
 20
8.947692119298
 40
0.22352282077701
 50
305.81434300658
 51
331.75590606803
  0
ARC
  8
EEML.1$
  6
CONTINUOUS
 62
8
 10
3.6223995610809
 20
8.947692119298
 40
0.20383778140693
 50
303.30379933653
 51
331.92553862941
  0
ARC
  8
EEML.1$
  6
CONTINUOUS
 62
8
 10
3.6223995610809
 20
8.947692119298
 40
0.18415274203685
 50
300.17956286955
 51
332.13145982533
  0
ARC
  8
EEML.1$
  6
CONTINUOUS
 62
8
 10
3.5200699652514
 20
9.0067721389962
 40
0.18415274203685
 50
300.17956286955
 51
332.13145982533
  0
ARC
  8
EEML.1$
  6
CONTINUOUS
 62
8
 10
3.5200699652514
 20
9.0067721389962
 40
0.20383778140693
 50
303.30379933653
 51
331.92553862941
  0
ARC
  8
EEML.1$
  6
CONTINUOUS
 62
8
 10
3.5200699652514
 20
9.0067721389962
 40
0.22352282077701
 50
305.81434300658
 51
331.75590606803
  0
ARC
  8
EEML.1$
  6
CONTINUOUS
 62
8
 10
3.5200699652514
 20
9.0067721389962
 40
0.24320786014709
 50
307.88082351309
 51
331.61374526025
  0
ARC
  8
EEML.1$
  6
CONTINUOUS
 62
8
 10
3.5200699652514
 20
9.0067721389962
 40
0.26289289951717
 50
309.61418442799
 51
331.49288189335
  0
ARC
  8
EEML.1$
  6
CONTINUOUS
 62
8
 10
3.5200699652514
 20
9.0067721389962
 40
0.28257793888725
 50
311.09052787498
 51
331.38886311563
  0
ARC
  8
EEML.1$
  6
CONTINUOUS
 62
8
 10
3.417740369422
 20
9.0658521586944
 40
0.18415274203685
 50
314.91106054995
 51
332.13145982533
  0
ARC
  8
EEML.1$
  6
CONTINUOUS
 62
8
 10
3.417740369422
 20
9.0658521586944
 40
0.20383778140693
 50
309.6300195463
 51
331.92553862941
  0
ARC
  8
EEML.1$
  6
CONTINUOUS
 62
8
 10
3.417740369422
 20
9.0658521586944
 40
0.22352282077701
 50
305.81434300658
 51
331.75590606803
  0
ARC
  8
EEML.1$
  6
CONTINUOUS
 62
8
 10
3.417740369422
 20
9.0658521586944
 40
0.24320786014709
 50
307.88082351309
 51
331.61374526025
  0
ARC
  8
EEML.1$
  6
CONTINUOUS
 62
8
 10
3.417740369422
 20
9.0658521586944
 40
0.26289289951717
 50
309.61418442799
 51
331.49288189335
  0
ARC
  8
EEML.1$
  6
CONTINUOUS
 62
8
 10
3.417740369422
 20
9.0658521586944
 40
0.28257793888725
 50
311.09052787498
 51
331.38886311563
  0
ARC
  8
EEML.1$
  6
CONTINUOUS
 62
8
 10
3.417740369422
 20
9.0658521586944
 40
0.16446770266677
 50
322.23319750589
 51
332.38671271204
  0
ARC
  8
EEML.1$
  6
CONTINUOUS
 62
8
 10
3.6223995610809
 20
8.947692119298
 40
0.34163305699748
 50
314.45149790384
 51
321.21644857766
  0
ARC
  8
EEML.1$
  6
CONTINUOUS
 62
8
 10
3.6223995610809
 20
8.947692119298
 40
0.36131809636756
 50
315.31823356267
 51
317.48061849582
  0
LINE
  8
EEML.1$
  6
CONTINUOUS
 62
8
 10
4.2483115031021
 20
9.4445446887956
 11
4.4594261134105
 21
9.6216908804415
  0
LINE
  8
EEML.1$
  6
CONTINUOUS
 62
8
 10
3.9073566197224
 20
9.6413950824964
 11
4.1184712300308
 21
9.8185412741423
  0
ARC
  8
EEML.1$
  6
CONTINUOUS
 62
8
 10
3.9579938213604
 20
8.6844046071881
 40
0.40068817510772
 50
168.89922706528
 51
184.71850598702
  0
ARC
  8
EEML.1$
  6
CONTINUOUS
 62
8
 10
3.9579938213604
 20
8.6844046071881
 40
0.38100313573764
 50
169.91584825278
 51
186.79626139066
  0
ARC
  8
EEML.1$
  6
CONTINUOUS
 62
8
 10
3.9579938213604
 20
8.6844046071881
 40
0.36131809636756
 50
171.0509553276
 51
189.16856359598
  0
ARC
  8
EEML.1$
  6
CONTINUOUS
 62
8
 10
3.9579938213604
 20
8.6844046071881
 40
0.34163305699748
 50
172.32719247187
 51
191.91268354155
  0
ARC
  8
EEML.1$
  6
CONTINUOUS
 62
8
 10
3.9579938213604
 20
8.6844046071881
 40
0.3219480176274
 50
173.77358029614
 51
195.14069582034
  0
ARC
  8
EEML.1$
  6
CONTINUOUS
 62
8
 10
3.9579938213604
 20
8.6844046071881
 40
0.30226297825733
 50
175.42802832057
 51
199.02577837953
  0
ARC
  8
EEML.1$
  6
CONTINUOUS
 62
8
 10
3.9579938213604
 20
8.6844046071881
 40
0.28257793888725
 50
177.34119782161
 51
203.8621097368
  0
ARC
  8
EEML.1$
  6
CONTINUOUS
 62
8
 10
3.9579938213604
 20
8.6844046071881
 40
0.26289289951717
 50
179.58269517528
 51
210.23535928219
  0
ARC
  8
EEML.1$
  6
CONTINUOUS
 62
8
 10
3.9579938213604
 20
8.6844046071881
 40
0.24320786014709
 50
182.25153783153
 51
219.77346461782
  0
ARC
  8
EEML.1$
  6
CONTINUOUS
 62
8
 10
3.9579938213604
 20
8.6844046071881
 40
0.22352282077701
 50
185.49508915912
 51
251.94262168109
  0
ARC
  8
EEML.1$
  6
CONTINUOUS
 62
8
 10
3.9579938213604
 20
8.6844046071881
 40
0.20383778140693
 50
189.54664020791
 51
250.12899635544
  0
ARC
  8
EEML.1$
  6
CONTINUOUS
 62
8
 10
3.9579938213604
 20
8.6844046071881
 40
0.18415274203685
 50
194.81071887578
 51
247.89916888981
  0
ARC
  8
EEML.1$
  6
CONTINUOUS
 62
8
 10
3.9579938213604
 20
8.6844046071881
 40
0.16446770266677
 50
202.10335664329
 51
245.0852462284
  0
ARC
  8
EEML.1$
  6
CONTINUOUS
 62
8
 10
3.3778975496336
 20
8.4531324104118
 40
0.47942833258803
 50
350.86634422391
 51
3.1440955357999
  0
ARC
  8
EEML.1$
  6
CONTINUOUS
 62
8
 10
3.3778975496336
 20
8.4531324104118
 40
0.45974329321796
 50
351.80447163004
 51
4.7611616057417
  0
ARC
  8
EEML.1$
  6
CONTINUOUS
 62
8
 10
3.3778975496336
 20
8.4531324104118
 40
0.44005825384788
 50
352.83358352814
 51
6.5598052281591
  0
ARC
  8
EEML.1$
  6
CONTINUOUS
 62
8
 10
3.3778975496336
 20
8.4531324104118
 40
0.4203732144778
 50
353.96807534541
 51
8.5761982833961
  0
ARC
  8
EEML.1$
  6
CONTINUOUS
 62
8
 10
3.3778975496336
 20
8.4531324104118
 40
0.40068817510772
 50
355.22567665919
 51
10.858179448506
  0
ARC
  8
EEML.1$
  6
CONTINUOUS
 62
8
 10
3.3778975496336
 20
8.4531324104118
 40
0.38100313573764
 50
356.62852218613
 51
13.471090455287
  0
ARC
  8
EEML.1$
  6
CONTINUOUS
 62
8
 10
3.3778975496336
 20
8.4531324104118
 40
0.36131809636756
 50
358.20468605044
 51
16.508036841584
  0
ARC
  8
EEML.1$
  6
CONTINUOUS
 62
8
 10
3.3778975496336
 20
8.4531324104118
 40
0.34163305699748
 50
359.99044491287
 51
20.109621368322
  0
ARC
  8
EEML.1$
  6
CONTINUOUS
 62
8
 10
3.3778975496336
 20
8.4531324104118
 40
0.3219480176274
 50
2.0337357892552
 51
24.507016886852
  0
ARC
  8
EEML.1$
  6
CONTINUOUS
 62
8
 10
3.3778975496336
 20
8.4531324104118
 40
0.30226297825733
 50
4.3996730133633
 51
30.136136450134
  0
ARC
  8
EEML.1$
  6
CONTINUOUS
 62
8
 10
3.3778975496336
 20
8.4531324104118
 40
0.28257793888725
 50
7.1798454694889
 51
38.067251652252
  0
ARC
  8
EEML.1$
  6
CONTINUOUS
 62
8
 10
3.3778975496336
 20
8.4531324104118
 40
0.26289289951717
 50
10.5091451262
 51
49.751491361057
  0
ARC
  8
EEML.1$
  6
CONTINUOUS
 62
8
 10
3.3778975496336
 20
8.4531324104118
 40
0.24320786014709
 50
14.599352908116
 51
45.701284854382
  0
ARC
  8
EEML.1$
  6
CONTINUOUS
 62
8
 10
3.3778975496336
 20
8.4531324104118
 40
0.22352282077701
 50
19.816421309445
 51
40.544146981323
  0
ARC
  8
EEML.1$
  6
CONTINUOUS
 62
8
 10
3.3778975496336
 20
8.4531324104118
 40
0.20383778140693
 50
26.904355282416
 51
33.561699992896
  0
ARC
  8
EEML.1$
  6
CONTINUOUS
 62
8
 10
3.9579938213604
 20
8.6844046071881
 40
0.1447826632967
 50
213.69024134685
 51
241.40949987882
  0
ARC
  8
EEML.1$
  6
CONTINUOUS
 62
8
 10
3.3486166002831
 20
8.622115420145
 40
0.47942833258803
 50
358.51148275022
 51
13.049650778748
  0
ARC
  8
EEML.1$
  6
CONTINUOUS
 62
8
 10
3.3486166002831
 20
8.622115420145
 40
0.45974329321796
 50
359.85278131124
 51
15.386487708293
  0
ARC
  8
EEML.1$
  6
CONTINUOUS
 62
8
 10
3.3486166002831
 20
8.622115420145
 40
0.44005825384788
 50
1.3349299848843
 51
18.047898297322
  0
ARC
  8
EEML.1$
  6
CONTINUOUS
 62
8
 10
3.3486166002831
 20
8.622115420145
 40
0.4203732144778
 50
2.9831327418451
 51
21.126158626863
  0
ARC
  8
EEML.1$
  6
CONTINUOUS
 62
8
 10
3.3486166002831
 20
8.622115420145
 40
0.40068817510772
 50
4.8295540664975
 51
24.763491803283
  0
ARC
  8
EEML.1$
  6
CONTINUOUS
 62
8
 10
3.3486166002831
 20
8.622115420145
 40
0.38100313573764
 50
6.9161505906779
 51
29.201952010424
  0
ARC
  8
EEML.1$
  6
CONTINUOUS
 62
8
 10
3.3486166002831
 20
8.622115420145
 40
0.36131809636756
 50
9.299158303593
 51
34.927926173577
  0
ARC
  8
EEML.1$
  6
CONTINUOUS
 62
8
 10
3.3486166002831
 20
8.622115420145
 40
0.34163305699748
 50
12.056609240109
 51
43.328758109738
  0
ARC
  8
EEML.1$
  6
CONTINUOUS
 62
8
 10
3.3486166002831
 20
8.622115420145
 40
0.3219480176274
 50
15.301867786409
 51
51.790538734897
  0
ARC
  8
EEML.1$
  6
CONTINUOUS
 62
8
 10
3.3486166002831
 20
8.622115420145
 40
0.30226297825733
 50
19.210526933613
 51
48.789998845881
  0
ARC
  8
EEML.1$
  6
CONTINUOUS
 62
8
 10
3.3486166002831
 20
8.622115420145
 40
0.28257793888725
 50
24.08201130534
 51
45.193412958412
  0
ARC
  8
EEML.1$
  6
CONTINUOUS
 62
8
 10
3.3486166002831
 20
8.622115420145
 40
0.26289289951717
 50
30.516615305939
 51
40.757118569009
  0
ARC
  8
EEML.1$
  6
CONTINUOUS
 62
8
 10
3.3486166002831
 20
8.622115420145
 40
0.49911337195811
 50
357.29092364524
 51
10.973421410631
  0
ARC
  8
EEML.1$
  6
CONTINUOUS
 62
8
 10
3.3486166002831
 20
8.622115420145
 40
0.51879841132819
 50
356.17481067419
 51
9.1113079683116
  0
ARC
  8
EEML.1$
  6
CONTINUOUS
 62
8
 10
3.3486166002831
 20
8.622115420145
 40
0.53848345069827
 50
355.14976972752
 51
7.4282960110733
  0
ARC
  8
EEML.1$
  6
CONTINUOUS
 62
8
 10
3.3778975496336
 20
8.4531324104118
 40
0.49911337195811
 50
350.00737374039
 51
1.6805518538762
  0
CIRCLE
  8
EEML.1$
  6
CONTINUOUS
 62
8
 10
4.3296178516627
 20
9.0209713407891
 40
0.019685039370079
  0
ARC
  8
EEML.1$
  6
CONTINUOUS
 62
8
 10
4.3333877554182
 20
9.0241346656399
 40
0.019685039370079
 50
310
 51
130
  0
LINE
  8
EEML.1$
  6
CONTINUOUS
 62
8
 10
4.342271151066
 20
9.005891725767
 11
4.3460410548215
 21
9.0090550506179
  0
LINE
  8
EEML.1$
  6
CONTINUOUS
 62
8
 10
4.3169645522594
 20
9.0360509558111
 11
4.3207344560149
 21
9.0392142806619
  0
ENDSEC
  0
EOF
