  0
SECTION
  2
HEADER
  9
$EXTMIN
 10
5.7902060435465
 20
9.5749322575025
  9
$EXTMAX
 10
7.3650091931528
 20
11.149735407109
  9
$LIMMIN
 10
0
 20
0
  9
$LIMMAX
 10
8.2666666666667
 20
11.69
  0
ENDSEC
  0
SECTION
  2
TABLES
  0
TABLE
  2
LTYPE
 70
9
  0
LTYPE
  2
CONTINUOUS
  3
___________________________
 70
64
 72
65
 73
0
 40
0
  0
LTYPE
  2
HIDDEN
  3
_ _ _ _ _ _ _ _ _ _ _ _ _ _ 
 70
64
 72
65
 73
2
 49
0.25
 49
-0.125
 40
0.375
  0
LTYPE
  2
DASHED
  3
__ __ __ __ __ __ __ __ __ 
 70
64
 72
65
 73
2
 49
0.5
 49
-0.25
 40
0.75
  0
LTYPE
  2
CENTER
  3
____ _ ____ _ ____ _ ____ _ 
 70
64
 72
65
 73
4
 49
1.25
 49
-0.25
 49
0.25
 49
-0.25
 40
2
  0
LTYPE
  2
PHANTOM
  3
_____ _ _ _____ _ _ _____ _ _ 
 70
64
 72
65
 73
6
 49
1.25
 49
-0.25
 49
0.25
 49
-0.25
 49
0.25
 49
-0.25
 40
2.5
  0
LTYPE
  2
DOT
  3
...........................
 70
64
 72
65
 73
2
 49
0
 49
-0.25
 40
0.25
  0
LTYPE
  2
DASHDOT
  3
__ . __ . __ . __ . __ . __ . 
 70
64
 72
65
 73
4
 49
0.5
 49
-0.25
 49
0
 49
-0.25
 40
1
  0
LTYPE
  2
DIVIDE
  3
__ . . __ . . __ . . __ . . 
 70
64
 72
65
 73
6
 49
0.5
 49
-0.25
 49
0
 49
-0.25
 49
0
 49
-0.25
 40
1.25
  0
LTYPE
  2
BORDER
  3
__ __ . __ __ . __ __ . __ __ . 
 70
64
 72
65
 73
6
 49
0.5
 49
-0.25
 49
0.5
 49
-0.25
 49
0
 49
-0.25
 40
1.75
  0
ENDTAB
  0
TABLE
  2
LAYER
 70
1
  0
LAYER
  2
Perpi
 62
1
  6
CONTINUOUS
 70
0
  0
ENDTAB
  0
TABLE
  2
STYLE
 70
5
  0
STYLE
  2
ptmarker
 70
1
 40
0
 50
0
 71
0
 41
0
 42
0
  3
ptmarks
  0
STYLE
  2
TXT
 70
0
 40
0
 50
0
 71
0
 41
0
 42
0
  3
TXT
  0
STYLE
  2
ITALIC
 70
0
 40
0
 50
0
 71
0
 41
0
 42
0
  3
ITALIC
  0
STYLE
  2
SIMPLEX
 70
0
 40
0
 50
0
 71
0
 41
0
 42
0
  3
SIMPLEX
  0
STYLE
  2
COMPLEX
 70
0
 40
0
 50
0
 71
0
 41
0
 42
0
  3
COMPLEX
  0
ENDTAB
  0
ENDSEC
  0
SECTION
  2
BLOCKS
  0
ENDSEC
  0
SECTION
  2
ENTITIES
  0
LINE
  8
Perpi
  6
CONTINUOUS
 62
8
 10
7.1065874891855
 20
10.87922314512
 11
7.3650091931528
 21
11.02842298547
  0
LINE
  8
Perpi
  6
CONTINUOUS
 62
8
 10
7.1105244970596
 20
10.876950112564
 11
7.3650091931528
 21
11.023876920358
  0
LINE
  8
Perpi
  6
CONTINUOUS
 62
8
 10
7.1026504813115
 20
10.881496177676
 11
7.3650091931528
 21
11.032969050582
  0
LINE
  8
Perpi
  6
CONTINUOUS
 62
8
 10
7.0638069602032
 20
10.864378715402
 11
7.069306669683
 21
10.864378715402
  0
LINE
  8
Perpi
  6
CONTINUOUS
 62
8
 10
7.0573827117321
 20
10.866716950623
 11
7.0638069602032
 21
10.864378715402
  0
LINE
  8
Perpi
  6
CONTINUOUS
 62
8
 10
7.0521456163951
 20
10.871111395388
 11
7.0573827117321
 21
10.866716950623
  0
LINE
  8
Perpi
  6
CONTINUOUS
 62
8
 10
7.0487273451811
 20
10.877032014805
 11
7.0521456163951
 21
10.871111395388
  0
LINE
  8
Perpi
  6
CONTINUOUS
 62
8
 10
7.047540192047
 20
10.883764694792
 11
7.0487273451811
 21
10.877032014805
  0
LINE
  8
Perpi
  6
CONTINUOUS
 62
8
 10
7.0713271568738
 20
10.860501519524
 11
7.0742067999332
 21
10.861549623883
  0
LINE
  8
Perpi
  6
CONTINUOUS
 62
8
 10
7.0631233059604
 20
10.860501519524
 11
7.0713271568738
 21
10.860501519524
  0
LINE
  8
Perpi
  6
CONTINUOUS
 62
8
 10
7.055414207795
 20
10.863307401789
 11
7.0631233059604
 21
10.860501519524
  0
LINE
  8
Perpi
  6
CONTINUOUS
 62
8
 10
7.0491296933907
 20
10.868580735508
 11
7.055414207795
 21
10.863307401789
  0
LINE
  8
Perpi
  6
CONTINUOUS
 62
8
 10
7.0450277679339
 20
10.875685478808
 11
7.0491296933907
 21
10.868580735508
  0
LINE
  8
Perpi
  6
CONTINUOUS
 62
8
 10
7.043603184173
 20
10.883764694792
 11
7.0450277679339
 21
10.875685478808
  0
LINE
  8
Perpi
  6
CONTINUOUS
 62
8
 10
7.0720108111166
 20
10.856624323646
 11
7.0785900314232
 21
10.859018964002
  0
LINE
  8
Perpi
  6
CONTINUOUS
 62
8
 10
7.0624396517176
 20
10.856624323646
 11
7.0720108111166
 21
10.856624323646
  0
LINE
  8
Perpi
  6
CONTINUOUS
 62
8
 10
7.053445703858
 20
10.859897852955
 11
7.0624396517176
 21
10.856624323646
  0
LINE
  8
Perpi
  6
CONTINUOUS
 62
8
 10
7.0461137703862
 20
10.866050075627
 11
7.053445703858
 21
10.859897852955
  0
LINE
  8
Perpi
  6
CONTINUOUS
 62
8
 10
7.0413281906868
 20
10.87433894281
 11
7.0461137703862
 21
10.866050075627
  0
LINE
  8
Perpi
  6
CONTINUOUS
 62
8
 10
7.039666176299
 20
10.883764694792
 11
7.0413281906868
 21
10.87433894281
  0
LINE
  8
Perpi
  6
CONTINUOUS
 62
8
 10
7.0475408238217
 20
10.883623634465
 11
7.0475408238217
 21
11.149735407109
  0
LINE
  8
Perpi
  6
CONTINUOUS
 62
8
 10
7.0436038159477
 20
10.883623634465
 11
7.0436038159477
 21
11.149735407109
  0
LINE
  8
Perpi
  6
CONTINUOUS
 62
8
 10
7.0396668080736
 20
10.883623634465
 11
7.0396668080736
 21
11.149735407109
  0
LINE
  8
Perpi
  6
CONTINUOUS
 62
8
 10
6.2471175928603
 20
9.5749322575025
 11
6.6973819445098
 21
10.354812991397
  0
LINE
  8
Perpi
  6
CONTINUOUS
 62
8
 10
6.4504684424937
 20
9.5749322575025
 11
6.6973819445099
 21
10.002598988069
  0
LINE
  8
Perpi
  6
CONTINUOUS
 62
8
 10
6.5004323973223
 20
9.5749322575025
 11
6.6973819445099
 21
9.9160588797592
  0
LINE
  8
Perpi
  6
DIMSTYLE
 62
8
 10
6.8022605018649
 20
11.149735407109
 11
6.8022605018649
 21
9.5749322575025
  0
LINE
  8
Perpi
  6
CONTINUOUS
 62
8
 10
6.9202865979933
 20
10.61529026792
 11
6.9202865979935
 21
9.5749322575025
  0
LINE
  8
Perpi
  6
CONTINUOUS
 62
8
 10
7.1641739293314
 20
10.75609868432
 11
7.1641739293316
 21
9.5749322575025
  0
LINE
  8
Perpi
  6
CONTINUOUS
 62
8
 10
6.9202865979933
 20
10.61529026792
 11
7.2105135571464
 21
10.782852880913
  0
LINE
  8
Perpi
  6
CONTINUOUS
 62
8
 10
5.7902060435465
 20
9.5749322575025
 11
5.7902060435465
 21
11.149735407109
  0
LINE
  8
Perpi
  6
CONTINUOUS
 62
8
 10
5.7902060435465
 20
11.149735407109
 11
7.3650091931528
 21
11.149735407109
  0
LINE
  8
Perpi
  6
CONTINUOUS
 62
8
 10
7.3650091931528
 20
11.149735407109
 11
7.3650091931528
 21
9.5749322575025
  0
LINE
  8
Perpi
  6
CONTINUOUS
 62
8
 10
7.3650091931528
 20
9.5749322575025
 11
5.7902060435465
 21
9.5749322575025
  0
LINE
  8
Perpi
  6
CONTINUOUS
 62
8
 10
6.2064225883557
 20
10.721971431146
 11
6.4533922350275
 21
11.149735407109
  0
LINE
  8
Perpi
  6
CONTINUOUS
 62
8
 10
6.2073444059252
 20
10.63626702387
 11
6.5037955152084
 21
11.149735407109
  0
LINE
  8
Perpi
  6
CONTINUOUS
 62
8
 10
6.2139306407026
 20
10.296077128342
 11
6.6973819445099
 21
11.133439349522
  0
LINE
  8
Perpi
  6
CONTINUOUS
 62
8
 10
6.2129064965189
 20
10.207763150271
 11
6.6973819445098
 21
11.046899241211
  0
LINE
  8
Perpi
  6
CONTINUOUS
 62
8
 10
6.9408152379932
 20
10.406769436089
 11
7.0319658991306
 21
10.459395294834
  0
LINE
  8
Perpi
  6
CONTINUOUS
 62
8
 10
6.9408152379932
 20
10.125720037305
 11
6.9408152379932
 21
10.254392806329
  0
LINE
  8
Perpi
  6
CONTINUOUS
 62
8
 10
6.9408152379932
 20
10.125720037305
 11
7.0319658991306
 21
10.17834589605
  0
LINE
  8
Perpi
  6
CONTINUOUS
 62
8
 10
6.9408152379932
 20
10.254392806329
 11
7.0319657375092
 21
10.307018571762
  0
LINE
  8
Perpi
  6
CONTINUOUS
 62
8
 10
6.9408152379932
 20
10.278097413561
 11
7.0319655758889
 21
10.330723085682
  0
LINE
  8
Perpi
  6
CONTINUOUS
 62
8
 10
7.0524943988253
 20
10.190198256057
 11
7.0524943988253
 21
10.318870651833
  0
LINE
  8
Perpi
  6
CONTINUOUS
 62
8
 10
7.031965758825
 20
10.178346139065
 11
7.031965758825
 21
10.307018534841
  0
LINE
  8
Perpi
  6
CONTINUOUS
 62
8
 10
7.1436452929052
 20
10.242823984569
 11
7.1436452929052
 21
10.371496753593
  0
LINE
  8
Perpi
  6
CONTINUOUS
 62
8
 10
7.0524943988253
 20
10.471247654841
 11
7.1436451782775
 21
10.523873581895
  0
LINE
  8
Perpi
  6
CONTINUOUS
 62
8
 10
7.0524943988253
 20
10.318870651833
 11
7.1436453398983
 21
10.371496672199
  0
LINE
  8
Perpi
  6
CONTINUOUS
 62
8
 10
7.0524943988253
 20
10.342575259065
 11
7.1436453398983
 21
10.395201279431
  0
LINE
  8
Perpi
  6
CONTINUOUS
 62
8
 10
7.0524943988253
 20
10.342575259065
 11
7.0524943988253
 21
10.471247654841
  0
LINE
  8
Perpi
  6
CONTINUOUS
 62
8
 10
7.031965758825
 20
10.330722768825
 11
7.031965758825
 21
10.459395537849
  0
LINE
  8
Perpi
  6
CONTINUOUS
 62
8
 10
7.1436452929052
 20
10.395201360825
 11
7.1436452929052
 21
10.523873383353
  0
LINE
  8
Perpi
  6
CONTINUOUS
 62
8
 10
7.0524943988253
 20
10.190198256057
 11
7.1436451782775
 21
10.242824183111
  0
LINE
  8
Perpi
  6
CONTINUOUS
 62
8
 10
6.9408152379932
 20
10.278097413561
 11
6.9408152379932
 21
10.406769436089
  0
LINE
  8
Perpi
  6
CONTINUOUS
 62
8
 10
7.031965758825
 20
10.330722768825
 11
6.9408150976877
 21
10.38334862757
  0
LINE
  8
Perpi
  6
CONTINUOUS
 62
8
 10
7.1436452929052
 20
10.395201360825
 11
7.0524946750729
 21
10.447827194567
  0
LINE
  8
Perpi
  6
CONTINUOUS
 62
8
 10
7.1436452929052
 20
10.242823984569
 11
7.052494351832
 21
10.295450004935
  0
LINE
  8
Perpi
  6
CONTINUOUS
 62
8
 10
7.031965758825
 20
10.178346139065
 11
6.9408150976877
 21
10.23097199781
  0
LINE
  8
Perpi
  6
CONTINUOUS
 62
8
 10
6.9202865979934
 20
10.090163686329
 11
7.1641739293314
 21
10.230972102729
  0
LINE
  8
Perpi
  6
CONTINUOUS
 62
8
 10
7.1436452929052
 20
10.676250386361
 11
7.1436452929052
 21
10.547577990585
  0
LINE
  8
Perpi
  6
CONTINUOUS
 62
8
 10
6.9408152379932
 20
10.559146439097
 11
7.0319660174455
 21
10.611772366151
  0
LINE
  8
Perpi
  6
CONTINUOUS
 62
8
 10
6.9408152379932
 20
10.430474043321
 11
7.0319661790663
 21
10.483100063687
  0
LINE
  8
Perpi
  6
CONTINUOUS
 62
8
 10
6.9408152379932
 20
10.430474043321
 11
6.9408152379932
 21
10.559146439097
  0
LINE
  8
Perpi
  6
CONTINUOUS
 62
8
 10
7.0319661320731
 20
10.483100145081
 11
7.0319661320731
 21
10.611772167609
  0
LINE
  8
Perpi
  6
CONTINUOUS
 62
8
 10
7.052494772073
 20
10.494951888825
 11
7.1436454332108
 21
10.54757774757
  0
LINE
  8
Perpi
  6
CONTINUOUS
 62
8
 10
7.052494772073
 20
10.494951888825
 11
7.052494772073
 21
10.623624657849
  0
LINE
  8
Perpi
  6
CONTINUOUS
 62
8
 10
7.0319661320731
 20
10.483100145081
 11
6.9408155142411
 21
10.535725978824
  0
LINE
  8
Perpi
  6
CONTINUOUS
 62
8
 10
7.1436452929052
 20
10.547577990585
 11
7.0524947933891
 21
10.600203756018
  0
LINE
  8
Perpi
  6
CONTINUOUS
 62
8
 10
7.052494772073
 20
10.623624657849
 11
7.1436452715893
 21
10.676250423282
  0
LINE
  8
Perpi
  6
CONTINUOUS
 62
8
 10
6.9202865979933
 20
10.570998929337
 11
7.1641739293314
 21
10.711807345737
  0
LINE
  8
Perpi
  6
CONTINUOUS
 62
8
 10
6.2161998778069
 20
9.6088527025242
 11
6.6914656780867
 21
10.432037215709
  0
POLYLINE
  8
Perpi
  6
CONTINUOUS
 62
8
 70
0
 66
1
  0
VERTEX
  8
Perpi
  6
CONTINUOUS
 62
8
 10
5.7902060435465
 20
10.40045148808
  0
VERTEX
  8
Perpi
  6
CONTINUOUS
 62
8
 10
5.8097423590802
 20
10.378822678781
  0
VERTEX
  8
Perpi
  6
CONTINUOUS
 62
8
 10
5.8839322398254
 20
10.347386515938
  0
VERTEX
  8
Perpi
  6
CONTINUOUS
 62
8
 10
5.9921705174514
 20
10.277091545967
  0
VERTEX
  8
Perpi
  6
CONTINUOUS
 62
8
 10
6.0970286105012
 20
10.222631222737
  0
VERTEX
  8
Perpi
  6
CONTINUOUS
 62
8
 10
6.171103168287
 20
10.170051478056
  0
VERTEX
  8
Perpi
  6
CONTINUOUS
 62
8
 10
6.2128962346757
 20
10.155735018729
  0
SEQEND
  0
POLYLINE
  8
Perpi
  6
CONTINUOUS
 62
8
 70
0
 66
1
  0
VERTEX
  8
Perpi
  6
CONTINUOUS
 62
8
 10
6.2128962346757
 20
10.206878251237
  0
VERTEX
  8
Perpi
  6
CONTINUOUS
 62
8
 10
6.1387515059708
 20
10.259517803474
  0
VERTEX
  8
Perpi
  6
CONTINUOUS
 62
8
 10
6.0333090510141
 20
10.301055740275
  0
VERTEX
  8
Perpi
  6
CONTINUOUS
 62
8
 10
5.9374522737807
 20
10.374545936154
  0
VERTEX
  8
Perpi
  6
CONTINUOUS
 62
8
 10
5.8128384633773
 20
10.435255228402
  0
VERTEX
  8
Perpi
  6
CONTINUOUS
 62
8
 10
5.7902060435465
 20
10.455388663698
  0
SEQEND
  0
LINE
  8
Perpi
  6
CONTINUOUS
 62
8
 10
6.2128962346757
 20
10.155735018729
 11
6.6973819445098
 21
10.435452973721
  0
LINE
  8
Perpi
  6
CONTINUOUS
 62
8
 10
6.2128962346757
 20
10.206878251237
 11
6.6973819445098
 21
10.486596206228
  0
LINE
  8
Perpi
  6
CONTINUOUS
 62
8
 10
6.6973819445098
 20
10.435452973721
 11
6.69738194451
 21
9.5749322575025
  0
LINE
  8
Perpi
  6
CONTINUOUS
 62
8
 10
6.2316100484525
 20
10.166539444151
 11
6.2316100484525
 21
10.217682676658
  0
POLYLINE
  8
Perpi
  6
CONTINUOUS
 62
8
 70
0
 66
1
  0
VERTEX
  8
Perpi
  6
CONTINUOUS
 62
8
 10
6.2128962346757
 20
10.155735018729
  0
VERTEX
  8
Perpi
  6
CONTINUOUS
 62
8
 10
6.2137164785972
 20
10.084783995552
  0
VERTEX
  8
Perpi
  6
CONTINUOUS
 62
8
 10
6.2221633571641
 20
9.9605036797129
  0
VERTEX
  8
Perpi
  6
CONTINUOUS
 62
8
 10
6.2137359636141
 20
9.8435184026913
  0
VERTEX
  8
Perpi
  6
CONTINUOUS
 62
8
 10
6.2212273478783
 20
9.7108050673141
  0
VERTEX
  8
Perpi
  6
CONTINUOUS
 62
8
 10
6.2147594028868
 20
9.5749322575025
  0
SEQEND
  0
POLYLINE
  8
Perpi
  6
CONTINUOUS
 62
8
 70
0
 66
1
  0
VERTEX
  8
Perpi
  6
CONTINUOUS
 62
8
 10
6.2128962346756
 20
10.206878251237
  0
VERTEX
  8
Perpi
  6
CONTINUOUS
 62
8
 10
6.2140465671746
 20
10.306073697247
  0
VERTEX
  8
Perpi
  6
CONTINUOUS
 62
8
 10
6.2234448223756
 20
10.358458410011
  0
VERTEX
  8
Perpi
  6
CONTINUOUS
 62
8
 10
6.218877272744
 20
10.460035466426
  0
VERTEX
  8
Perpi
  6
CONTINUOUS
 62
8
 10
6.2077472161229
 20
10.598816436698
  0
VERTEX
  8
Perpi
  6
CONTINUOUS
 62
8
 10
6.2059734303264
 20
10.763731128453
  0
VERTEX
  8
Perpi
  6
CONTINUOUS
 62
8
 10
6.2210620508544
 20
10.875027501929
  0
VERTEX
  8
Perpi
  6
CONTINUOUS
 62
8
 10
6.22188935798
 20
10.972482982666
  0
VERTEX
  8
Perpi
  6
CONTINUOUS
 62
8
 10
6.2238857347473
 20
11.149735407109
  0
SEQEND
  0
LINE
  8
Perpi
  6
CONTINUOUS
 62
8
 10
6.6973819445098
 20
10.435452973721
 11
6.6973819445099
 21
11.149735407109
  0
LINE
  8
Perpi
  6
CONTINUOUS
 62
8
 10
6.2215811115797
 20
9.9690703549128
 11
6.3875798908858
 21
10.256588674665
  0
LINE
  8
Perpi
  6
CONTINUOUS
 62
8
 10
6.2163187841815
 20
10.046495844803
 11
6.3126339586429
 21
10.21331862051
  0
LINE
  8
Perpi
  6
CONTINUOUS
 62
8
 10
6.9408152379933
 20
9.8816428544987
 11
7.0319658991307
 21
9.9342687132433
  0
LINE
  8
Perpi
  6
CONTINUOUS
 62
8
 10
6.9408152379933
 20
9.6005934557148
 11
6.9408152379933
 21
9.7292662247387
  0
LINE
  8
Perpi
  6
CONTINUOUS
 62
8
 10
6.9408152379933
 20
9.6005934557148
 11
7.0319658991307
 21
9.6532193144592
  0
LINE
  8
Perpi
  6
CONTINUOUS
 62
8
 10
6.9408152379933
 20
9.7292662247387
 11
7.0319657375093
 21
9.781891990171
  0
LINE
  8
Perpi
  6
CONTINUOUS
 62
8
 10
6.9408152379933
 20
9.7529708319707
 11
7.031965575889
 21
9.8055965040914
  0
LINE
  8
Perpi
  6
CONTINUOUS
 62
8
 10
7.0524943988254
 20
9.6650716744667
 11
7.0524943988254
 21
9.7937440702427
  0
LINE
  8
Perpi
  6
CONTINUOUS
 62
8
 10
7.0319657588251
 20
9.6532195574747
 11
7.0319657588251
 21
9.7818919532507
  0
LINE
  8
Perpi
  6
CONTINUOUS
 62
8
 10
7.1436452929053
 20
9.7176974029787
 11
7.1436452929053
 21
9.8463701720026
  0
LINE
  8
Perpi
  6
CONTINUOUS
 62
8
 10
7.0524943988254
 20
9.9461210732507
 11
7.1436451782776
 21
9.9987470003045
  0
LINE
  8
Perpi
  6
CONTINUOUS
 62
8
 10
7.0524943988254
 20
9.7937440702427
 11
7.1436453398984
 21
9.8463700906081
  0
LINE
  8
Perpi
  6
CONTINUOUS
 62
8
 10
7.0524943988254
 20
9.8174486774748
 11
7.1436453398984
 21
9.8700746978403
  0
LINE
  8
Perpi
  6
CONTINUOUS
 62
8
 10
7.0524943988254
 20
9.8174486774748
 11
7.0524943988254
 21
9.9461210732507
  0
LINE
  8
Perpi
  6
CONTINUOUS
 62
8
 10
7.0319657588251
 20
9.8055961872349
 11
7.0319657588251
 21
9.9342689562588
  0
LINE
  8
Perpi
  6
CONTINUOUS
 62
8
 10
7.1436452929053
 20
9.8700747792347
 11
7.1436452929053
 21
9.9987468017628
  0
LINE
  8
Perpi
  6
CONTINUOUS
 62
8
 10
7.0524943988254
 20
9.6650716744667
 11
7.1436451782776
 21
9.7176976015204
  0
LINE
  8
Perpi
  6
CONTINUOUS
 62
8
 10
6.9408152379933
 20
9.7529708319707
 11
6.9408152379933
 21
9.8816428544987
  0
LINE
  8
Perpi
  6
CONTINUOUS
 62
8
 10
7.0319657588251
 20
9.8055961872349
 11
6.9408150976878
 21
9.8582220459792
  0
LINE
  8
Perpi
  6
CONTINUOUS
 62
8
 10
7.1436452929053
 20
9.8700747792347
 11
7.0524946750729
 21
9.9227006129769
  0
LINE
  8
Perpi
  6
CONTINUOUS
 62
8
 10
7.1436452929053
 20
9.7176974029787
 11
7.0524943518321
 21
9.7703234233442
  0
LINE
  8
Perpi
  6
CONTINUOUS
 62
8
 10
7.0319657588251
 20
9.6532195574747
 11
6.9408150976878
 21
9.7058454162194
  0
LINE
  8
Perpi
  6
CONTINUOUS
 62
8
 10
6.9408152379933
 20
10.034019857507
 11
7.0319660174456
 21
10.08664578456
  0
LINE
  8
Perpi
  6
CONTINUOUS
 62
8
 10
6.9408152379933
 20
9.9053474617308
 11
7.0319661790664
 21
9.9579734820962
  0
LINE
  8
Perpi
  6
CONTINUOUS
 62
8
 10
6.9408152379933
 20
9.9053474617308
 11
6.9408152379933
 21
10.034019857507
  0
LINE
  8
Perpi
  6
CONTINUOUS
 62
8
 10
7.0319661320732
 20
9.9579735634908
 11
7.0319661320732
 21
10.086645586019
  0
LINE
  8
Perpi
  6
CONTINUOUS
 62
8
 10
7.0524947720731
 20
9.9698253072348
 11
7.1436454332109
 21
10.022451165979
  0
LINE
  8
Perpi
  6
CONTINUOUS
 62
8
 10
7.0319661320732
 20
9.9579735634908
 11
6.9408155142412
 21
10.010599397233
  0
LINE
  8
Perpi
  6
CONTINUOUS
 62
8
 10
7.1436452929053
 20
10.022451408995
 11
7.0524947933892
 21
10.075077174427
  0
LINE
  8
Perpi
  6
CONTINUOUS
 62
8
 10
7.0524947720731
 20
9.9698253072348
 11
7.0524947720731
 21
10.098498076259
  0
LINE
  8
Perpi
  6
CONTINUOUS
 62
8
 10
7.0524947720731
 20
10.098498076259
 11
7.1436452715894
 21
10.151123841691
  0
LINE
  8
Perpi
  6
CONTINUOUS
 62
8
 10
7.1436452929053
 20
10.151123804771
 11
7.1436452929053
 21
10.022451408995
  0
LINE
  8
Perpi
  6
CONTINUOUS
 62
8
 10
6.9202865979934
 20
10.045872347747
 11
7.1641739293315
 21
10.186680764147
  0
LINE
  8
Perpi
  6
CONTINUOUS
 62
8
 10
6.9374255053288
 20
9.5749322575025
 11
7.1641739293315
 21
9.7058455211388
  0
LINE
  8
Perpi
  6
CONTINUOUS
 62
8
 10
7.0551980926009
 20
9.5749322575025
 11
7.1436452715895
 21
9.6259972601005
  0
LINE
  8
Perpi
  6
CONTINUOUS
 62
8
 10
7.1436452929054
 20
9.6259972231801
 11
7.1436452929054
 21
9.5749322575025
  0
LINE
  8
Perpi
  6
CONTINUOUS
 62
8
 10
7.0141403540892
 20
9.5749322575025
 11
7.1641739293316
 21
9.6615541825562
  0
LINE
  8
Perpi
  6
CONTINUOUS
 62
8
 10
6.2316100484525
 20
10.166539444151
 11
5.7902060435465
 21
10.421384165205
  0
LINE
  8
Perpi
  6
CONTINUOUS
 62
8
 10
7.1436452929052
 20
10.676250386361
 11
7.1436452929052
 21
10.547577990585
  0
CIRCLE
  8
Perpi
  6
CONTINUOUS
 62
8
 10
5.8272616946119
 20
10.265487718058
 40
0.0039370078740157
  0
CIRCLE
  8
Perpi
  6
CONTINUOUS
 62
8
 10
5.8689668118253
 20
10.151254274917
 40
0.0039370078740157
  0
CIRCLE
  8
Perpi
  6
CONTINUOUS
 62
8
 10
6.0553133957708
 20
10.082744501408
 40
0.0039370078740157
  0
CIRCLE
  8
Perpi
  6
CONTINUOUS
 62
8
 10
6.0991596508168
 20
9.8744747899395
 40
0.0039370078740157
  0
CIRCLE
  8
Perpi
  6
CONTINUOUS
 62
8
 10
5.9676208856788
 20
9.863513226178
 40
0.0039370078740157
  0
CIRCLE
  8
Perpi
  6
CONTINUOUS
 62
8
 10
6.0553133957708
 20
9.6826474241133
 40
0.0039370078740157
  0
CIRCLE
  8
Perpi
  6
CONTINUOUS
 62
8
 10
5.8618677894893
 20
9.6771841051418
 40
0.0039370078740157
  0
CIRCLE
  8
Perpi
  6
CONTINUOUS
 62
8
 10
6.0427682285748
 20
11.032812080916
 40
0.0039370078740157
  0
CIRCLE
  8
Perpi
  6
CONTINUOUS
 62
8
 10
5.8564216446293
 20
11.005408171512
 40
0.0039370078740157
  0
CIRCLE
  8
Perpi
  6
CONTINUOUS
 62
8
 10
6.0991596508168
 20
10.337600858863
 40
0.0039370078740157
  0
CIRCLE
  8
Perpi
  6
CONTINUOUS
 62
8
 10
6.1210827783398
 20
10.477360796822
 40
0.0039370078740157
  0
CIRCLE
  8
Perpi
  6
CONTINUOUS
 62
8
 10
5.8908899393483
 20
10.523947442808
 40
0.0039370078740157
  0
CIRCLE
  8
Perpi
  6
CONTINUOUS
 62
8
 10
6.0361306591881
 20
10.658226598887
 40
0.0039370078740157
  0
CIRCLE
  8
Perpi
  6
CONTINUOUS
 62
8
 10
5.9511785400365
 20
10.685630508291
 40
0.0039370078740157
  0
CIRCLE
  8
Perpi
  6
CONTINUOUS
 62
8
 10
6.137525123982
 20
10.877457874117
 40
0.0039370078740157
  0
CIRCLE
  8
Perpi
  6
CONTINUOUS
 62
8
 10
5.8689668118253
 20
10.844573182832
 40
0.0039370078740157
  0
CIRCLE
  8
Perpi
  6
CONTINUOUS
 62
8
 10
5.9703612766191
 20
10.839092400952
 40
0.0039370078740157
  0
CIRCLE
  8
Perpi
  6
CONTINUOUS
 62
8
 10
5.893013274879
 20
11.08911277614
 40
0.0039370078740157
  0
CIRCLE
  8
Perpi
  6
CONTINUOUS
 62
8
 10
5.8341829135874
 20
9.9574934736489
 40
0.0039370078740157
  0
CIRCLE
  8
Perpi
  6
CONTINUOUS
 62
8
 10
6.1441626933687
 20
10.986225434929
 40
0.0039370078740157
  0
CIRCLE
  8
Perpi
  6
CONTINUOUS
 62
8
 10
6.1676694243262
 20
10.107408019871
 40
0.0039370078740157
  0
LINE
  8
Perpi
  6
DIMSTYLE
 62
8
 10
6.9124125822452
 20
11.149735407109
 11
6.9124125822454
 21
9.5749322575025
  0
LINE
  8
Perpi
  6
CONTINUOUS
 62
8
 10
6.9202865979933
 20
10.61529026792
 11
6.9202865979933
 21
11.149735407109
  0
POLYLINE
  8
Perpi
  6
CONTINUOUS
 62
8
 70
0
 66
1
  0
VERTEX
  8
Perpi
  6
CONTINUOUS
 62
8
 10
7.1379767693622
 20
11.149735407109
  0
VERTEX
  8
Perpi
  6
CONTINUOUS
 62
8
 10
7.1291883103947
 20
11.137660042926
  0
VERTEX
  8
Perpi
  6
CONTINUOUS
 62
8
 10
7.1349522666579
 20
11.131896086663
  0
VERTEX
  8
Perpi
  6
CONTINUOUS
 62
8
 10
7.1248653431974
 20
11.120368174137
  0
VERTEX
  8
Perpi
  6
CONTINUOUS
 62
8
 10
7.1313497939934
 20
11.108119767078
  0
VERTEX
  8
Perpi
  6
CONTINUOUS
 62
8
 10
7.1335112775921
 20
11.092989381887
  0
VERTEX
  8
Perpi
  6
CONTINUOUS
 62
8
 10
7.1493621573156
 20
11.105958283479
  0
VERTEX
  8
Perpi
  6
CONTINUOUS
 62
8
 10
7.1580080917103
 20
11.101635316282
  0
VERTEX
  8
Perpi
  6
CONTINUOUS
 62
8
 10
7.166654026105
 20
11.114604217874
  0
VERTEX
  8
Perpi
  6
CONTINUOUS
 62
8
 10
7.1608900698419
 20
11.134778064795
  0
VERTEX
  8
Perpi
  6
CONTINUOUS
 62
8
 10
7.166654026105
 20
11.144864988255
  0
VERTEX
  8
Perpi
  6
CONTINUOUS
 62
8
 10
7.1586569933739
 20
11.149735407109
  0
SEQEND
  0
POLYLINE
  8
Perpi
  6
CONTINUOUS
 62
8
 70
1
 66
1
  0
VERTEX
  8
Perpi
  6
CONTINUOUS
 62
8
 10
7.2344210375643
 20
10.864844253712
  0
VERTEX
  8
Perpi
  6
CONTINUOUS
 62
8
 10
7.2476671683847
 20
10.870957852552
  0
VERTEX
  8
Perpi
  6
CONTINUOUS
 62
8
 10
7.259894366065
 20
10.871976785692
  0
VERTEX
  8
Perpi
  6
CONTINUOUS
 62
8
 10
7.257856499785
 20
10.906620512453
  0
VERTEX
  8
Perpi
  6
CONTINUOUS
 62
8
 10
7.2313642381442
 20
10.898469047333
  0
VERTEX
  8
Perpi
  6
CONTINUOUS
 62
8
 10
7.2150613079038
 20
10.889298649073
  0
VERTEX
  8
Perpi
  6
CONTINUOUS
 62
8
 10
7.2344210375643
 20
10.864844253712
  0
SEQEND
  0
POLYLINE
  8
Perpi
  6
CONTINUOUS
 62
8
 70
1
 66
1
  0
VERTEX
  8
Perpi
  6
CONTINUOUS
 62
8
 10
7.0063374590978
 20
10.800545364457
  0
VERTEX
  8
Perpi
  6
CONTINUOUS
 62
8
 10
7.0128219098938
 20
10.788296957398
  0
VERTEX
  8
Perpi
  6
CONTINUOUS
 62
8
 10
7.0149833934925
 20
10.773166572207
  0
VERTEX
  8
Perpi
  6
CONTINUOUS
 62
8
 10
7.030834273216
 20
10.786135473799
  0
VERTEX
  8
Perpi
  6
CONTINUOUS
 62
8
 10
7.0394802076107
 20
10.781812506602
  0
VERTEX
  8
Perpi
  6
CONTINUOUS
 62
8
 10
7.0481261420054
 20
10.794781408194
  0
VERTEX
  8
Perpi
  6
CONTINUOUS
 62
8
 10
7.0423621857423
 20
10.814955255115
  0
VERTEX
  8
Perpi
  6
CONTINUOUS
 62
8
 10
7.0063374590978
 20
10.800545364457
  0
SEQEND
  0
POLYLINE
  8
Perpi
  6
CONTINUOUS
 62
8
 70
1
 66
1
  0
VERTEX
  8
Perpi
  6
CONTINUOUS
 62
8
 10
7.2638336335517
 20
11.021257396118
  0
VERTEX
  8
Perpi
  6
CONTINUOUS
 62
8
 10
7.2667237306532
 20
11.030650211698
  0
VERTEX
  8
Perpi
  6
CONTINUOUS
 62
8
 10
7.2732264491316
 20
11.039320503002
  0
VERTEX
  8
Perpi
  6
CONTINUOUS
 62
8
 10
7.2587759636241
 20
11.040765551553
  0
VERTEX
  8
Perpi
  6
CONTINUOUS
 62
8
 10
7.256608390798
 20
11.047268270031
  0
VERTEX
  8
Perpi
  6
CONTINUOUS
 62
8
 10
7.2457705266674
 20
11.045100697205
  0
VERTEX
  8
Perpi
  6
CONTINUOUS
 62
8
 10
7.2385452839137
 20
11.032095260248
  0
VERTEX
  8
Perpi
  6
CONTINUOUS
 62
8
 10
7.2638336335517
 20
11.021257396118
  0
SEQEND
  0
CIRCLE
  8
Perpi
  6
CONTINUOUS
 62
8
 10
7.3051891222232
 20
10.937118522297
 40
0.0039370078740157
  0
CIRCLE
  8
Perpi
  6
CONTINUOUS
 62
8
 10
6.9678635789157
 20
10.869236701296
 40
0.0039370078740157
  0
CIRCLE
  8
Perpi
  6
CONTINUOUS
 62
8
 10
7.1017004918247
 20
10.804989285244
 40
0.0039370078740157
  0
CIRCLE
  8
Perpi
  6
CONTINUOUS
 62
8
 10
7.3024487312828
 20
11.074138069316
 40
0.0039370078740157
  0
CIRCLE
  8
Perpi
  6
CONTINUOUS
 62
8
 10
7.1953160269669
 20
10.850053964713
 40
0.0039370078740157
  0
CIRCLE
  8
Perpi
  6
CONTINUOUS
 62
8
 10
6.9548510165105
 20
10.692383145603
 40
0.0039370078740157
  0
CIRCLE
  8
Perpi
  6
CONTINUOUS
 62
8
 10
7.0257602197504
 20
11.032110077426
 40
0.0039370078740157
  0
LINE
  8
Perpi
  6
CONTINUOUS
 62
8
 10
6.5166377262006
 20
10.382243483132
 11
6.6973819445098
 21
10.695301652418
  0
LINE
  8
Perpi
  6
CONTINUOUS
 62
8
 10
6.5915836584435
 20
10.425513537287
 11
6.6973819445098
 21
10.608761544108
  0
LINE
  8
Perpi
  6
CONTINUOUS
 62
8
 10
6.9124125822452
 20
10.901473767587
 11
6.8022605018649
 21
10.837877434328
  0
LINE
  8
Perpi
  6
CONTINUOUS
 62
8
 10
7.2521137538494
 20
10.777019256595
 11
7.0475408238217
 21
10.895129492816
  0
LINE
  8
Perpi
  6
CONTINUOUS
 62
8
 10
6.9124125822453
 20
10.806079267698
 11
6.8022605018649
 21
10.742482934439
  0
LINE
  8
Perpi
  6
CONTINUOUS
 62
8
 10
6.9124125822453
 20
10.710684767809
 11
6.8022605018649
 21
10.64708843455
  0
LINE
  8
Perpi
  6
CONTINUOUS
 62
8
 10
6.9124125822453
 20
10.61529026792
 11
6.8022605018649
 21
10.551693934661
  0
LINE
  8
Perpi
  6
CONTINUOUS
 62
8
 10
6.9124125822453
 20
10.519895768031
 11
6.8022605018649
 21
10.456299434771
  0
LINE
  8
Perpi
  6
CONTINUOUS
 62
8
 10
6.9124125822453
 20
10.424501268142
 11
6.8022605018649
 21
10.360904934882
  0
LINE
  8
Perpi
  6
CONTINUOUS
 62
8
 10
6.9124125822453
 20
10.329106768253
 11
6.8022605018649
 21
10.265510434993
  0
LINE
  8
Perpi
  6
CONTINUOUS
 62
8
 10
6.9124125822453
 20
10.233712268363
 11
6.8022605018649
 21
10.170115935104
  0
LINE
  8
Perpi
  6
CONTINUOUS
 62
8
 10
6.9124125822453
 20
10.138317768474
 11
6.8022605018649
 21
10.074721435215
  0
LINE
  8
Perpi
  6
CONTINUOUS
 62
8
 10
6.9124125822453
 20
10.042923268585
 11
6.8022605018649
 21
9.9793269353258
  0
LINE
  8
Perpi
  6
CONTINUOUS
 62
8
 10
6.9124125822453
 20
9.947528768696
 11
6.8022605018649
 21
9.8839324354366
  0
LINE
  8
Perpi
  6
CONTINUOUS
 62
8
 10
6.9124125822453
 20
9.8521342688069
 11
6.8022605018649
 21
9.7885379355475
  0
LINE
  8
Perpi
  6
CONTINUOUS
 62
8
 10
6.9124125822452
 20
9.7567397689177
 11
6.8022605018649
 21
9.6931434356583
  0
LINE
  8
Perpi
  6
CONTINUOUS
 62
8
 10
6.9124125822453
 20
9.6613452690286
 11
6.8022605018649
 21
9.5977489357692
  0
LINE
  8
Perpi
  6
CONTINUOUS
 62
8
 10
6.9124125822452
 20
10.996868267476
 11
6.8022605018649
 21
10.933271934217
  0
LINE
  8
Perpi
  6
CONTINUOUS
 62
8
 10
6.9124125822452
 20
11.092262767366
 11
6.8022605018649
 21
11.028666434106
  0
LINE
  8
Perpi
  6
CONTINUOUS
 62
8
 10
6.846729993755
 20
11.149735407109
 11
6.8022605018648
 21
11.124060933995
  0
LINE
  8
Perpi
  6
CONTINUOUS
 62
8
 10
6.9124125822452
 20
11.044565517421
 11
6.8022605018649
 21
10.980969184162
  0
LINE
  8
Perpi
  6
CONTINUOUS
 62
8
 10
6.9124125822452
 20
11.13996001731
 11
6.8022605018648
 21
11.076363684051
  0
LINE
  8
Perpi
  6
CONTINUOUS
 62
8
 10
6.9124125822452
 20
10.949171017532
 11
6.8022605018649
 21
10.885574684272
  0
LINE
  8
Perpi
  6
CONTINUOUS
 62
8
 10
6.9124125822452
 20
10.853776517643
 11
6.8022605018649
 21
10.790180184383
  0
LINE
  8
Perpi
  6
CONTINUOUS
 62
8
 10
6.9124125822453
 20
10.758382017754
 11
6.8022605018649
 21
10.694785684494
  0
LINE
  8
Perpi
  6
CONTINUOUS
 62
8
 10
6.9124125822453
 20
10.662987517865
 11
6.8022605018649
 21
10.599391184605
  0
LINE
  8
Perpi
  6
CONTINUOUS
 62
8
 10
6.9124125822453
 20
10.567593017975
 11
6.8022605018649
 21
10.503996684716
  0
LINE
  8
Perpi
  6
CONTINUOUS
 62
8
 10
6.9124125822453
 20
10.472198518086
 11
6.8022605018649
 21
10.408602184827
  0
LINE
  8
Perpi
  6
CONTINUOUS
 62
8
 10
6.9124125822453
 20
10.376804018197
 11
6.8022605018649
 21
10.313207684938
  0
LINE
  8
Perpi
  6
CONTINUOUS
 62
8
 10
6.9124125822453
 20
10.281409518308
 11
6.8022605018649
 21
10.217813185049
  0
LINE
  8
Perpi
  6
CONTINUOUS
 62
8
 10
6.9124125822453
 20
10.186015018419
 11
6.8022605018649
 21
10.122418685159
  0
LINE
  8
Perpi
  6
CONTINUOUS
 62
8
 10
6.9124125822453
 20
10.09062051853
 11
6.8022605018649
 21
10.02702418527
  0
LINE
  8
Perpi
  6
CONTINUOUS
 62
8
 10
6.9124125822453
 20
9.9952260186406
 11
6.8022605018649
 21
9.9316296853812
  0
LINE
  8
Perpi
  6
CONTINUOUS
 62
8
 10
6.9124125822453
 20
9.8998315187515
 11
6.8022605018649
 21
9.8362351854921
  0
LINE
  8
Perpi
  6
CONTINUOUS
 62
8
 10
6.9124125822452
 20
9.8044370188623
 11
6.8022605018649
 21
9.7408406856029
  0
LINE
  8
Perpi
  6
CONTINUOUS
 62
8
 10
6.9124125822453
 20
9.7090425189732
 11
6.8022605018649
 21
9.6454461857137
  0
LINE
  8
Perpi
  6
CONTINUOUS
 62
8
 10
6.9124125822453
 20
9.613648019084
 11
6.8453549161323
 21
9.5749322575025
  0
LINE
  8
Perpi
  6
DIMSTYLE
 62
8
 10
6.829819556983
 20
11.149735407109
 11
6.829819556983
 21
9.5749322575025
  0
LINE
  8
Perpi
  6
DIMSTYLE
 62
8
 10
6.8573786121011
 20
11.149735407109
 11
6.8573786121011
 21
9.5749322575025
  0
LINE
  8
Perpi
  6
DIMSTYLE
 62
8
 10
6.8849376672192
 20
11.149735407109
 11
6.8849376672192
 21
9.5749322575025
  0
LINE
  8
Perpi
  6
DIMSTYLE
 62
8
 10
7.2578779334366
 20
10.782783436182
 11
7.0533050034088
 21
10.900893672403
  0
LINE
  8
Perpi
  6
DIMSTYLE
 62
8
 10
7.2500039176885
 20
10.769145240847
 11
7.0454309876608
 21
10.887255477068
  0
POLYLINE
  8
Perpi
  6
CONTINUOUS
 62
8
 70
0
 66
1
  0
VERTEX
  8
Perpi
  6
CONTINUOUS
 62
8
 10
6.2129334625675
 20
10.210088485973
  0
VERTEX
  8
Perpi
  6
CONTINUOUS
 62
8
 10
6.1383982153889
 20
10.263005289445
  0
VERTEX
  8
Perpi
  6
CONTINUOUS
 62
8
 10
6.0330241423338
 20
10.304516287922
  0
VERTEX
  8
Perpi
  6
CONTINUOUS
 62
8
 10
5.937291110371
 20
10.377911612426
  0
VERTEX
  8
Perpi
  6
CONTINUOUS
 62
8
 10
5.8128082413707
 20
10.438557112709
  0
VERTEX
  8
Perpi
  6
CONTINUOUS
 62
8
 10
5.7905808909893
 20
10.458330204761
  0
SEQEND
  0
LINE
  8
Perpi
  6
CONTINUOUS
 62
8
 10
7.2736259649327
 20
10.782783436182
 11
7.0690530349049
 21
10.900893672403
  0
LINE
  8
Perpi
  6
CONTINUOUS
 62
8
 10
7.2578779334366
 20
10.755507045512
 11
7.0533050034088
 21
10.873617281733
  0
CIRCLE
  8
Perpi
  6
CONTINUOUS
 62
8
 10
7.2657519491846
 20
10.769145240847
 40
0.015748031496082
  0
LINE
  8
Perpi
  6
CONTINUOUS
 62
8
 10
7.0690530349049
 20
10.900893672403
 11
7.0665651631462
 21
10.902053786056
  0
LINE
  8
Perpi
  6
CONTINUOUS
 62
8
 10
7.0665651631462
 20
10.902053786056
 11
7.063913636128
 21
10.90276426058
  0
LINE
  8
Perpi
  6
CONTINUOUS
 62
8
 10
7.063913636128
 20
10.90276426058
 11
7.0611790191569
 21
10.903003508564
  0
LINE
  8
Perpi
  6
CONTINUOUS
 62
8
 10
7.0611790191569
 20
10.903003508564
 11
7.0584444021857
 21
10.90276426058
  0
LINE
  8
Perpi
  6
CONTINUOUS
 62
8
 10
7.0584444021857
 20
10.90276426058
 11
7.0557928751675
 21
10.902053786056
  0
LINE
  8
Perpi
  6
CONTINUOUS
 62
8
 10
7.0557928751675
 20
10.902053786056
 11
7.0533050034088
 21
10.900893672403
  0
LINE
  8
Perpi
  6
CONTINUOUS
 62
8
 10
7.0533050034088
 20
10.900893672403
 11
7.0510563796342
 21
10.899319169085
  0
LINE
  8
Perpi
  6
CONTINUOUS
 62
8
 10
7.0510563796342
 20
10.899319169085
 11
7.0491153271392
 21
10.89737811659
  0
LINE
  8
Perpi
  6
CONTINUOUS
 62
8
 10
7.0491153271392
 20
10.89737811659
 11
7.0475408238217
 21
10.895129492816
  0
LINE
  8
Perpi
  6
CONTINUOUS
 62
8
 10
7.0475408238217
 20
10.895129492816
 11
7.0463807101681
 21
10.892641621057
  0
LINE
  8
Perpi
  6
CONTINUOUS
 62
8
 10
7.0463807101681
 20
10.892641621057
 11
7.0456702356449
 21
10.889990094039
  0
LINE
  8
Perpi
  6
CONTINUOUS
 62
8
 10
7.0456702356449
 20
10.889990094039
 11
7.0454309876608
 21
10.887255477068
  0
LINE
  8
Perpi
  6
CONTINUOUS
 62
8
 10
7.0454309876608
 20
10.887255477068
 11
7.0456702356449
 21
10.884520860097
  0
LINE
  8
Perpi
  6
CONTINUOUS
 62
8
 10
7.0456702356449
 20
10.884520860097
 11
7.0463807101681
 21
10.881869333078
  0
LINE
  8
Perpi
  6
CONTINUOUS
 62
8
 10
7.0463807101681
 20
10.881869333078
 11
7.0475408238217
 21
10.87938146132
  0
LINE
  8
Perpi
  6
CONTINUOUS
 62
8
 10
7.0475408238217
 20
10.87938146132
 11
7.0491153271392
 21
10.877132837545
  0
LINE
  8
Perpi
  6
CONTINUOUS
 62
8
 10
7.0491153271392
 20
10.877132837545
 11
7.0510563796342
 21
10.87519178505
  0
LINE
  8
Perpi
  6
CONTINUOUS
 62
8
 10
7.0510563796342
 20
10.87519178505
 11
7.0533050034088
 21
10.873617281733
  0
LINE
  8
Perpi
  6
CONTINUOUS
 62
8
 10
7.2420096201385
 20
10.80103714136
 11
7.3650091931528
 21
10.87205097795
  0
ENDSEC
  0
EOF
