  0
SECTION
  2
HEADER
  9
$EXTMIN
 10
3.0032699336857
 20
8.4633163538535
  9
$EXTMAX
 10
4.5799714081365
 20
10.039756579747
  9
$LIMMIN
 10
0
 20
0
  9
$LIMMAX
 10
8.2666666666667
 20
11.69
  0
ENDSEC
  0
SECTION
  2
TABLES
  0
TABLE
  2
LTYPE
 70
9
  0
LTYPE
  2
CONTINUOUS
  3
___________________________
 70
64
 72
65
 73
0
 40
0
  0
LTYPE
  2
HIDDEN
  3
_ _ _ _ _ _ _ _ _ _ _ _ _ _ 
 70
64
 72
65
 73
2
 49
0.25
 49
-0.125
 40
0.375
  0
LTYPE
  2
DASHED
  3
__ __ __ __ __ __ __ __ __ 
 70
64
 72
65
 73
2
 49
0.5
 49
-0.25
 40
0.75
  0
LTYPE
  2
CENTER
  3
____ _ ____ _ ____ _ ____ _ 
 70
64
 72
65
 73
4
 49
1.25
 49
-0.25
 49
0.25
 49
-0.25
 40
2
  0
LTYPE
  2
PHANTOM
  3
_____ _ _ _____ _ _ _____ _ _ 
 70
64
 72
65
 73
6
 49
1.25
 49
-0.25
 49
0.25
 49
-0.25
 49
0.25
 49
-0.25
 40
2.5
  0
LTYPE
  2
DOT
  3
...........................
 70
64
 72
65
 73
2
 49
0
 49
-0.25
 40
0.25
  0
LTYPE
  2
DASHDOT
  3
__ . __ . __ . __ . __ . __ . 
 70
64
 72
65
 73
4
 49
0.5
 49
-0.25
 49
0
 49
-0.25
 40
1
  0
LTYPE
  2
DIVIDE
  3
__ . . __ . . __ . . __ . . 
 70
64
 72
65
 73
6
 49
0.5
 49
-0.25
 49
0
 49
-0.25
 49
0
 49
-0.25
 40
1.25
  0
LTYPE
  2
BORDER
  3
__ __ . __ __ . __ __ . __ __ . 
 70
64
 72
65
 73
6
 49
0.5
 49
-0.25
 49
0.5
 49
-0.25
 49
0
 49
-0.25
 40
1.75
  0
ENDTAB
  0
TABLE
  2
LAYER
 70
1
  0
LAYER
  2
F-Perpi-2
 62
1
  6
CONTINUOUS
 70
0
  0
ENDTAB
  0
TABLE
  2
STYLE
 70
5
  0
STYLE
  2
ptmarker
 70
1
 40
0
 50
0
 71
0
 41
0
 42
0
  3
ptmarks
  0
STYLE
  2
TXT
 70
0
 40
0
 50
0
 71
0
 41
0
 42
0
  3
TXT
  0
STYLE
  2
ITALIC
 70
0
 40
0
 50
0
 71
0
 41
0
 42
0
  3
ITALIC
  0
STYLE
  2
SIMPLEX
 70
0
 40
0
 50
0
 71
0
 41
0
 42
0
  3
SIMPLEX
  0
STYLE
  2
COMPLEX
 70
0
 40
0
 50
0
 71
0
 41
0
 42
0
  3
COMPLEX
  0
ENDTAB
  0
ENDSEC
  0
SECTION
  2
BLOCKS
  0
ENDSEC
  0
SECTION
  2
ENTITIES
  0
LINE
  8
F-Perpi-2
  6
CONTINUOUS
 62
8
 10
3.8901544905815
 20
9.7109262402689
 11
3.8924031143561
 21
9.7093517369513
  0
LINE
  8
F-Perpi-2
  6
CONTINUOUS
 62
8
 10
3.8882134380865
 20
9.7128672927639
 11
3.8901544905815
 21
9.7109262402689
  0
LINE
  8
F-Perpi-2
  6
CONTINUOUS
 62
8
 10
3.8866389347689
 20
9.7151159165385
 11
3.8882134380865
 21
9.7128672927639
  0
LINE
  8
F-Perpi-2
  6
CONTINUOUS
 62
8
 10
3.8854788211154
 20
9.7176037882971
 11
3.8866389347689
 21
9.7151159165385
  0
LINE
  8
F-Perpi-2
  6
CONTINUOUS
 62
8
 10
3.8847683465921
 20
9.7202553153154
 11
3.8854788211154
 21
9.7176037882971
  0
LINE
  8
F-Perpi-2
  6
CONTINUOUS
 62
8
 10
3.8845290986081
 20
9.7229899322865
 11
3.8847683465921
 21
9.7202553153154
  0
LINE
  8
F-Perpi-2
  6
CONTINUOUS
 62
8
 10
3.8847683465921
 20
9.7257245492577
 11
3.8845290986081
 21
9.7229899322865
  0
LINE
  8
F-Perpi-2
  6
CONTINUOUS
 62
8
 10
3.8854788211154
 20
9.7283760762759
 11
3.8847683465921
 21
9.7257245492577
  0
LINE
  8
F-Perpi-2
  6
CONTINUOUS
 62
8
 10
3.8866389347689
 20
9.7308639480346
 11
3.8854788211154
 21
9.7283760762759
  0
LINE
  8
F-Perpi-2
  6
CONTINUOUS
 62
8
 10
3.8882134380865
 20
9.7331125718092
 11
3.8866389347689
 21
9.7308639480346
  0
LINE
  8
F-Perpi-2
  6
CONTINUOUS
 62
8
 10
3.8901544905815
 20
9.7350536243042
 11
3.8882134380865
 21
9.7331125718092
  0
LINE
  8
F-Perpi-2
  6
CONTINUOUS
 62
8
 10
3.8924031143561
 20
9.7366281276217
 11
3.8901544905815
 21
9.7350536243042
  0
LINE
  8
F-Perpi-2
  6
CONTINUOUS
 62
8
 10
3.8948909861147
 20
9.7377882412753
 11
3.8924031143561
 21
9.7366281276217
  0
LINE
  8
F-Perpi-2
  6
CONTINUOUS
 62
8
 10
3.897542513133
 20
9.7384987157985
 11
3.8948909861147
 21
9.7377882412753
  0
LINE
  8
F-Perpi-2
  6
CONTINUOUS
 62
8
 10
3.9002771301041
 20
9.7387379637826
 11
3.897542513133
 21
9.7384987157985
  0
LINE
  8
F-Perpi-2
  6
CONTINUOUS
 62
8
 10
3.9030117470753
 20
9.7384987157985
 11
3.9002771301041
 21
9.7387379637826
  0
LINE
  8
F-Perpi-2
  6
CONTINUOUS
 62
8
 10
3.9056632740935
 20
9.7377882412753
 11
3.9030117470753
 21
9.7384987157985
  0
LINE
  8
F-Perpi-2
  6
CONTINUOUS
 62
8
 10
3.9081511458522
 20
9.7366281276217
 11
3.9056632740935
 21
9.7377882412753
  0
CIRCLE
  8
F-Perpi-2
  6
CONTINUOUS
 62
8
 10
4.1048500601319
 20
9.6048796960659
 40
0.015748031496082
  0
LINE
  8
F-Perpi-2
  6
CONTINUOUS
 62
8
 10
4.0969760443838
 20
9.5912415007308
 11
3.8924031143561
 21
9.7093517369513
  0
LINE
  8
F-Perpi-2
  6
CONTINUOUS
 62
8
 10
4.1127240758799
 20
9.6185178914011
 11
3.9081511458522
 21
9.7366281276217
  0
LINE
  8
F-Perpi-2
  6
DIMSTYLE
 62
8
 10
4.0891020286358
 20
9.604879696066
 11
3.8845290986081
 21
9.7229899322865
  0
LINE
  8
F-Perpi-2
  6
DIMSTYLE
 62
8
 10
4.0969760443839
 20
9.6185178914011
 11
3.8924031143561
 21
9.7366281276217
  0
LINE
  8
F-Perpi-2
  6
CONTINUOUS
 62
8
 10
4.0912118647967
 20
9.612753711814
 11
3.8866389347689
 21
9.7308639480346
  0
LINE
  8
F-Perpi-2
  6
CONTINUOUS
 62
8
 10
3.5059553367885
 20
8.633378069227
 11
3.9867025955729
 21
9.466056747041
  0
LINE
  8
F-Perpi-2
  6
CONTINUOUS
 62
8
 10
3.6120661757074
 20
8.4649534301409
 11
3.986702595573
 21
9.1138427437138
  0
LINE
  8
F-Perpi-2
  6
CONTINUOUS
 62
8
 10
3.662030130536
 20
8.4649534301409
 11
3.986702595573
 21
9.0273026354036
  0
LINE
  8
F-Perpi-2
  6
CONTINUOUS
 62
8
 10
3.7341107126075
 20
9.4520059702469
 11
4.0361248850041
 21
9.6263739339792
  0
LINE
  8
F-Perpi-2
  6
CONTINUOUS
 62
8
 10
3.6947406338674
 20
9.4292756446883
 11
3.6947406338674
 21
10.039756579747
  0
LINE
  8
F-Perpi-2
  6
CONTINUOUS
 62
8
 10
3.9145846101652
 20
8.4649534301409
 11
3.9867025955731
 21
8.5898654450069
  0
LINE
  8
F-Perpi-2
  6
CONTINUOUS
 62
8
 10
3.8646206553366
 20
8.4649534301409
 11
3.9867025955731
 21
8.676405553317
  0
LINE
  8
F-Perpi-2
  6
CONTINUOUS
 62
8
 10
3.0051682585302
 20
8.4649534301409
 11
3.0051682585302
 21
10.039756579747
  0
LINE
  8
F-Perpi-2
  6
CONTINUOUS
 62
8
 10
3.0051682585302
 20
10.039756579747
 11
4.5799714081365
 21
10.039756579747
  0
LINE
  8
F-Perpi-2
  6
CONTINUOUS
 62
8
 10
4.5799714081365
 20
10.039756579747
 11
4.5799714081365
 21
8.4649534301409
  0
LINE
  8
F-Perpi-2
  6
DIMSTYLE
 62
8
 10
4.5799714081365
 20
8.4649534301409
 11
3.0051682585302
 21
8.4649534301409
  0
LINE
  8
F-Perpi-2
  6
CONTINUOUS
 62
8
 10
3.4957432394188
 20
9.8332151867904
 11
3.6149899682412
 21
10.039756579747
  0
LINE
  8
F-Perpi-2
  6
CONTINUOUS
 62
8
 10
3.4966650569883
 20
9.7475107795144
 11
3.6653932484222
 21
10.039756579747
  0
LINE
  8
F-Perpi-2
  6
CONTINUOUS
 62
8
 10
3.5032512917657
 20
9.4073208839865
 11
3.6947406338674
 21
9.7389901536146
  0
LINE
  8
F-Perpi-2
  6
CONTINUOUS
 62
8
 10
3.502227147582
 20
9.3190069059158
 11
3.6947406338674
 21
9.6524500453043
  0
LINE
  8
F-Perpi-2
  6
CONTINUOUS
 62
8
 10
3.5055205288699
 20
8.7200964581686
 11
3.9807863291498
 21
9.5432809713532
  0
POLYLINE
  8
F-Perpi-2
  6
CONTINUOUS
 62
8
 70
0
 66
1
  0
VERTEX
  8
F-Perpi-2
  6
CONTINUOUS
 62
8
 10
3.0032699336857
 20
9.5543336015791
  0
VERTEX
  8
F-Perpi-2
  6
CONTINUOUS
 62
8
 10
3.0614199841162
 20
9.5145467249687
  0
VERTEX
  8
F-Perpi-2
  6
CONTINUOUS
 62
8
 10
3.1732528908884
 20
9.4586302715826
  0
VERTEX
  8
F-Perpi-2
  6
CONTINUOUS
 62
8
 10
3.2814911685145
 20
9.3883353016114
  0
VERTEX
  8
F-Perpi-2
  6
CONTINUOUS
 62
8
 10
3.3863492615642
 20
9.3338749783815
  0
VERTEX
  8
F-Perpi-2
  6
CONTINUOUS
 62
8
 10
3.4604238193501
 20
9.2812952337008
  0
VERTEX
  8
F-Perpi-2
  6
CONTINUOUS
 62
8
 10
3.5022168857388
 20
9.2669787743739
  0
SEQEND
  0
POLYLINE
  8
F-Perpi-2
  6
CONTINUOUS
 62
8
 70
0
 66
1
  0
VERTEX
  8
F-Perpi-2
  6
CONTINUOUS
 62
8
 10
3.5022168857388
 20
9.3181220068809
  0
VERTEX
  8
F-Perpi-2
  6
CONTINUOUS
 62
8
 10
3.4280721570338
 20
9.3707615591187
  0
VERTEX
  8
F-Perpi-2
  6
CONTINUOUS
 62
8
 10
3.3226297020771
 20
9.4122994959198
  0
VERTEX
  8
F-Perpi-2
  6
CONTINUOUS
 62
8
 10
3.2267729248438
 20
9.4857896917987
  0
VERTEX
  8
F-Perpi-2
  6
CONTINUOUS
 62
8
 10
3.1021591144404
 20
9.5464989840465
  0
VERTEX
  8
F-Perpi-2
  6
CONTINUOUS
 62
8
 10
3.0051682585302
 20
9.6035517703175
  0
SEQEND
  0
LINE
  8
F-Perpi-2
  6
CONTINUOUS
 62
8
 10
3.5022168857388
 20
9.2669787743739
 11
3.9867025955729
 21
9.5466967293652
  0
LINE
  8
F-Perpi-2
  6
CONTINUOUS
 62
8
 10
3.5022168857388
 20
9.3181220068809
 11
3.6947406338674
 21
9.4292756446883
  0
LINE
  8
F-Perpi-2
  6
CONTINUOUS
 62
8
 10
3.9867025955729
 20
9.5466967293652
 11
3.9867025955731
 21
8.4649534301409
  0
LINE
  8
F-Perpi-2
  6
CONTINUOUS
 62
8
 10
3.5209306995155
 20
9.2777831997954
 11
3.5209306995155
 21
9.3289264323025
  0
POLYLINE
  8
F-Perpi-2
  6
CONTINUOUS
 62
8
 70
0
 66
1
  0
VERTEX
  8
F-Perpi-2
  6
CONTINUOUS
 62
8
 10
3.5022168857388
 20
9.2669787743739
  0
VERTEX
  8
F-Perpi-2
  6
CONTINUOUS
 62
8
 10
3.5030371296603
 20
9.196027751196
  0
VERTEX
  8
F-Perpi-2
  6
CONTINUOUS
 62
8
 10
3.5114840082272
 20
9.0717474353573
  0
VERTEX
  8
F-Perpi-2
  6
CONTINUOUS
 62
8
 10
3.5030566146772
 20
8.9547621583357
  0
VERTEX
  8
F-Perpi-2
  6
CONTINUOUS
 62
8
 10
3.5105479989414
 20
8.8220488229585
  0
VERTEX
  8
F-Perpi-2
  6
CONTINUOUS
 62
8
 10
3.5037899080011
 20
8.6850010945728
  0
VERTEX
  8
F-Perpi-2
  6
CONTINUOUS
 62
8
 10
3.5090549311106
 20
8.5594848813348
  0
VERTEX
  8
F-Perpi-2
  6
CONTINUOUS
 62
8
 10
3.5005568153856
 20
8.4633163538535
  0
SEQEND
  0
POLYLINE
  8
F-Perpi-2
  6
CONTINUOUS
 62
8
 70
0
 66
1
  0
VERTEX
  8
F-Perpi-2
  6
CONTINUOUS
 62
8
 10
3.5022168857387
 20
9.3181220068809
  0
VERTEX
  8
F-Perpi-2
  6
CONTINUOUS
 62
8
 10
3.5033672182376
 20
9.4173174528915
  0
VERTEX
  8
F-Perpi-2
  6
CONTINUOUS
 62
8
 10
3.5127654734386
 20
9.4697021656552
  0
VERTEX
  8
F-Perpi-2
  6
CONTINUOUS
 62
8
 10
3.5081979238071
 20
9.5712792220707
  0
VERTEX
  8
F-Perpi-2
  6
CONTINUOUS
 62
8
 10
3.497067867186
 20
9.7100601923426
  0
VERTEX
  8
F-Perpi-2
  6
CONTINUOUS
 62
8
 10
3.4952940813895
 20
9.8749748840969
  0
VERTEX
  8
F-Perpi-2
  6
CONTINUOUS
 62
8
 10
3.516711409998
 20
10.039756579747
  0
SEQEND
  0
LINE
  8
F-Perpi-2
  6
CONTINUOUS
 62
8
 10
3.9867025955729
 20
9.5466967293652
 11
3.9867025955729
 21
9.5978399618722
  0
LINE
  8
F-Perpi-2
  6
CONTINUOUS
 62
8
 10
3.5109017626427
 20
9.0803141105572
 11
3.6769005419488
 21
9.3678324303098
  0
LINE
  8
F-Perpi-2
  6
CONTINUOUS
 62
8
 10
3.5056394352446
 20
9.1577396004477
 11
3.6019546097059
 21
9.3245623761547
  0
LINE
  8
F-Perpi-2
  6
CONTINUOUS
 62
8
 10
3.5209306995155
 20
9.2777831997954
 11
3.0051682585302
 21
9.5755587839366
  0
CIRCLE
  8
F-Perpi-2
  6
CONTINUOUS
 62
8
 10
3.0897776893789
 20
9.3721136681769
 40
0.0039370078740157
  0
CIRCLE
  8
F-Perpi-2
  6
CONTINUOUS
 62
8
 10
3.1582874628883
 20
9.2624980305618
 40
0.0039370078740157
  0
CIRCLE
  8
F-Perpi-2
  6
CONTINUOUS
 62
8
 10
3.3446340468338
 20
9.1939882570525
 40
0.0039370078740157
  0
CIRCLE
  8
F-Perpi-2
  6
CONTINUOUS
 62
8
 10
3.3884803018798
 20
8.9857185455839
 40
0.0039370078740157
  0
CIRCLE
  8
F-Perpi-2
  6
CONTINUOUS
 62
8
 10
3.2569415367418
 20
8.9747569818224
 40
0.0039370078740157
  0
CIRCLE
  8
F-Perpi-2
  6
CONTINUOUS
 62
8
 10
3.3446340468338
 20
8.7938911797577
 40
0.0039370078740157
  0
CIRCLE
  8
F-Perpi-2
  6
CONTINUOUS
 62
8
 10
3.1171815987827
 20
8.7884103978769
 40
0.0039370078740157
  0
CIRCLE
  8
F-Perpi-2
  6
CONTINUOUS
 62
8
 10
3.3144897464897
 20
8.6157657686333
 40
0.0039370078740157
  0
CIRCLE
  8
F-Perpi-2
  6
CONTINUOUS
 62
8
 10
3.1281431625442
 20
8.5883618592295
 40
0.0039370078740157
  0
CIRCLE
  8
F-Perpi-2
  6
CONTINUOUS
 62
8
 10
3.3884803018798
 20
9.4488446145074
 40
0.0039370078740157
  0
CIRCLE
  8
F-Perpi-2
  6
CONTINUOUS
 62
8
 10
3.4104034294028
 20
9.5886045524665
 40
0.0039370078740157
  0
CIRCLE
  8
F-Perpi-2
  6
CONTINUOUS
 62
8
 10
3.1802105904113
 20
9.6351911984529
 40
0.0039370078740157
  0
CIRCLE
  8
F-Perpi-2
  6
CONTINUOUS
 62
8
 10
3.3254513102512
 20
9.7694703545313
 40
0.0039370078740157
  0
CIRCLE
  8
F-Perpi-2
  6
CONTINUOUS
 62
8
 10
3.2404991910996
 20
9.796874263935
 40
0.0039370078740157
  0
CIRCLE
  8
F-Perpi-2
  6
CONTINUOUS
 62
8
 10
3.4268457750451
 20
9.9887016297613
 40
0.0039370078740157
  0
CIRCLE
  8
F-Perpi-2
  6
CONTINUOUS
 62
8
 10
3.1582874628883
 20
9.9558169384768
 40
0.0039370078740157
  0
CIRCLE
  8
F-Perpi-2
  6
CONTINUOUS
 62
8
 10
3.2596819276822
 20
9.950336156596
 40
0.0039370078740157
  0
CIRCLE
  8
F-Perpi-2
  6
CONTINUOUS
 62
8
 10
3.0897776893789
 20
9.8215377823984
 40
0.0039370078740157
  0
CIRCLE
  8
F-Perpi-2
  6
CONTINUOUS
 62
8
 10
3.0897776893789
 20
9.0651898828548
 40
0.0039370078740157
  0
CIRCLE
  8
F-Perpi-2
  6
CONTINUOUS
 62
8
 10
3.4158842112836
 20
8.5691791226469
 40
0.0039370078740157
  0
CIRCLE
  8
F-Perpi-2
  6
CONTINUOUS
 62
8
 10
3.4569900753892
 20
9.2186517755158
 40
0.0039370078740157
  0
LINE
  8
F-Perpi-2
  6
CONTINUOUS
 62
8
 10
3.7341107126075
 20
9.4520059702469
 11
3.7341107126075
 21
10.039756579747
  0
POLYLINE
  8
F-Perpi-2
  6
CONTINUOUS
 62
8
 70
1
 66
1
  0
VERTEX
  8
F-Perpi-2
  6
CONTINUOUS
 62
8
 10
3.9617535479369
 20
9.8329022714497
  0
VERTEX
  8
F-Perpi-2
  6
CONTINUOUS
 62
8
 10
3.9682379987329
 20
9.8206538643906
  0
VERTEX
  8
F-Perpi-2
  6
CONTINUOUS
 62
8
 10
3.9703994823316
 20
9.8055234791999
  0
VERTEX
  8
F-Perpi-2
  6
CONTINUOUS
 62
8
 10
3.9862503620552
 20
9.8184923807919
  0
VERTEX
  8
F-Perpi-2
  6
CONTINUOUS
 62
8
 10
3.9948962964498
 20
9.8141694135946
  0
VERTEX
  8
F-Perpi-2
  6
CONTINUOUS
 62
8
 10
4.0035422308445
 20
9.8271383151866
  0
VERTEX
  8
F-Perpi-2
  6
CONTINUOUS
 62
8
 10
3.9977782745814
 20
9.8473121621075
  0
VERTEX
  8
F-Perpi-2
  6
CONTINUOUS
 62
8
 10
4.0035422308445
 20
9.857399085568
  0
VERTEX
  8
F-Perpi-2
  6
CONTINUOUS
 62
8
 10
4.0085856925747
 20
9.8710884816929
  0
VERTEX
  8
F-Perpi-2
  6
CONTINUOUS
 62
8
 10
4.0165111324365
 20
9.8804549106204
  0
VERTEX
  8
F-Perpi-2
  6
CONTINUOUS
 62
8
 10
3.9905733292525
 20
9.9035107356729
  0
VERTEX
  8
F-Perpi-2
  6
CONTINUOUS
 62
8
 10
3.9776044276605
 20
9.8790139215546
  0
VERTEX
  8
F-Perpi-2
  6
CONTINUOUS
 62
8
 10
3.9725609659303
 20
9.8610015582324
  0
VERTEX
  8
F-Perpi-2
  6
CONTINUOUS
 62
8
 10
3.9660765151343
 20
9.8501941402391
  0
VERTEX
  8
F-Perpi-2
  6
CONTINUOUS
 62
8
 10
3.9718404713974
 20
9.844430183976
  0
VERTEX
  8
F-Perpi-2
  6
CONTINUOUS
 62
8
 10
3.9617535479369
 20
9.8329022714497
  0
SEQEND
  0
POLYLINE
  8
F-Perpi-2
  6
CONTINUOUS
 62
8
 70
1
 66
1
  0
VERTEX
  8
F-Perpi-2
  6
CONTINUOUS
 62
8
 10
3.8372016690879
 20
9.6382933023197
  0
VERTEX
  8
F-Perpi-2
  6
CONTINUOUS
 62
8
 10
3.8504477999083
 20
9.6444069011599
  0
VERTEX
  8
F-Perpi-2
  6
CONTINUOUS
 62
8
 10
3.8626749975886
 20
9.6454258342999
  0
VERTEX
  8
F-Perpi-2
  6
CONTINUOUS
 62
8
 10
3.8606371313086
 20
9.6800695610608
  0
VERTEX
  8
F-Perpi-2
  6
CONTINUOUS
 62
8
 10
3.8341448696679
 20
9.6719180959406
  0
VERTEX
  8
F-Perpi-2
  6
CONTINUOUS
 62
8
 10
3.8178419394274
 20
9.6627476976804
  0
VERTEX
  8
F-Perpi-2
  6
CONTINUOUS
 62
8
 10
3.8372016690879
 20
9.6382933023197
  0
SEQEND
  0
POLYLINE
  8
F-Perpi-2
  6
CONTINUOUS
 62
8
 70
1
 66
1
  0
VERTEX
  8
F-Perpi-2
  6
CONTINUOUS
 62
8
 10
4.2487886748576
 20
9.8524257733727
  0
VERTEX
  8
F-Perpi-2
  6
CONTINUOUS
 62
8
 10
4.2552731256536
 20
9.8401773663136
  0
VERTEX
  8
F-Perpi-2
  6
CONTINUOUS
 62
8
 10
4.2574346092522
 20
9.8250469811229
  0
VERTEX
  8
F-Perpi-2
  6
CONTINUOUS
 62
8
 10
4.2732854889758
 20
9.8380158827149
  0
VERTEX
  8
F-Perpi-2
  6
CONTINUOUS
 62
8
 10
4.2819314233705
 20
9.8336929155176
  0
VERTEX
  8
F-Perpi-2
  6
CONTINUOUS
 62
8
 10
4.2905773577651
 20
9.8466618171096
  0
VERTEX
  8
F-Perpi-2
  6
CONTINUOUS
 62
8
 10
4.284813401502
 20
9.8668356640305
  0
VERTEX
  8
F-Perpi-2
  6
CONTINUOUS
 62
8
 10
4.2487886748576
 20
9.8524257733727
  0
SEQEND
  0
POLYLINE
  8
F-Perpi-2
  6
CONTINUOUS
 62
8
 70
1
 66
1
  0
VERTEX
  8
F-Perpi-2
  6
CONTINUOUS
 62
8
 10
3.8280146342674
 20
9.9260444069539
  0
VERTEX
  8
F-Perpi-2
  6
CONTINUOUS
 62
8
 10
3.8309047313688
 20
9.9354372225338
  0
VERTEX
  8
F-Perpi-2
  6
CONTINUOUS
 62
8
 10
3.8374074498472
 20
9.9441075138382
  0
VERTEX
  8
F-Perpi-2
  6
CONTINUOUS
 62
8
 10
3.8229569643397
 20
9.945552562389
  0
VERTEX
  8
F-Perpi-2
  6
CONTINUOUS
 62
8
 10
3.8207893915136
 20
9.9520552808674
  0
VERTEX
  8
F-Perpi-2
  6
CONTINUOUS
 62
8
 10
3.809951527383
 20
9.9498877080412
  0
VERTEX
  8
F-Perpi-2
  6
CONTINUOUS
 62
8
 10
3.8027262846293
 20
9.9368822710845
  0
VERTEX
  8
F-Perpi-2
  6
CONTINUOUS
 62
8
 10
3.8280146342674
 20
9.9260444069539
  0
SEQEND
  0
CIRCLE
  8
F-Perpi-2
  6
CONTINUOUS
 62
8
 10
3.9255969261934
 20
9.7886530911139
 40
0.0039370078740157
  0
CIRCLE
  8
F-Perpi-2
  6
CONTINUOUS
 62
8
 10
4.2571842299788
 20
9.9804804569402
 40
0.0039370078740157
  0
CIRCLE
  8
F-Perpi-2
  6
CONTINUOUS
 62
8
 10
4.2206785313988
 20
9.8153135195063
 40
0.0039370078740157
  0
CIRCLE
  8
F-Perpi-2
  6
CONTINUOUS
 62
8
 10
3.922856535253
 20
9.9256726381326
 40
0.0039370078740157
  0
CIRCLE
  8
F-Perpi-2
  6
CONTINUOUS
 62
8
 10
4.4846366780299
 20
9.9612977203575
 40
0.0039370078740157
  0
CIRCLE
  8
F-Perpi-2
  6
CONTINUOUS
 62
8
 10
4.2268656826839
 20
9.9665552109144
 40
0.0039370078740157
  0
CIRCLE
  8
F-Perpi-2
  6
CONTINUOUS
 62
8
 10
3.8037342181714
 20
9.5708489339166
 40
0.0039370078740157
  0
LINE
  8
F-Perpi-2
  6
DIMSTYLE
 62
8
 10
4.0915811529279
 20
9.6583916251933
 11
4.0915811529279
 21
9.6307247636589
  0
LINE
  8
F-Perpi-2
  6
CONTINUOUS
 62
8
 10
4.2096072490563
 20
9.7265340235644
 11
4.2096072490566
 21
8.4649534301409
  0
LINE
  8
F-Perpi-2
  6
CONTINUOUS
 62
8
 10
4.4534945803945
 20
9.8352984991077
 11
4.4534945803947
 21
8.4649534301409
  0
LINE
  8
F-Perpi-2
  6
CONTINUOUS
 62
8
 10
4.2301358890563
 20
9.5180131917337
 11
4.3212865501936
 21
9.5706390504783
  0
LINE
  8
F-Perpi-2
  6
CONTINUOUS
 62
8
 10
4.2301358890563
 20
9.2369637929498
 11
4.2301358890563
 21
9.3656365619737
  0
LINE
  8
F-Perpi-2
  6
CONTINUOUS
 62
8
 10
4.2301358890563
 20
9.2369637929498
 11
4.3212865501936
 21
9.2895896516941
  0
LINE
  8
F-Perpi-2
  6
CONTINUOUS
 62
8
 10
4.2301358890563
 20
9.3656365619737
 11
4.3212863885723
 21
9.418262327406
  0
LINE
  8
F-Perpi-2
  6
CONTINUOUS
 62
8
 10
4.2301358890563
 20
9.3893411692057
 11
4.3212862269519
 21
9.4419668413263
  0
LINE
  8
F-Perpi-2
  6
CONTINUOUS
 62
8
 10
4.3418150498884
 20
9.3014420117017
 11
4.3418150498884
 21
9.4301144074777
  0
LINE
  8
F-Perpi-2
  6
CONTINUOUS
 62
8
 10
4.3212864098881
 20
9.2895898947097
 11
4.3212864098881
 21
9.4182622904857
  0
LINE
  8
F-Perpi-2
  6
CONTINUOUS
 62
8
 10
4.4329659439683
 20
9.3540677402137
 11
4.4329659439683
 21
9.4827405092376
  0
LINE
  8
F-Perpi-2
  6
CONTINUOUS
 62
8
 10
4.3418150498884
 20
9.5824914104857
 11
4.4329658293406
 21
9.6351173375394
  0
LINE
  8
F-Perpi-2
  6
CONTINUOUS
 62
8
 10
4.3418150498884
 20
9.4301144074777
 11
4.4329659909613
 21
9.4827404278431
  0
LINE
  8
F-Perpi-2
  6
CONTINUOUS
 62
8
 10
4.3418150498884
 20
9.4538190147098
 11
4.4329659909613
 21
9.5064450350752
  0
LINE
  8
F-Perpi-2
  6
CONTINUOUS
 62
8
 10
4.3418150498884
 20
9.4538190147098
 11
4.3418150498884
 21
9.5824914104857
  0
LINE
  8
F-Perpi-2
  6
CONTINUOUS
 62
8
 10
4.3212864098881
 20
9.4419665244698
 11
4.3212864098881
 21
9.5706392934938
  0
LINE
  8
F-Perpi-2
  6
CONTINUOUS
 62
8
 10
4.4329659439683
 20
9.5064451164696
 11
4.4329659439683
 21
9.6351171389978
  0
LINE
  8
F-Perpi-2
  6
CONTINUOUS
 62
8
 10
4.3418150498884
 20
9.3014420117017
 11
4.4329658293406
 21
9.3540679387554
  0
LINE
  8
F-Perpi-2
  6
CONTINUOUS
 62
8
 10
4.2301358890563
 20
9.3893411692057
 11
4.2301358890563
 21
9.5180131917337
  0
LINE
  8
F-Perpi-2
  6
CONTINUOUS
 62
8
 10
4.3212864098881
 20
9.4419665244698
 11
4.2301357487507
 21
9.4945923832142
  0
LINE
  8
F-Perpi-2
  6
CONTINUOUS
 62
8
 10
4.4329659439683
 20
9.5064451164696
 11
4.3418153261359
 21
9.5590709502119
  0
LINE
  8
F-Perpi-2
  6
CONTINUOUS
 62
8
 10
4.4329659439683
 20
9.3540677402137
 11
4.3418150028951
 21
9.4066937605792
  0
LINE
  8
F-Perpi-2
  6
CONTINUOUS
 62
8
 10
4.3212864098881
 20
9.2895898947097
 11
4.2301357487507
 21
9.3422157534544
  0
LINE
  8
F-Perpi-2
  6
CONTINUOUS
 62
8
 10
4.2096072490564
 20
9.2014074419738
 11
4.4534945803945
 21
9.3422158583738
  0
LINE
  8
F-Perpi-2
  6
CONTINUOUS
 62
8
 10
4.4329659439683
 20
9.7874941420056
 11
4.4329659439683
 21
9.6588217462297
  0
LINE
  8
F-Perpi-2
  6
CONTINUOUS
 62
8
 10
4.2301358890563
 20
9.6703901947417
 11
4.3212866685086
 21
9.7230161217952
  0
LINE
  8
F-Perpi-2
  6
CONTINUOUS
 62
8
 10
4.2301358890563
 20
9.5417177989658
 11
4.3212868301293
 21
9.5943438193312
  0
LINE
  8
F-Perpi-2
  6
CONTINUOUS
 62
8
 10
4.2301358890563
 20
9.5417177989658
 11
4.2301358890563
 21
9.6703901947417
  0
LINE
  8
F-Perpi-2
  6
CONTINUOUS
 62
8
 10
4.3212867831361
 20
9.5943439007258
 11
4.3212867831361
 21
9.7230159232537
  0
LINE
  8
F-Perpi-2
  6
CONTINUOUS
 62
8
 10
4.3418154231361
 20
9.6061956444697
 11
4.4329660842738
 21
9.6588215032143
  0
LINE
  8
F-Perpi-2
  6
CONTINUOUS
 62
8
 10
4.3418154231361
 20
9.6061956444697
 11
4.3418154231361
 21
9.7348684134937
  0
LINE
  8
F-Perpi-2
  6
CONTINUOUS
 62
8
 10
4.3212867831361
 20
9.5943439007258
 11
4.2301361653042
 21
9.6469697344679
  0
LINE
  8
F-Perpi-2
  6
CONTINUOUS
 62
8
 10
4.4329659439683
 20
9.6588217462297
 11
4.3418154444522
 21
9.711447511662
  0
LINE
  8
F-Perpi-2
  6
CONTINUOUS
 62
8
 10
4.3418154231361
 20
9.7348684134937
 11
4.4329659226523
 21
9.787494178926
  0
LINE
  8
F-Perpi-2
  6
CONTINUOUS
 62
8
 10
4.2096072490563
 20
9.6822426849817
 11
4.4534945803945
 21
9.8230511013817
  0
LINE
  8
F-Perpi-2
  6
CONTINUOUS
 62
8
 10
4.2301358890564
 20
8.9928866101431
 11
4.3212865501937
 21
9.0455124688877
  0
LINE
  8
F-Perpi-2
  6
CONTINUOUS
 62
8
 10
4.2301358890564
 20
8.7118372113592
 11
4.2301358890564
 21
8.8405099803831
  0
LINE
  8
F-Perpi-2
  6
CONTINUOUS
 62
8
 10
4.2301358890564
 20
8.7118372113592
 11
4.3212865501937
 21
8.7644630701036
  0
LINE
  8
F-Perpi-2
  6
CONTINUOUS
 62
8
 10
4.2301358890564
 20
8.8405099803831
 11
4.3212863885724
 21
8.8931357458154
  0
LINE
  8
F-Perpi-2
  6
CONTINUOUS
 62
8
 10
4.2301358890564
 20
8.8642145876151
 11
4.321286226952
 21
8.9168402597358
  0
LINE
  8
F-Perpi-2
  6
CONTINUOUS
 62
8
 10
4.3418150498885
 20
8.7763154301111
 11
4.3418150498885
 21
8.9049878258871
  0
LINE
  8
F-Perpi-2
  6
CONTINUOUS
 62
8
 10
4.3212864098882
 20
8.7644633131191
 11
4.3212864098882
 21
8.8931357088951
  0
LINE
  8
F-Perpi-2
  6
CONTINUOUS
 62
8
 10
4.4329659439684
 20
8.8289411586231
 11
4.4329659439684
 21
8.957613927647
  0
LINE
  8
F-Perpi-2
  6
CONTINUOUS
 62
8
 10
4.3418150498885
 20
9.0573648288951
 11
4.4329658293407
 21
9.1099907559489
  0
LINE
  8
F-Perpi-2
  6
CONTINUOUS
 62
8
 10
4.3418150498885
 20
8.9049878258871
 11
4.4329659909614
 21
8.9576138462525
  0
LINE
  8
F-Perpi-2
  6
CONTINUOUS
 62
8
 10
4.3418150498885
 20
8.9286924331192
 11
4.4329659909614
 21
8.9813184534847
  0
LINE
  8
F-Perpi-2
  6
CONTINUOUS
 62
8
 10
4.3418150498885
 20
8.9286924331192
 11
4.3418150498885
 21
9.0573648288951
  0
LINE
  8
F-Perpi-2
  6
CONTINUOUS
 62
8
 10
4.3212864098882
 20
8.9168399428793
 11
4.3212864098882
 21
9.0455127119032
  0
LINE
  8
F-Perpi-2
  6
CONTINUOUS
 62
8
 10
4.4329659439684
 20
8.9813185348791
 11
4.4329659439684
 21
9.1099905574072
  0
LINE
  8
F-Perpi-2
  6
CONTINUOUS
 62
8
 10
4.3418150498885
 20
8.7763154301111
 11
4.4329658293407
 21
8.8289413571648
  0
LINE
  8
F-Perpi-2
  6
CONTINUOUS
 62
8
 10
4.2301358890564
 20
8.8642145876151
 11
4.2301358890564
 21
8.9928866101431
  0
LINE
  8
F-Perpi-2
  6
CONTINUOUS
 62
8
 10
4.3212864098882
 20
8.9168399428793
 11
4.2301357487508
 21
8.9694658016236
  0
LINE
  8
F-Perpi-2
  6
CONTINUOUS
 62
8
 10
4.4329659439684
 20
8.9813185348791
 11
4.341815326136
 21
9.0339443686213
  0
LINE
  8
F-Perpi-2
  6
CONTINUOUS
 62
8
 10
4.4329659439684
 20
8.8289411586231
 11
4.3418150028952
 21
8.8815671789886
  0
LINE
  8
F-Perpi-2
  6
CONTINUOUS
 62
8
 10
4.3212864098882
 20
8.7644633131191
 11
4.2301357487508
 21
8.8170891718638
  0
LINE
  8
F-Perpi-2
  6
CONTINUOUS
 62
8
 10
4.2301358890564
 20
9.1452636131512
 11
4.3212866685087
 21
9.1978895402047
  0
LINE
  8
F-Perpi-2
  6
CONTINUOUS
 62
8
 10
4.2301358890564
 20
9.0165912173752
 11
4.3212868301294
 21
9.0692172377406
  0
LINE
  8
F-Perpi-2
  6
CONTINUOUS
 62
8
 10
4.2301358890564
 20
9.0165912173752
 11
4.2301358890564
 21
9.1452636131512
  0
LINE
  8
F-Perpi-2
  6
CONTINUOUS
 62
8
 10
4.3212867831362
 20
9.0692173191352
 11
4.3212867831362
 21
9.1978893416631
  0
LINE
  8
F-Perpi-2
  6
CONTINUOUS
 62
8
 10
4.3418154231362
 20
9.0810690628792
 11
4.4329660842739
 21
9.1336949216237
  0
LINE
  8
F-Perpi-2
  6
CONTINUOUS
 62
8
 10
4.3212867831362
 20
9.0692173191352
 11
4.2301361653043
 21
9.1218431528773
  0
LINE
  8
F-Perpi-2
  6
CONTINUOUS
 62
8
 10
4.4329659439684
 20
9.1336951646391
 11
4.3418154444522
 21
9.1863209300714
  0
LINE
  8
F-Perpi-2
  6
CONTINUOUS
 62
8
 10
4.3418154231362
 20
9.0810690628792
 11
4.3418154231362
 21
9.2097418319031
  0
LINE
  8
F-Perpi-2
  6
CONTINUOUS
 62
8
 10
4.3418154231362
 20
9.2097418319031
 11
4.4329659226524
 21
9.2623675973355
  0
LINE
  8
F-Perpi-2
  6
CONTINUOUS
 62
8
 10
4.4329659439684
 20
9.2623675604151
 11
4.4329659439684
 21
9.1336951646391
  0
LINE
  8
F-Perpi-2
  6
CONTINUOUS
 62
8
 10
4.2096072490564
 20
9.1571161033911
 11
4.4534945803946
 21
9.2979245197911
  0
LINE
  8
F-Perpi-2
  6
CONTINUOUS
 62
8
 10
4.2096072490565
 20
8.6762808603832
 11
4.4534945803946
 21
8.8170892767832
  0
LINE
  8
F-Perpi-2
  6
CONTINUOUS
 62
8
 10
4.4329659439683
 20
9.7874941420056
 11
4.4329659439683
 21
9.6588217462297
  0
LINE
  8
F-Perpi-2
  6
DIMSTYLE
 62
8
 10
4.2017332333083
 20
9.7219879584527
 11
4.2017332333085
 21
8.4649534301409
  0
LINE
  8
F-Perpi-2
  6
CONTINUOUS
 62
8
 10
4.2017332333083
 20
9.6311395236752
 11
4.091581152928
 21
9.5675431904158
  0
LINE
  8
F-Perpi-2
  6
CONTINUOUS
 62
8
 10
4.2017332333084
 20
9.5357450237861
 11
4.091581152928
 21
9.4721486905267
  0
LINE
  8
F-Perpi-2
  6
CONTINUOUS
 62
8
 10
4.2017332333084
 20
9.440350523897
 11
4.091581152928
 21
9.3767541906376
  0
LINE
  8
F-Perpi-2
  6
CONTINUOUS
 62
8
 10
4.2017332333084
 20
9.3449560240079
 11
4.091581152928
 21
9.2813596907485
  0
LINE
  8
F-Perpi-2
  6
CONTINUOUS
 62
8
 10
4.2017332333083
 20
9.2495615241187
 11
4.091581152928
 21
9.1859651908593
  0
LINE
  8
F-Perpi-2
  6
CONTINUOUS
 62
8
 10
4.2017332333083
 20
9.1541670242296
 11
4.091581152928
 21
9.0905706909702
  0
LINE
  8
F-Perpi-2
  6
CONTINUOUS
 62
8
 10
4.2017332333083
 20
9.0587725243404
 11
4.091581152928
 21
8.995176191081
  0
LINE
  8
F-Perpi-2
  6
CONTINUOUS
 62
8
 10
4.2017332333084
 20
8.9633780244513
 11
4.091581152928
 21
8.8997816911919
  0
LINE
  8
F-Perpi-2
  6
CONTINUOUS
 62
8
 10
4.2017332333083
 20
8.8679835245621
 11
4.0915811529279
 21
8.8043871913027
  0
LINE
  8
F-Perpi-2
  6
CONTINUOUS
 62
8
 10
4.2017332333083
 20
8.772589024673
 11
4.0915811529279
 21
8.7089926914136
  0
LINE
  8
F-Perpi-2
  6
CONTINUOUS
 62
8
 10
4.2017332333083
 20
9.6788367736198
 11
4.1049909702649
 21
9.6229826020097
  0
LINE
  8
F-Perpi-2
  6
CONTINUOUS
 62
8
 10
4.2017332333083
 20
9.5834422737307
 11
4.091581152928
 21
9.5198459404713
  0
LINE
  8
F-Perpi-2
  6
CONTINUOUS
 62
8
 10
4.2017332333084
 20
9.4880477738416
 11
4.091581152928
 21
9.4244514405822
  0
LINE
  8
F-Perpi-2
  6
CONTINUOUS
 62
8
 10
4.2017332333084
 20
9.3926532739524
 11
4.091581152928
 21
9.329056940693
  0
LINE
  8
F-Perpi-2
  6
CONTINUOUS
 62
8
 10
4.2017332333083
 20
9.2972587740632
 11
4.0915811529279
 21
9.2336624408038
  0
LINE
  8
F-Perpi-2
  6
CONTINUOUS
 62
8
 10
4.2017332333083
 20
9.2018642741741
 11
4.091581152928
 21
9.1382679409147
  0
LINE
  8
F-Perpi-2
  6
CONTINUOUS
 62
8
 10
4.2017332333083
 20
9.106469774285
 11
4.091581152928
 21
9.0428734410256
  0
LINE
  8
F-Perpi-2
  6
CONTINUOUS
 62
8
 10
4.2017332333083
 20
9.0110752743959
 11
4.091581152928
 21
8.9474789411365
  0
LINE
  8
F-Perpi-2
  6
CONTINUOUS
 62
8
 10
4.2017332333083
 20
8.9156807745067
 11
4.0915811529279
 21
8.8520844412473
  0
LINE
  8
F-Perpi-2
  6
CONTINUOUS
 62
8
 10
4.2017332333083
 20
8.8202862746176
 11
4.0915811529279
 21
8.7566899413581
  0
LINE
  8
F-Perpi-2
  6
DIMSTYLE
 62
8
 10
4.119140208046
 20
9.6743028530843
 11
4.119140208046
 21
8.4649534301409
  0
LINE
  8
F-Perpi-2
  6
DIMSTYLE
 62
8
 10
4.1466992631642
 20
9.6902140809754
 11
4.1466992631642
 21
8.4649534301409
  0
LINE
  8
F-Perpi-2
  6
DIMSTYLE
 62
8
 10
4.1742583182823
 20
9.7061253088665
 11
4.1742583182823
 21
8.4649534301409
  0
LINE
  8
F-Perpi-2
  6
CONTINUOUS
 62
8
 10
4.2301358890565
 20
8.4677600285525
 11
4.3212865501938
 21
8.5203858872972
  0
LINE
  8
F-Perpi-2
  6
CONTINUOUS
 62
8
 10
4.3418150498886
 20
8.5322382473045
 11
4.4329658293408
 21
8.5848641743583
  0
LINE
  8
F-Perpi-2
  6
CONTINUOUS
 62
8
 10
4.3418150498886
 20
8.4649534301409
 11
4.3418150498886
 21
8.5322382473045
  0
LINE
  8
F-Perpi-2
  6
CONTINUOUS
 62
8
 10
4.3212864098883
 20
8.4649534301409
 11
4.3212864098883
 21
8.5203861303126
  0
LINE
  8
F-Perpi-2
  6
CONTINUOUS
 62
8
 10
4.4329659439685
 20
8.4649534301409
 11
4.4329659439685
 21
8.5848639758166
  0
LINE
  8
F-Perpi-2
  6
CONTINUOUS
 62
8
 10
4.2301358890565
 20
8.4649534301409
 11
4.2301358890565
 21
8.4677600285525
  0
LINE
  8
F-Perpi-2
  6
CONTINUOUS
 62
8
 10
4.4177906209107
 20
8.4649534301409
 11
4.3418153261361
 21
8.5088177870307
  0
LINE
  8
F-Perpi-2
  6
CONTINUOUS
 62
8
 10
4.2301358890565
 20
8.6201370315606
 11
4.3212866685088
 21
8.6727629586141
  0
LINE
  8
F-Perpi-2
  6
CONTINUOUS
 62
8
 10
4.2301358890565
 20
8.4914646357847
 11
4.3212868301295
 21
8.54409065615
  0
LINE
  8
F-Perpi-2
  6
CONTINUOUS
 62
8
 10
4.2301358890565
 20
8.4914646357847
 11
4.2301358890565
 21
8.6201370315606
  0
LINE
  8
F-Perpi-2
  6
CONTINUOUS
 62
8
 10
4.3212867831363
 20
8.5440907375446
 11
4.3212867831363
 21
8.6727627600726
  0
LINE
  8
F-Perpi-2
  6
CONTINUOUS
 62
8
 10
4.3418154231363
 20
8.5559424812886
 11
4.432966084274
 21
8.6085683400332
  0
LINE
  8
F-Perpi-2
  6
CONTINUOUS
 62
8
 10
4.3212867831363
 20
8.5440907375446
 11
4.2301361653044
 21
8.5967165712868
  0
LINE
  8
F-Perpi-2
  6
CONTINUOUS
 62
8
 10
4.4329659439685
 20
8.6085685830486
 11
4.3418154444523
 21
8.6611943484808
  0
LINE
  8
F-Perpi-2
  6
CONTINUOUS
 62
8
 10
4.3418154231363
 20
8.5559424812886
 11
4.3418154231363
 21
8.6846152503125
  0
LINE
  8
F-Perpi-2
  6
CONTINUOUS
 62
8
 10
4.3418154231363
 20
8.6846152503125
 11
4.4329659226525
 21
8.7372410157449
  0
LINE
  8
F-Perpi-2
  6
CONTINUOUS
 62
8
 10
4.4329659439685
 20
8.7372409788245
 11
4.4329659439685
 21
8.6085685830486
  0
LINE
  8
F-Perpi-2
  6
CONTINUOUS
 62
8
 10
4.2096072490565
 20
8.6319895218005
 11
4.4534945803947
 21
8.7727979382006
  0
LINE
  8
F-Perpi-2
  6
CONTINUOUS
 62
8
 10
4.2017332333083
 20
8.7248917747284
 11
4.0915811529279
 21
8.661295441469
  0
LINE
  8
F-Perpi-2
  6
CONTINUOUS
 62
8
 10
4.2017332333083
 20
8.6294972748393
 11
4.091581152928
 21
8.5659009415799
  0
LINE
  8
F-Perpi-2
  6
CONTINUOUS
 62
8
 10
4.2017332333083
 20
8.6771945247839
 11
4.091581152928
 21
8.6135981915245
  0
LINE
  8
F-Perpi-2
  6
CONTINUOUS
 62
8
 10
4.2017332333083
 20
8.5818000248948
 11
4.091581152928
 21
8.5182036916354
  0
LINE
  8
F-Perpi-2
  6
CONTINUOUS
 62
8
 10
4.2017332333083
 20
8.4864055250056
 11
4.1645771150738
 21
8.4649534301409
  0
LINE
  8
F-Perpi-2
  6
CONTINUOUS
 62
8
 10
4.2017332333083
 20
8.5341027749502
 11
4.091581152928
 21
8.4705064416908
  0
POLYLINE
  8
F-Perpi-2
  6
CONTINUOUS
 62
8
 70
0
 66
1
  0
VERTEX
  8
F-Perpi-2
  6
CONTINUOUS
 62
8
 10
3.5022541136306
 20
9.3213322416171
  0
VERTEX
  8
F-Perpi-2
  6
CONTINUOUS
 62
8
 10
3.427718866452
 20
9.3742490450897
  0
VERTEX
  8
F-Perpi-2
  6
CONTINUOUS
 62
8
 10
3.3223447933968
 20
9.415760043566
  0
VERTEX
  8
F-Perpi-2
  6
CONTINUOUS
 62
8
 10
3.226611761434
 20
9.4891553680708
  0
VERTEX
  8
F-Perpi-2
  6
CONTINUOUS
 62
8
 10
3.101780281497
 20
9.5499707044504
  0
VERTEX
  8
F-Perpi-2
  6
CONTINUOUS
 62
8
 10
3.0049224836491
 20
9.6069452221761
  0
SEQEND
  0
LINE
  8
F-Perpi-2
  6
CONTINUOUS
 62
8
 10
4.2797733191526
 20
9.9358727758258
 11
4.2820219429272
 21
9.9342982725082
  0
LINE
  8
F-Perpi-2
  6
CONTINUOUS
 62
8
 10
4.2778322666576
 20
9.9378138283208
 11
4.2797733191526
 21
9.9358727758258
  0
LINE
  8
F-Perpi-2
  6
CONTINUOUS
 62
8
 10
4.27625776334
 20
9.9400624520954
 11
4.2778322666576
 21
9.9378138283208
  0
LINE
  8
F-Perpi-2
  6
CONTINUOUS
 62
8
 10
4.2750976496865
 20
9.942550323854
 11
4.27625776334
 21
9.9400624520954
  0
LINE
  8
F-Perpi-2
  6
CONTINUOUS
 62
8
 10
4.2743871751632
 20
9.9452018508723
 11
4.2750976496865
 21
9.942550323854
  0
LINE
  8
F-Perpi-2
  6
CONTINUOUS
 62
8
 10
4.2741479271792
 20
9.9479364678434
 11
4.2743871751632
 21
9.9452018508723
  0
LINE
  8
F-Perpi-2
  6
CONTINUOUS
 62
8
 10
4.2743871751632
 20
9.9506710848146
 11
4.2741479271792
 21
9.9479364678434
  0
LINE
  8
F-Perpi-2
  6
CONTINUOUS
 62
8
 10
4.2750976496865
 20
9.9533226118328
 11
4.2743871751632
 21
9.9506710848146
  0
LINE
  8
F-Perpi-2
  6
CONTINUOUS
 62
8
 10
4.27625776334
 20
9.9558104835915
 11
4.2750976496865
 21
9.9533226118328
  0
LINE
  8
F-Perpi-2
  6
CONTINUOUS
 62
8
 10
4.2778322666576
 20
9.958059107366
 11
4.27625776334
 21
9.9558104835915
  0
LINE
  8
F-Perpi-2
  6
CONTINUOUS
 62
8
 10
4.2797733191526
 20
9.960000159861
 11
4.2778322666576
 21
9.958059107366
  0
LINE
  8
F-Perpi-2
  6
CONTINUOUS
 62
8
 10
4.2820219429272
 20
9.9615746631786
 11
4.2797733191526
 21
9.960000159861
  0
LINE
  8
F-Perpi-2
  6
CONTINUOUS
 62
8
 10
4.2845098146858
 20
9.9627347768322
 11
4.2820219429272
 21
9.9615746631786
  0
LINE
  8
F-Perpi-2
  6
CONTINUOUS
 62
8
 10
4.2871613417041
 20
9.9634452513554
 11
4.2845098146858
 21
9.9627347768322
  0
LINE
  8
F-Perpi-2
  6
CONTINUOUS
 62
8
 10
4.2898959586752
 20
9.9636844993395
 11
4.2871613417041
 21
9.9634452513554
  0
LINE
  8
F-Perpi-2
  6
CONTINUOUS
 62
8
 10
4.2926305756463
 20
9.9634452513554
 11
4.2898959586752
 21
9.9636844993395
  0
LINE
  8
F-Perpi-2
  6
CONTINUOUS
 62
8
 10
4.2952821026646
 20
9.9627347768322
 11
4.2926305756463
 21
9.9634452513554
  0
LINE
  8
F-Perpi-2
  6
CONTINUOUS
 62
8
 10
4.2977699744232
 20
9.9615746631786
 11
4.2952821026646
 21
9.9627347768322
  0
CIRCLE
  8
F-Perpi-2
  6
CONTINUOUS
 62
8
 10
4.494468888703
 20
9.8298262316228
 40
0.015748031496082
  0
LINE
  8
F-Perpi-2
  6
CONTINUOUS
 62
8
 10
4.4865948729549
 20
9.8161880362877
 11
4.2820219429272
 21
9.9342982725082
  0
LINE
  8
F-Perpi-2
  6
CONTINUOUS
 62
8
 10
4.502342904451
 20
9.843464426958
 11
4.2977699744233
 21
9.9615746631786
  0
LINE
  8
F-Perpi-2
  6
DIMSTYLE
 62
8
 10
4.4787208572069
 20
9.8298262316229
 11
4.2741479271792
 21
9.9479364678434
  0
LINE
  8
F-Perpi-2
  6
DIMSTYLE
 62
8
 10
4.4865948729549
 20
9.843464426958
 11
4.2820219429272
 21
9.9615746631786
  0
LINE
  8
F-Perpi-2
  6
CONTINUOUS
 62
8
 10
4.4808306933678
 20
9.8377002473709
 11
4.27625776334
 21
9.9558104835915
  0
LINE
  8
F-Perpi-2
  6
CONTINUOUS
 62
8
 10
4.4572397765673
 20
9.869504729983
 11
4.5799714081365
 21
9.9403638705076
  0
LINE
  8
F-Perpi-2
  6
CONTINUOUS
 62
8
 10
4.0676209479962
 20
9.6445581944261
 11
4.4257437135752
 21
9.8513204695361
  0
LINE
  8
F-Perpi-2
  6
DIMSTYLE
 62
8
 10
4.0915811529279
 20
9.5943562427651
 11
4.0915811529279
 21
8.4649534301409
  0
LINE
  8
F-Perpi-2
  6
CONTINUOUS
 62
8
 10
3.8787649190209
 20
9.7193580896834
 11
3.8787649190209
 21
10.039756579747
  0
LINE
  8
F-Perpi-2
  6
CONTINUOUS
 62
8
 10
3.8827019268949
 20
9.7193580896834
 11
3.8827019268949
 21
10.039756579747
  0
LINE
  8
F-Perpi-2
  6
CONTINUOUS
 62
8
 10
3.8866389347689
 20
9.7193580896834
 11
3.8866389347689
 21
10.039756579747
  0
LINE
  8
F-Perpi-2
  6
CONTINUOUS
 62
8
 10
3.9417485922588
 20
9.7172306328947
 11
4.2998713578378
 21
9.9239929080047
  0
LINE
  8
F-Perpi-2
  6
CONTINUOUS
 62
8
 10
3.9456856001328
 20
9.7149576003389
 11
4.3038083657118
 21
9.9217198754488
  0
LINE
  8
F-Perpi-2
  6
CONTINUOUS
 62
8
 10
3.9496226080068
 20
9.712684567783
 11
4.3077453735858
 21
9.919446842893
  0
LINE
  8
F-Perpi-2
  6
CONTINUOUS
 62
8
 10
4.3156099332209
 20
9.9512747581644
 11
4.3156099332209
 21
10.039756579747
  0
LINE
  8
F-Perpi-2
  6
CONTINUOUS
 62
8
 10
4.323483948969
 20
9.9467286930527
 11
4.323483948969
 21
10.039756579747
  0
LINE
  8
F-Perpi-2
  6
CONTINUOUS
 62
8
 10
4.319546941095
 20
9.9490017256086
 11
4.319546941095
 21
10.039756579747
  0
LINE
  8
F-Perpi-2
  6
CONTINUOUS
 62
8
 10
3.8787642872462
 20
9.7194991500105
 11
3.880426301634
 21
9.7100733980291
  0
LINE
  8
F-Perpi-2
  6
CONTINUOUS
 62
8
 10
3.880426301634
 20
9.7100733980291
 11
3.8852118813335
 21
9.7017845308459
  0
LINE
  8
F-Perpi-2
  6
CONTINUOUS
 62
8
 10
3.8852118813335
 20
9.7017845308459
 11
3.8925438148053
 21
9.6956323081739
  0
LINE
  8
F-Perpi-2
  6
CONTINUOUS
 62
8
 10
3.8925438148053
 20
9.6956323081739
 11
3.9015377626649
 21
9.6923587788645
  0
LINE
  8
F-Perpi-2
  6
CONTINUOUS
 62
8
 10
3.9015377626649
 20
9.6923587788645
 11
3.9111089220638
 21
9.6923587788645
  0
LINE
  8
F-Perpi-2
  6
CONTINUOUS
 62
8
 10
3.9111089220638
 20
9.6923587788645
 11
3.9176881423705
 21
9.6947534192208
  0
LINE
  8
F-Perpi-2
  6
CONTINUOUS
 62
8
 10
3.8827012951203
 20
9.7194991500105
 11
3.8841258788812
 21
9.7114199340264
  0
LINE
  8
F-Perpi-2
  6
CONTINUOUS
 62
8
 10
3.8841258788812
 20
9.7114199340264
 11
3.8882278043379
 21
9.7043151907265
  0
LINE
  8
F-Perpi-2
  6
CONTINUOUS
 62
8
 10
3.8882278043379
 20
9.7043151907265
 11
3.8945123187423
 21
9.6990418570077
  0
LINE
  8
F-Perpi-2
  6
CONTINUOUS
 62
8
 10
3.8945123187423
 20
9.6990418570077
 11
3.9022214169077
 21
9.6962359747425
  0
LINE
  8
F-Perpi-2
  6
CONTINUOUS
 62
8
 10
3.9022214169077
 20
9.6962359747425
 11
3.9104252678211
 21
9.6962359747425
  0
LINE
  8
F-Perpi-2
  6
CONTINUOUS
 62
8
 10
3.9104252678211
 20
9.6962359747425
 11
3.9133049108805
 21
9.6972840791014
  0
LINE
  8
F-Perpi-2
  6
CONTINUOUS
 62
8
 10
3.8866383029943
 20
9.7194991500105
 11
3.8878254561284
 21
9.7127664700238
  0
LINE
  8
F-Perpi-2
  6
CONTINUOUS
 62
8
 10
3.8878254561284
 20
9.7127664700238
 11
3.8912437273423
 21
9.7068458506072
  0
LINE
  8
F-Perpi-2
  6
CONTINUOUS
 62
8
 10
3.8912437273423
 20
9.7068458506072
 11
3.8964808226793
 21
9.7024514058415
  0
LINE
  8
F-Perpi-2
  6
CONTINUOUS
 62
8
 10
3.8964808226793
 20
9.7024514058415
 11
3.9029050711504
 21
9.7001131706205
  0
LINE
  8
F-Perpi-2
  6
CONTINUOUS
 62
8
 10
3.9029050711504
 20
9.7001131706205
 11
3.9084047806303
 21
9.7001131706205
  0
ENDSEC
  0
EOF
