  0
SECTION
  2
HEADER
  9
$EXTMIN
 10
3.1496062992126
 20
8.6614173228346
  9
$EXTMAX
 10
4.7244094488189
 20
10.236220472441
  9
$LIMMIN
 10
0
 20
0
  9
$LIMMAX
 10
8.27
 20
11.69
  0
ENDSEC
  0
SECTION
  2
TABLES
  0
TABLE
  2
LTYPE
 70
9
  0
LTYPE
  2
CONTINUOUS
  3
___________________________
 70
64
 72
65
 73
0
 40
0
  0
LTYPE
  2
HIDDEN
  3
_ _ _ _ _ _ _ _ _ _ _ _ _ _ 
 70
64
 72
65
 73
2
 49
0.25
 49
-0.125
 40
0.375
  0
LTYPE
  2
DASHED
  3
__ __ __ __ __ __ __ __ __ 
 70
64
 72
65
 73
2
 49
0.5
 49
-0.25
 40
0.75
  0
LTYPE
  2
CENTER
  3
____ _ ____ _ ____ _ ____ _ 
 70
64
 72
65
 73
4
 49
1.25
 49
-0.25
 49
0.25
 49
-0.25
 40
2
  0
LTYPE
  2
PHANTOM
  3
_____ _ _ _____ _ _ _____ _ _ 
 70
64
 72
65
 73
6
 49
1.25
 49
-0.25
 49
0.25
 49
-0.25
 49
0.25
 49
-0.25
 40
2.5
  0
LTYPE
  2
DOT
  3
...........................
 70
64
 72
65
 73
2
 49
0
 49
-0.25
 40
0.25
  0
LTYPE
  2
DASHDOT
  3
__ . __ . __ . __ . __ . __ . 
 70
64
 72
65
 73
4
 49
0.5
 49
-0.25
 49
0
 49
-0.25
 40
1
  0
LTYPE
  2
DIVIDE
  3
__ . . __ . . __ . . __ . . 
 70
64
 72
65
 73
6
 49
0.5
 49
-0.25
 49
0
 49
-0.25
 49
0
 49
-0.25
 40
1.25
  0
LTYPE
  2
BORDER
  3
__ __ . __ __ . __ __ . __ __ . 
 70
64
 72
65
 73
6
 49
0.5
 49
-0.25
 49
0.5
 49
-0.25
 49
0
 49
-0.25
 40
1.75
  0
ENDTAB
  0
TABLE
  2
LAYER
 70
1
  0
LAYER
  2
EEFC.1baa
 62
7
  6
CONTINUOUS
 70
0
  0
ENDTAB
  0
TABLE
  2
STYLE
 70
5
  0
STYLE
  2
ptmarker
 70
1
 40
0
 50
0
 71
0
 41
0
 42
0
  3
ptmarks
  0
STYLE
  2
TXT
 70
0
 40
0
 50
0
 71
0
 41
0
 42
0
  3
TXT
  0
STYLE
  2
ITALIC
 70
0
 40
0
 50
0
 71
0
 41
0
 42
0
  3
ITALIC
  0
STYLE
  2
SIMPLEX
 70
0
 40
0
 50
0
 71
0
 41
0
 42
0
  3
SIMPLEX
  0
STYLE
  2
COMPLEX
 70
0
 40
0
 50
0
 71
0
 41
0
 42
0
  3
COMPLEX
  0
ENDTAB
  0
ENDSEC
  0
SECTION
  2
BLOCKS
  0
ENDSEC
  0
SECTION
  2
ENTITIES
  0
LINE
  8
EEFC.1baa
  6
CONTINUOUS
 62
8
 10
3.9364831874905
 20
9.037051476198
 11
3.9364831874905
 21
9.1901223423398
  0
LINE
  8
EEFC.1baa
  6
CONTINUOUS
 62
8
 10
3.3191802434905
 20
9.393451476198
 11
3.3191802434905
 21
9.5465223423398
  0
LINE
  8
EEFC.1baa
  6
CONTINUOUS
 62
8
 10
3.6159262036794
 20
9.4007078034094
 11
3.6159262036794
 21
9.5537786695512
  0
LINE
  8
EEFC.1baa
  6
CONTINUOUS
 62
8
 10
3.9364831874905
 20
9.1901223423398
 11
4.2340877256299
 21
9.3619444025466
  0
LINE
  8
EEFC.1baa
  6
CONTINUOUS
 62
8
 10
3.9364831874905
 20
9.2176169437326
 11
4.5555032873914
 21
9.5750083650442
  0
LINE
  8
EEFC.1baa
  6
CONTINUOUS
 62
8
 10
3.9364831874905
 20
9.2176169437326
 11
3.6397372273015
 21
9.3889433037287
  0
LINE
  8
EEFC.1baa
  6
CONTINUOUS
 62
8
 10
3.6397372273015
 20
9.3889433037287
 11
3.6397372273015
 21
9.5420141698704
  0
LINE
  8
EEFC.1baa
  6
CONTINUOUS
 62
8
 10
3.9364831874905
 20
9.2176169437326
 11
3.9364831874905
 21
9.3706878098743
  0
LINE
  8
EEFC.1baa
  6
CONTINUOUS
 62
8
 10
4.5555032783709
 20
9.5750083597781
 11
4.5555032783709
 21
9.7280792259199
  0
LINE
  8
EEFC.1baa
  6
CONTINUOUS
 62
8
 10
3.6397372273015
 20
9.5420141698704
 11
4.2587573272024
 21
9.899405591182
  0
LINE
  8
EEFC.1baa
  6
CONTINUOUS
 62
8
 10
3.9364831874905
 20
9.3706878098743
 11
4.5555032873914
 21
9.7280792311859
  0
LINE
  8
EEFC.1baa
  6
CONTINUOUS
 62
8
 10
4.5555032693002
 20
9.7280792416309
 11
4.2587573272024
 21
9.899405591182
  0
LINE
  8
EEFC.1baa
  6
CONTINUOUS
 62
8
 10
3.9364831874905
 20
9.3706878098743
 11
3.6397372273015
 21
9.5420141698704
  0
LINE
  8
EEFC.1baa
  6
CONTINUOUS
 62
8
 10
3.6159262036794
 20
9.5537786695512
 11
3.3191802434905
 21
9.7251050295472
  0
LINE
  8
EEFC.1baa
  6
CONTINUOUS
 62
8
 10
3.6159262036794
 20
9.4007078034094
 11
3.3191802434905
 21
9.5720341634055
  0
LINE
  8
EEFC.1baa
  6
CONTINUOUS
 62
8
 10
3.6159262036794
 20
9.5537786695512
 11
4.2349463035804
 21
9.9111700908627
  0
LINE
  8
EEFC.1baa
  6
CONTINUOUS
 62
8
 10
4.2349462854891
 20
9.9111701013077
 11
3.9382003433914
 21
10.082496450859
  0
LINE
  8
EEFC.1baa
  6
CONTINUOUS
 62
8
 10
3.3191802434905
 20
9.5720341634055
 11
3.3191802434905
 21
9.7251050295472
  0
LINE
  8
EEFC.1baa
  6
CONTINUOUS
 62
8
 10
4.257898749252
 20
9.3756917034445
 11
4.5555032783709
 21
9.5475137584434
  0
LINE
  8
EEFC.1baa
  6
CONTINUOUS
 62
8
 10
4.5555032783709
 20
9.3944428923017
 11
4.5555032783709
 21
9.5475137584434
  0
LINE
  8
EEFC.1baa
  6
CONTINUOUS
 62
8
 10
3.9364831874905
 20
9.037051476198
 11
4.2340877256299
 21
9.2088735364049
  0
LINE
  8
EEFC.1baa
  6
CONTINUOUS
 62
8
 10
4.2578987492519
 20
9.2226208373028
 11
4.5555032783709
 21
9.3944428923017
  0
LINE
  8
EEFC.1baa
  6
CONTINUOUS
 62
8
 10
3.9364831874905
 20
9.1901223419369
 11
3.3191802434905
 21
9.5465223628268
  0
LINE
  8
EEFC.1baa
  6
CONTINUOUS
 62
8
 10
3.9364831874905
 20
9.037051476198
 11
3.3191802434905
 21
9.393451497088
  0
LINE
  8
EEFC.1baa
  6
CONTINUOUS
 62
8
 10
4.257898749252
 20
9.3756917034445
 11
4.257898749252
 21
9.2226208373028
  0
LINE
  8
EEFC.1baa
  6
CONTINUOUS
 62
8
 10
4.2340877256299
 20
9.3619444025466
 11
4.2340877256299
 21
9.2088735364049
  0
LINE
  8
EEFC.1baa
  6
CONTINUOUS
 62
8
 10
3.3191802434905
 20
9.7251050295472
 11
3.9382003433914
 21
10.082496450859
  0
LINE
  8
EEFC.1baa
  6
CONTINUOUS
 62
8
 10
3.9364831874905
 20
8.6779033419431
 11
3.9364831874905
 21
8.8309742080848
  0
LINE
  8
EEFC.1baa
  6
CONTINUOUS
 62
8
 10
3.3191802434905
 20
9.0343033419431
 11
3.3191802434905
 21
9.1873742080848
  0
LINE
  8
EEFC.1baa
  6
CONTINUOUS
 62
8
 10
3.6159262036794
 20
9.0415596691545
 11
3.6159262036794
 21
9.1946305352962
  0
LINE
  8
EEFC.1baa
  6
CONTINUOUS
 62
8
 10
3.9364831874905
 20
8.8309742080848
 11
4.2340877256299
 21
9.0027962682917
  0
LINE
  8
EEFC.1baa
  6
CONTINUOUS
 62
8
 10
3.9364831874905
 20
8.8584688094777
 11
4.5555032873914
 21
9.2158602307892
  0
LINE
  8
EEFC.1baa
  6
CONTINUOUS
 62
8
 10
3.9364831874905
 20
8.8584688094777
 11
3.6397372273015
 21
9.0297951694737
  0
LINE
  8
EEFC.1baa
  6
CONTINUOUS
 62
8
 10
3.6397372273015
 20
9.0297951694737
 11
3.6397372273015
 21
9.1828660356154
  0
LINE
  8
EEFC.1baa
  6
CONTINUOUS
 62
8
 10
3.9364831874905
 20
8.8584688094777
 11
3.9364831874905
 21
9.0115396756194
  0
LINE
  8
EEFC.1baa
  6
CONTINUOUS
 62
8
 10
4.5555032783709
 20
9.2158602255232
 11
4.5555032783709
 21
9.3689310916649
  0
LINE
  8
EEFC.1baa
  6
CONTINUOUS
 62
8
 10
3.9364831874905
 20
9.0115396756194
 11
4.5555032873914
 21
9.368931096931
  0
LINE
  8
EEFC.1baa
  6
CONTINUOUS
 62
8
 10
3.9364831874905
 20
9.0115396756194
 11
3.6397372273015
 21
9.1828660356154
  0
LINE
  8
EEFC.1baa
  6
CONTINUOUS
 62
8
 10
3.6159262036794
 20
9.1946305352962
 11
3.3191802434905
 21
9.3659568952923
  0
LINE
  8
EEFC.1baa
  6
CONTINUOUS
 62
8
 10
3.6159262036794
 20
9.0415596691545
 11
3.3191802434905
 21
9.2128860291505
  0
LINE
  8
EEFC.1baa
  6
CONTINUOUS
 62
8
 10
3.3191802434905
 20
9.2128860291505
 11
3.3191802434905
 21
9.3659568952923
  0
LINE
  8
EEFC.1baa
  6
CONTINUOUS
 62
8
 10
4.257898749252
 20
9.0165435691895
 11
4.5555032783709
 21
9.1883656241884
  0
LINE
  8
EEFC.1baa
  6
CONTINUOUS
 62
8
 10
4.5555032783709
 20
9.0352947580467
 11
4.5555032783709
 21
9.1883656241884
  0
LINE
  8
EEFC.1baa
  6
CONTINUOUS
 62
8
 10
3.9364831874905
 20
8.6779033419431
 11
4.2340877256299
 21
8.8497254021499
  0
LINE
  8
EEFC.1baa
  6
CONTINUOUS
 62
8
 10
4.2578987492519
 20
8.8634727030478
 11
4.5555032783709
 21
9.0352947580467
  0
LINE
  8
EEFC.1baa
  6
CONTINUOUS
 62
8
 10
3.9364831874905
 20
8.8309742076819
 11
3.3191802434905
 21
9.1873742285719
  0
LINE
  8
EEFC.1baa
  6
CONTINUOUS
 62
8
 10
3.9364831874905
 20
8.6779033419431
 11
3.3191802434905
 21
9.034303362833
  0
LINE
  8
EEFC.1baa
  6
CONTINUOUS
 62
8
 10
4.257898749252
 20
9.0165435691895
 11
4.257898749252
 21
8.8634727030478
  0
LINE
  8
EEFC.1baa
  6
CONTINUOUS
 62
8
 10
4.2340877256299
 20
9.0027962682917
 11
4.2340877256299
 21
8.8497254021499
  0
LINE
  8
EEFC.1baa
  6
CONTINUOUS
 62
8
 10
3.3191802434905
 20
8.6751552076881
 11
3.3191802434905
 21
8.8282260738299
  0
LINE
  8
EEFC.1baa
  6
CONTINUOUS
 62
8
 10
3.6159262036795
 20
8.6824115348995
 11
3.6159262036795
 21
8.8354824010413
  0
LINE
  8
EEFC.1baa
  6
CONTINUOUS
 62
8
 10
4.217242816891
 20
8.6614173228346
 11
4.5555032873914
 21
8.8567120965343
  0
LINE
  8
EEFC.1baa
  6
CONTINUOUS
 62
8
 10
3.65572355809
 20
8.6614173228346
 11
3.6397372273015
 21
8.6706470352187
  0
LINE
  8
EEFC.1baa
  6
CONTINUOUS
 62
8
 10
3.6397372273015
 20
8.6706470352187
 11
3.6397372273015
 21
8.8237179013605
  0
LINE
  8
EEFC.1baa
  6
CONTINUOUS
 62
8
 10
4.5555032783709
 20
8.8567120912682
 11
4.5555032783709
 21
9.0097829574099
  0
LINE
  8
EEFC.1baa
  6
CONTINUOUS
 62
8
 10
3.9521162995749
 20
8.6614173228346
 11
4.5555032873914
 21
9.009782962676
  0
LINE
  8
EEFC.1baa
  6
CONTINUOUS
 62
8
 10
3.9208500754061
 20
8.6614173228346
 11
3.6397372273015
 21
8.8237179013605
  0
LINE
  8
EEFC.1baa
  6
CONTINUOUS
 62
8
 10
3.6159262036795
 20
8.8354824010413
 11
3.3191802434905
 21
9.0068087610373
  0
LINE
  8
EEFC.1baa
  6
CONTINUOUS
 62
8
 10
3.6159262036795
 20
8.6824115348995
 11
3.3191802434905
 21
8.8537378948956
  0
LINE
  8
EEFC.1baa
  6
CONTINUOUS
 62
8
 10
3.3191802434905
 20
8.8537378948956
 11
3.3191802434905
 21
9.0068087610373
  0
LINE
  8
EEFC.1baa
  6
CONTINUOUS
 62
8
 10
4.2648648634372
 20
8.6614173228346
 11
4.5555032783709
 21
8.8292174899335
  0
LINE
  8
EEFC.1baa
  6
CONTINUOUS
 62
8
 10
4.5555032783709
 20
8.6761466237917
 11
4.5555032783709
 21
8.8292174899335
  0
LINE
  8
EEFC.1baa
  6
CONTINUOUS
 62
8
 10
4.5299913807533
 20
8.6614173228347
 11
4.5555032783709
 21
8.6761466237917
  0
LINE
  8
EEFC.1baa
  6
CONTINUOUS
 62
8
 10
3.6081015108459
 20
8.6614173228347
 11
3.3191802434905
 21
8.8282260943169
  0
LINE
  8
EEFC.1baa
  6
CONTINUOUS
 62
8
 10
3.3429749942277
 20
8.6614173228346
 11
3.3191802434905
 21
8.6751552285781
  0
LINE
  8
EEFC.1baa
  6
CONTINUOUS
 62
8
 10
3.1496062992126
 20
8.6614173228346
 11
3.1496062992126
 21
10.236220472441
  0
LINE
  8
EEFC.1baa
  6
CONTINUOUS
 62
8
 10
3.1496062992126
 20
10.236220472441
 11
4.7244094488189
 21
10.236220472441
  0
LINE
  8
EEFC.1baa
  6
CONTINUOUS
 62
8
 10
4.7244094488189
 20
10.236220472441
 11
4.7244094488189
 21
8.6614173228346
  0
LINE
  8
EEFC.1baa
  6
CONTINUOUS
 62
8
 10
4.7244094488189
 20
8.6614173228346
 11
3.1496062992126
 21
8.6614173228346
  0
ENDSEC
  0
EOF
