  0
SECTION
  2
HEADER
  9
$EXTMIN
 10
3.297144842135
 20
7.7215476108646
  9
$EXTMAX
 10
4.8719479917413
 20
9.2963507604709
  9
$LIMMIN
 10
0
 20
0
  9
$LIMMAX
 10
8.27
 20
11.69
  0
ENDSEC
  0
SECTION
  2
TABLES
  0
TABLE
  2
LTYPE
 70
9
  0
LTYPE
  2
CONTINUOUS
  3
___________________________
 70
64
 72
65
 73
0
 40
0
  0
LTYPE
  2
HIDDEN
  3
_ _ _ _ _ _ _ _ _ _ _ _ _ _ 
 70
64
 72
65
 73
2
 49
0.25
 49
-0.125
 40
0.375
  0
LTYPE
  2
DASHED
  3
__ __ __ __ __ __ __ __ __ 
 70
64
 72
65
 73
2
 49
0.5
 49
-0.25
 40
0.75
  0
LTYPE
  2
CENTER
  3
____ _ ____ _ ____ _ ____ _ 
 70
64
 72
65
 73
4
 49
1.25
 49
-0.25
 49
0.25
 49
-0.25
 40
2
  0
LTYPE
  2
PHANTOM
  3
_____ _ _ _____ _ _ _____ _ _ 
 70
64
 72
65
 73
6
 49
1.25
 49
-0.25
 49
0.25
 49
-0.25
 49
0.25
 49
-0.25
 40
2.5
  0
LTYPE
  2
DOT
  3
...........................
 70
64
 72
65
 73
2
 49
0
 49
-0.25
 40
0.25
  0
LTYPE
  2
DASHDOT
  3
__ . __ . __ . __ . __ . __ . 
 70
64
 72
65
 73
4
 49
0.5
 49
-0.25
 49
0
 49
-0.25
 40
1
  0
LTYPE
  2
DIVIDE
  3
__ . . __ . . __ . . __ . . 
 70
64
 72
65
 73
6
 49
0.5
 49
-0.25
 49
0
 49
-0.25
 49
0
 49
-0.25
 40
1.25
  0
LTYPE
  2
BORDER
  3
__ __ . __ __ . __ __ . __ __ . 
 70
64
 72
65
 73
6
 49
0.5
 49
-0.25
 49
0.5
 49
-0.25
 49
0
 49
-0.25
 40
1.75
  0
ENDTAB
  0
TABLE
  2
LAYER
 70
1
  0
LAYER
  2
ECPE.7
 62
7
  6
CONTINUOUS
 70
0
  0
ENDTAB
  0
TABLE
  2
STYLE
 70
5
  0
STYLE
  2
ptmarker
 70
1
 40
0
 50
0
 71
0
 41
0
 42
0
  3
ptmarks
  0
STYLE
  2
TXT
 70
0
 40
0
 50
0
 71
0
 41
0
 42
0
  3
TXT
  0
STYLE
  2
ITALIC
 70
0
 40
0
 50
0
 71
0
 41
0
 42
0
  3
ITALIC
  0
STYLE
  2
SIMPLEX
 70
0
 40
0
 50
0
 71
0
 41
0
 42
0
  3
SIMPLEX
  0
STYLE
  2
COMPLEX
 70
0
 40
0
 50
0
 71
0
 41
0
 42
0
  3
COMPLEX
  0
ENDTAB
  0
ENDSEC
  0
SECTION
  2
BLOCKS
  0
ENDSEC
  0
SECTION
  2
ENTITIES
  0
LINE
  8
ECPE.7
  6
CONTINUOUS
 62
8
 10
4.8719479917413
 20
7.7215476108646
 11
4.8719479917413
 21
9.2963507604709
  0
LINE
  8
ECPE.7
  6
CONTINUOUS
 62
8
 10
3.297144842135
 20
7.7215476108646
 11
4.8719479917413
 21
7.7215476108646
  0
LINE
  8
ECPE.7
  6
CONTINUOUS
 62
8
 10
3.297144842135
 20
9.2963507604709
 11
3.297144842135
 21
7.7215476108646
  0
LINE
  8
ECPE.7
  6
CONTINUOUS
 62
8
 10
3.4025588604798
 20
8.8059265515667
 11
3.9432719696749
 21
8.4937456924186
  0
LINE
  8
ECPE.7
  6
CONTINUOUS
 62
8
 10
3.4025588604798
 20
8.3334856066848
 11
3.9432719696749
 21
8.0213047475367
  0
LINE
  8
ECPE.7
  6
CONTINUOUS
 62
8
 10
3.4025588604798
 20
8.8059265515667
 11
3.4025588604798
 21
8.3334856066848
  0
LINE
  8
ECPE.7
  6
CONTINUOUS
 62
8
 10
4.766852194419
 20
8.8101276779633
 11
4.766852194419
 21
8.3376867330814
  0
LINE
  8
ECPE.7
  6
CONTINUOUS
 62
8
 10
3.5730363021697
 20
8.9043517484171
 11
4.6036513170971
 21
8.9043517484171
  0
LINE
  8
ECPE.7
  6
CONTINUOUS
 62
8
 10
3.5262818613367
 20
8.0811009077144
 11
3.5355244202961
 21
8.070328257773
  0
LINE
  8
ECPE.7
  6
CONTINUOUS
 62
8
 10
3.5355244202961
 20
8.070328257773
 11
3.5477873820833
 21
8.0606123837411
  0
LINE
  8
ECPE.7
  6
CONTINUOUS
 62
8
 10
3.5477873820833
 20
8.0606123837411
 11
3.5627179636147
 21
8.0522327936251
  0
LINE
  8
ECPE.7
  6
CONTINUOUS
 62
8
 10
3.5627179636147
 20
8.0522327936251
 11
3.5798866392437
 21
8.0454305529759
  0
LINE
  8
ECPE.7
  6
CONTINUOUS
 62
8
 10
3.5798866392437
 20
8.0454305529759
 11
3.5987994974314
 21
8.0404013498722
  0
LINE
  8
ECPE.7
  6
CONTINUOUS
 62
8
 10
3.5987994974314
 20
8.0404013498722
 11
3.6189124496822
 21
8.0372898653306
  0
LINE
  8
ECPE.7
  6
CONTINUOUS
 62
8
 10
3.6189124496822
 20
8.0372898653306
 11
3.6396468829795
 21
8.0361856110963
  0
LINE
  8
ECPE.7
  6
CONTINUOUS
 62
8
 10
3.6396468829795
 20
8.0361856110963
 11
3.6604063054284
 21
8.0371203545532
  0
LINE
  8
ECPE.7
  6
CONTINUOUS
 62
8
 10
3.6604063054284
 20
8.0371203545532
 11
3.6805935062416
 21
8.0400672048338
  0
LINE
  8
ECPE.7
  6
CONTINUOUS
 62
8
 10
3.6805935062416
 20
8.0400672048338
 11
3.6996277364065
 21
8.0449413864209
  0
LINE
  8
ECPE.7
  6
CONTINUOUS
 62
8
 10
3.6996277364065
 20
8.0449413864209
 11
3.7169614157768
 21
8.0516026779846
  0
LINE
  8
ECPE.7
  6
CONTINUOUS
 62
8
 10
3.7169614157768
 20
8.0516026779846
 11
3.7320958859563
 21
8.0598594462948
  0
LINE
  8
ECPE.7
  6
CONTINUOUS
 62
8
 10
3.7320958859563
 20
8.0598594462948
 11
3.7445957557932
 21
8.0694741591604
  0
LINE
  8
ECPE.7
  6
CONTINUOUS
 62
8
 10
3.7445957557932
 20
8.0694741591604
 11
3.7541014267908
 21
8.0801702187976
  0
LINE
  8
ECPE.7
  6
CONTINUOUS
 62
8
 10
3.5203255967983
 20
8.1643723925443
 11
3.5262818613367
 21
8.1528528762183
  0
LINE
  8
ECPE.7
  6
CONTINUOUS
 62
8
 10
3.5262818613367
 20
8.1528528762183
 11
3.5355244202961
 21
8.1420802262769
  0
LINE
  8
ECPE.7
  6
CONTINUOUS
 62
8
 10
3.5355244202961
 20
8.1420802262769
 11
3.5477873820833
 21
8.1323643522451
  0
LINE
  8
ECPE.7
  6
CONTINUOUS
 62
8
 10
3.5477873820833
 20
8.1323643522451
 11
3.5627179636147
 21
8.1239847621291
  0
LINE
  8
ECPE.7
  6
CONTINUOUS
 62
8
 10
3.5627179636147
 20
8.1239847621291
 11
3.5798866392437
 21
8.1171825214799
  0
LINE
  8
ECPE.7
  6
CONTINUOUS
 62
8
 10
3.5798866392437
 20
8.1171825214799
 11
3.5987994974314
 21
8.1121533183762
  0
LINE
  8
ECPE.7
  6
CONTINUOUS
 62
8
 10
3.5987994974314
 20
8.1121533183762
 11
3.6189124496822
 21
8.1090418338346
  0
LINE
  8
ECPE.7
  6
CONTINUOUS
 62
8
 10
3.6189124496822
 20
8.1090418338346
 11
3.6396468829795
 21
8.1079375796003
  0
LINE
  8
ECPE.7
  6
CONTINUOUS
 62
8
 10
3.6396468829795
 20
8.1079375796003
 11
3.6604063054284
 21
8.1088723230571
  0
LINE
  8
ECPE.7
  6
CONTINUOUS
 62
8
 10
3.6604063054284
 20
8.1088723230571
 11
3.6805935062416
 21
8.1118191733377
  0
LINE
  8
ECPE.7
  6
CONTINUOUS
 62
8
 10
3.6805935062416
 20
8.1118191733377
 11
3.6996277364065
 21
8.1166933549248
  0
LINE
  8
ECPE.7
  6
CONTINUOUS
 62
8
 10
3.6996277364065
 20
8.1166933549248
 11
3.7169614157768
 21
8.1233546464885
  0
LINE
  8
ECPE.7
  6
CONTINUOUS
 62
8
 10
3.7169614157768
 20
8.1233546464885
 11
3.7320958859563
 21
8.1316114147988
  0
LINE
  8
ECPE.7
  6
CONTINUOUS
 62
8
 10
3.7320958859563
 20
8.1316114147988
 11
3.7407223968619
 21
8.1382467979245
  0
LINE
  8
ECPE.7
  6
CONTINUOUS
 62
8
 10
3.5262818613367
 20
8.2246048447223
 11
3.5355244202961
 21
8.2138321947808
  0
LINE
  8
ECPE.7
  6
CONTINUOUS
 62
8
 10
3.5355244202961
 20
8.2138321947808
 11
3.5477873820833
 21
8.204116320749
  0
LINE
  8
ECPE.7
  6
CONTINUOUS
 62
8
 10
3.5477873820833
 20
8.204116320749
 11
3.5627179636147
 21
8.195736730633
  0
LINE
  8
ECPE.7
  6
CONTINUOUS
 62
8
 10
3.5627179636147
 20
8.195736730633
 11
3.5798866392437
 21
8.1889344899838
  0
LINE
  8
ECPE.7
  6
CONTINUOUS
 62
8
 10
3.5798866392437
 20
8.1889344899838
 11
3.5987994974314
 21
8.1839052868801
  0
LINE
  8
ECPE.7
  6
CONTINUOUS
 62
8
 10
3.5987994974314
 20
8.1839052868801
 11
3.6189124496822
 21
8.1807938023385
  0
LINE
  8
ECPE.7
  6
CONTINUOUS
 62
8
 10
3.6189124496822
 20
8.1807938023385
 11
3.6396468829795
 21
8.1796895481042
  0
LINE
  8
ECPE.7
  6
CONTINUOUS
 62
8
 10
3.6396468829795
 20
8.1796895481042
 11
3.6604063054284
 21
8.180624291561
  0
LINE
  8
ECPE.7
  6
CONTINUOUS
 62
8
 10
3.6604063054284
 20
8.180624291561
 11
3.6659266668451
 21
8.1814301327839
  0
LINE
  8
ECPE.7
  6
CONTINUOUS
 62
8
 10
3.9733442016076
 20
7.8229893452144
 11
3.9825867605671
 21
7.812216695273
  0
LINE
  8
ECPE.7
  6
CONTINUOUS
 62
8
 10
3.9825867605671
 20
7.812216695273
 11
3.9948497223543
 21
7.8025008212411
  0
LINE
  8
ECPE.7
  6
CONTINUOUS
 62
8
 10
3.9948497223543
 20
7.8025008212411
 11
4.0097803038857
 21
7.7941212311251
  0
LINE
  8
ECPE.7
  6
CONTINUOUS
 62
8
 10
4.0097803038857
 20
7.7941212311251
 11
4.0269489795147
 21
7.7873189904759
  0
LINE
  8
ECPE.7
  6
CONTINUOUS
 62
8
 10
4.0269489795147
 20
7.7873189904759
 11
4.0458618377024
 21
7.7822897873722
  0
LINE
  8
ECPE.7
  6
CONTINUOUS
 62
8
 10
4.0458618377024
 20
7.7822897873722
 11
4.0659747899532
 21
7.7791783028306
  0
LINE
  8
ECPE.7
  6
CONTINUOUS
 62
8
 10
4.0659747899532
 20
7.7791783028306
 11
4.0867092232505
 21
7.7780740485963
  0
LINE
  8
ECPE.7
  6
CONTINUOUS
 62
8
 10
4.0867092232505
 20
7.7780740485963
 11
4.1074686456994
 21
7.7790087920532
  0
LINE
  8
ECPE.7
  6
CONTINUOUS
 62
8
 10
4.1074686456994
 20
7.7790087920532
 11
4.1276558465126
 21
7.7819556423338
  0
LINE
  8
ECPE.7
  6
CONTINUOUS
 62
8
 10
4.1276558465126
 20
7.7819556423338
 11
4.1466900766775
 21
7.7868298239209
  0
LINE
  8
ECPE.7
  6
CONTINUOUS
 62
8
 10
4.1466900766775
 20
7.7868298239209
 11
4.1640237560478
 21
7.7934911154846
  0
LINE
  8
ECPE.7
  6
CONTINUOUS
 62
8
 10
4.1640237560478
 20
7.7934911154846
 11
4.1791582262272
 21
7.8017478837948
  0
LINE
  8
ECPE.7
  6
CONTINUOUS
 62
8
 10
4.1791582262272
 20
7.8017478837948
 11
4.1916580960642
 21
7.8113625966604
  0
LINE
  8
ECPE.7
  6
CONTINUOUS
 62
8
 10
4.1916580960642
 20
7.8113625966604
 11
4.2011637670618
 21
7.8220586562976
  0
LINE
  8
ECPE.7
  6
CONTINUOUS
 62
8
 10
3.9733442016076
 20
7.8947413137183
 11
3.9825867605671
 21
7.8839686637769
  0
LINE
  8
ECPE.7
  6
CONTINUOUS
 62
8
 10
3.9825867605671
 20
7.8839686637769
 11
3.9948497223543
 21
7.8742527897451
  0
LINE
  8
ECPE.7
  6
CONTINUOUS
 62
8
 10
3.9948497223543
 20
7.8742527897451
 11
4.0097803038857
 21
7.8658731996291
  0
LINE
  8
ECPE.7
  6
CONTINUOUS
 62
8
 10
4.0097803038857
 20
7.8658731996291
 11
4.0269489795147
 21
7.8590709589799
  0
LINE
  8
ECPE.7
  6
CONTINUOUS
 62
8
 10
4.0269489795147
 20
7.8590709589799
 11
4.0458618377024
 21
7.8540417558762
  0
LINE
  8
ECPE.7
  6
CONTINUOUS
 62
8
 10
4.0458618377024
 20
7.8540417558762
 11
4.0659747899532
 21
7.8509302713346
  0
LINE
  8
ECPE.7
  6
CONTINUOUS
 62
8
 10
4.0659747899532
 20
7.8509302713346
 11
4.0867092232505
 21
7.8498260171003
  0
LINE
  8
ECPE.7
  6
CONTINUOUS
 62
8
 10
4.0867092232505
 20
7.8498260171003
 11
4.1074686456994
 21
7.8507607605571
  0
LINE
  8
ECPE.7
  6
CONTINUOUS
 62
8
 10
4.1074686456994
 20
7.8507607605571
 11
4.1276558465126
 21
7.8537076108377
  0
LINE
  8
ECPE.7
  6
CONTINUOUS
 62
8
 10
4.1276558465126
 20
7.8537076108377
 11
4.1466900766775
 21
7.8585817924248
  0
LINE
  8
ECPE.7
  6
CONTINUOUS
 62
8
 10
4.1466900766775
 20
7.8585817924248
 11
4.1640237560478
 21
7.8652430839885
  0
LINE
  8
ECPE.7
  6
CONTINUOUS
 62
8
 10
4.1640237560478
 20
7.8652430839885
 11
4.1791582262272
 21
7.8734998522988
  0
LINE
  8
ECPE.7
  6
CONTINUOUS
 62
8
 10
4.1791582262272
 20
7.8734998522988
 11
4.1916580960642
 21
7.8831145651644
  0
LINE
  8
ECPE.7
  6
CONTINUOUS
 62
8
 10
4.1916580960642
 20
7.8831145651644
 11
4.2011637670618
 21
7.8938106248015
  0
LINE
  8
ECPE.7
  6
CONTINUOUS
 62
8
 10
3.9733442016076
 20
7.9664932822223
 11
3.9825867605671
 21
7.9557206322808
  0
LINE
  8
ECPE.7
  6
CONTINUOUS
 62
8
 10
3.9825867605671
 20
7.9557206322808
 11
3.9948497223543
 21
7.946004758249
  0
LINE
  8
ECPE.7
  6
CONTINUOUS
 62
8
 10
3.9948497223543
 20
7.946004758249
 11
4.0097803038857
 21
7.937625168133
  0
LINE
  8
ECPE.7
  6
CONTINUOUS
 62
8
 10
4.0097803038857
 20
7.937625168133
 11
4.0269489795147
 21
7.9308229274838
  0
LINE
  8
ECPE.7
  6
CONTINUOUS
 62
8
 10
4.0269489795147
 20
7.9308229274838
 11
4.0458618377024
 21
7.9257937243801
  0
LINE
  8
ECPE.7
  6
CONTINUOUS
 62
8
 10
4.0458618377024
 20
7.9257937243801
 11
4.0659747899532
 21
7.9226822398385
  0
LINE
  8
ECPE.7
  6
CONTINUOUS
 62
8
 10
4.0659747899532
 20
7.9226822398385
 11
4.0867092232505
 21
7.9215779856042
  0
LINE
  8
ECPE.7
  6
CONTINUOUS
 62
8
 10
4.0867092232505
 20
7.9215779856042
 11
4.1074686456994
 21
7.922512729061
  0
LINE
  8
ECPE.7
  6
CONTINUOUS
 62
8
 10
4.1074686456994
 20
7.922512729061
 11
4.1276558465126
 21
7.9254595793416
  0
LINE
  8
ECPE.7
  6
CONTINUOUS
 62
8
 10
4.1276558465126
 20
7.9254595793416
 11
4.1466900766775
 21
7.9303337609287
  0
LINE
  8
ECPE.7
  6
CONTINUOUS
 62
8
 10
4.1466900766775
 20
7.9303337609287
 11
4.1640237560478
 21
7.9369950524925
  0
LINE
  8
ECPE.7
  6
CONTINUOUS
 62
8
 10
4.1640237560478
 20
7.9369950524925
 11
4.1791582262272
 21
7.9452518208027
  0
LINE
  8
ECPE.7
  6
CONTINUOUS
 62
8
 10
4.1791582262272
 20
7.9452518208027
 11
4.1916580960642
 21
7.9548665336683
  0
LINE
  8
ECPE.7
  6
CONTINUOUS
 62
8
 10
4.1916580960642
 20
7.9548665336683
 11
4.2011637670618
 21
7.9655625933055
  0
LINE
  8
ECPE.7
  6
CONTINUOUS
 62
8
 10
4.218862520856
 20
8.0213047475367
 11
4.766852194419
 21
8.3376867330814
  0
LINE
  8
ECPE.7
  6
CONTINUOUS
 62
8
 10
4.218862520856
 20
8.4937456924186
 11
4.766852194419
 21
8.8101276779633
  0
LINE
  8
ECPE.7
  6
CONTINUOUS
 62
8
 10
4.6358526291942
 20
8.0811009077144
 11
4.6266100702347
 21
8.070328257773
  0
LINE
  8
ECPE.7
  6
CONTINUOUS
 62
8
 10
4.6266100702347
 20
8.070328257773
 11
4.6143471084475
 21
8.0606123837411
  0
LINE
  8
ECPE.7
  6
CONTINUOUS
 62
8
 10
4.6143471084475
 20
8.0606123837411
 11
4.5994165269161
 21
8.0522327936251
  0
LINE
  8
ECPE.7
  6
CONTINUOUS
 62
8
 10
4.5994165269161
 20
8.0522327936251
 11
4.5822478512872
 21
8.0454305529759
  0
LINE
  8
ECPE.7
  6
CONTINUOUS
 62
8
 10
4.5822478512872
 20
8.0454305529759
 11
4.5633349930995
 21
8.0404013498722
  0
LINE
  8
ECPE.7
  6
CONTINUOUS
 62
8
 10
4.5633349930995
 20
8.0404013498722
 11
4.5432220408487
 21
8.0372898653306
  0
LINE
  8
ECPE.7
  6
CONTINUOUS
 62
8
 10
4.5432220408487
 20
8.0372898653306
 11
4.5224876075514
 21
8.0361856110963
  0
LINE
  8
ECPE.7
  6
CONTINUOUS
 62
8
 10
4.5224876075514
 20
8.0361856110963
 11
4.5017281851025
 21
8.0371203545532
  0
LINE
  8
ECPE.7
  6
CONTINUOUS
 62
8
 10
4.5017281851025
 20
8.0371203545532
 11
4.4815409842893
 21
8.0400672048338
  0
LINE
  8
ECPE.7
  6
CONTINUOUS
 62
8
 10
4.4815409842893
 20
8.0400672048338
 11
4.4625067541244
 21
8.0449413864209
  0
LINE
  8
ECPE.7
  6
CONTINUOUS
 62
8
 10
4.4625067541244
 20
8.0449413864209
 11
4.4451730747541
 21
8.0516026779846
  0
LINE
  8
ECPE.7
  6
CONTINUOUS
 62
8
 10
4.4451730747541
 20
8.0516026779846
 11
4.4300386045746
 21
8.0598594462948
  0
LINE
  8
ECPE.7
  6
CONTINUOUS
 62
8
 10
4.4300386045746
 20
8.0598594462948
 11
4.4175387347377
 21
8.0694741591604
  0
LINE
  8
ECPE.7
  6
CONTINUOUS
 62
8
 10
4.4175387347377
 20
8.0694741591604
 11
4.4080330637401
 21
8.0801702187976
  0
LINE
  8
ECPE.7
  6
CONTINUOUS
 62
8
 10
4.6418088937326
 20
8.1643723925443
 11
4.6358526291942
 21
8.1528528762183
  0
LINE
  8
ECPE.7
  6
CONTINUOUS
 62
8
 10
4.6358526291942
 20
8.1528528762183
 11
4.6266100702347
 21
8.1420802262769
  0
LINE
  8
ECPE.7
  6
CONTINUOUS
 62
8
 10
4.6266100702347
 20
8.1420802262769
 11
4.6143471084475
 21
8.1323643522451
  0
LINE
  8
ECPE.7
  6
CONTINUOUS
 62
8
 10
4.6143471084475
 20
8.1323643522451
 11
4.5994165269161
 21
8.1239847621291
  0
LINE
  8
ECPE.7
  6
CONTINUOUS
 62
8
 10
4.5994165269161
 20
8.1239847621291
 11
4.5822478512872
 21
8.1171825214799
  0
LINE
  8
ECPE.7
  6
CONTINUOUS
 62
8
 10
4.5822478512872
 20
8.1171825214799
 11
4.5633349930995
 21
8.1121533183762
  0
LINE
  8
ECPE.7
  6
CONTINUOUS
 62
8
 10
4.5633349930995
 20
8.1121533183762
 11
4.5432220408487
 21
8.1090418338346
  0
LINE
  8
ECPE.7
  6
CONTINUOUS
 62
8
 10
4.5432220408487
 20
8.1090418338346
 11
4.5224876075514
 21
8.1079375796003
  0
LINE
  8
ECPE.7
  6
CONTINUOUS
 62
8
 10
4.5224876075514
 20
8.1079375796003
 11
4.5017281851025
 21
8.1088723230571
  0
LINE
  8
ECPE.7
  6
CONTINUOUS
 62
8
 10
4.5017281851025
 20
8.1088723230571
 11
4.4815409842893
 21
8.1118191733377
  0
LINE
  8
ECPE.7
  6
CONTINUOUS
 62
8
 10
4.4815409842893
 20
8.1118191733377
 11
4.4625067541244
 21
8.1166933549248
  0
LINE
  8
ECPE.7
  6
CONTINUOUS
 62
8
 10
4.4625067541244
 20
8.1166933549248
 11
4.4451730747541
 21
8.1233546464885
  0
LINE
  8
ECPE.7
  6
CONTINUOUS
 62
8
 10
4.4451730747541
 20
8.1233546464885
 11
4.4300386045746
 21
8.1316114147988
  0
LINE
  8
ECPE.7
  6
CONTINUOUS
 62
8
 10
4.4300386045746
 20
8.1316114147988
 11
4.421412093669
 21
8.1382467979245
  0
LINE
  8
ECPE.7
  6
CONTINUOUS
 62
8
 10
4.6358526291942
 20
8.2246048447223
 11
4.6266100702347
 21
8.2138321947808
  0
LINE
  8
ECPE.7
  6
CONTINUOUS
 62
8
 10
4.6266100702347
 20
8.2138321947808
 11
4.6143471084475
 21
8.204116320749
  0
LINE
  8
ECPE.7
  6
CONTINUOUS
 62
8
 10
4.6143471084475
 20
8.204116320749
 11
4.5994165269161
 21
8.195736730633
  0
LINE
  8
ECPE.7
  6
CONTINUOUS
 62
8
 10
4.5994165269161
 20
8.195736730633
 11
4.5822478512872
 21
8.1889344899838
  0
LINE
  8
ECPE.7
  6
CONTINUOUS
 62
8
 10
4.5822478512872
 20
8.1889344899838
 11
4.5633349930995
 21
8.1839052868801
  0
LINE
  8
ECPE.7
  6
CONTINUOUS
 62
8
 10
4.5633349930995
 20
8.1839052868801
 11
4.5432220408487
 21
8.1807938023385
  0
LINE
  8
ECPE.7
  6
CONTINUOUS
 62
8
 10
4.5432220408487
 20
8.1807938023385
 11
4.5224876075514
 21
8.1796895481042
  0
LINE
  8
ECPE.7
  6
CONTINUOUS
 62
8
 10
4.5224876075514
 20
8.1796895481042
 11
4.5017281851025
 21
8.180624291561
  0
LINE
  8
ECPE.7
  6
CONTINUOUS
 62
8
 10
4.5017281851025
 20
8.180624291561
 11
4.4962078236858
 21
8.1814301327839
  0
LINE
  8
ECPE.7
  6
CONTINUOUS
 62
8
 10
4.1835140298737
 20
7.7215476108646
 11
4.8719479917413
 21
8.1190151440681
  0
LINE
  8
ECPE.7
  6
CONTINUOUS
 62
8
 10
4.3803644235745
 20
7.7215476108646
 11
4.8719479917413
 21
8.0053635162749
  0
LINE
  8
ECPE.7
  6
CONTINUOUS
 62
8
 10
4.5772148172753
 20
7.7215476108646
 11
4.8719479917413
 21
7.8917118884816
  0
LINE
  8
ECPE.7
  6
CONTINUOUS
 62
8
 10
4.7740652109761
 20
7.7215476108646
 11
4.8719479917413
 21
7.7780602606884
  0
LINE
  8
ECPE.7
  6
CONTINUOUS
 62
8
 10
3.9866636361729
 20
7.7215476108646
 11
4.0847509381023
 21
7.7781783410376
  0
LINE
  8
ECPE.7
  6
CONTINUOUS
 62
8
 10
3.7898132424722
 20
7.7215476108646
 11
3.9665089339403
 21
7.8235629158984
  0
LINE
  8
ECPE.7
  6
CONTINUOUS
 62
8
 10
3.5929628487714
 20
7.7215476108646
 11
3.9633197686148
 21
7.9353732782324
  0
LINE
  8
ECPE.7
  6
CONTINUOUS
 62
8
 10
3.3961124550706
 20
7.7215476108646
 11
3.9292895076964
 21
8.0293775257239
  0
LINE
  8
ECPE.7
  6
CONTINUOUS
 62
8
 10
3.297144842135
 20
7.7780602606884
 11
3.830864310846
 21
8.0862033396205
  0
LINE
  8
ECPE.7
  6
CONTINUOUS
 62
8
 10
3.297144842135
 20
7.8917118884816
 11
3.5701055503732
 21
8.0493058268611
  0
LINE
  8
ECPE.7
  6
CONTINUOUS
 62
8
 10
3.297144842135
 20
8.0053635162749
 11
3.5162166317519
 21
8.1318446729821
  0
LINE
  8
ECPE.7
  6
CONTINUOUS
 62
8
 10
3.297144842135
 20
8.1190151440681
 11
3.4939952358357
 21
8.2326667718613
  0
LINE
  8
ECPE.7
  6
CONTINUOUS
 62
8
 10
4.8719479917413
 20
9.2963507604709
 11
3.297144842135
 21
9.2963507604709
  0
LINE
  8
ECPE.7
  6
CONTINUOUS
 62
8
 10
3.5205886265675
 20
8.2653410894617
 11
3.5196391905693
 21
8.2552569622929
  0
LINE
  8
ECPE.7
  6
CONTINUOUS
 62
8
 10
3.5196391905693
 20
8.2552569622929
 11
3.5162166317519
 21
8.2484118446581
  0
LINE
  8
ECPE.7
  6
CONTINUOUS
 62
8
 10
3.5162166317519
 20
8.2484118446581
 11
3.5196391905693
 21
8.2415667270234
  0
LINE
  8
ECPE.7
  6
CONTINUOUS
 62
8
 10
3.5196391905693
 20
8.2415667270234
 11
3.5196391905693
 21
8.2347216093886
  0
LINE
  8
ECPE.7
  6
CONTINUOUS
 62
8
 10
3.5196391905693
 20
8.2347216093886
 11
3.5264843082041
 21
8.221031374119
  0
LINE
  8
ECPE.7
  6
CONTINUOUS
 62
8
 10
3.5264843082041
 20
8.221031374119
 11
3.5299068670214
 21
8.2107636976668
  0
LINE
  8
ECPE.7
  6
CONTINUOUS
 62
8
 10
3.5299068670214
 20
8.2107636976668
 11
3.5264843082041
 21
8.2039185800321
  0
LINE
  8
ECPE.7
  6
CONTINUOUS
 62
8
 10
3.5264843082041
 20
8.2039185800321
 11
3.5230617493867
 21
8.1970734623973
  0
LINE
  8
ECPE.7
  6
CONTINUOUS
 62
8
 10
3.5230617493867
 20
8.1970734623973
 11
3.5162166317519
 21
8.1868057859451
  0
LINE
  8
ECPE.7
  6
CONTINUOUS
 62
8
 10
3.5162166317519
 20
8.1868057859451
 11
3.5196391905693
 21
8.1731155506756
  0
LINE
  8
ECPE.7
  6
CONTINUOUS
 62
8
 10
3.5196391905693
 20
8.1731155506756
 11
3.5196391905693
 21
8.1628478742234
  0
LINE
  8
ECPE.7
  6
CONTINUOUS
 62
8
 10
3.5196391905693
 20
8.1628478742234
 11
3.5230617493867
 21
8.1423125213191
  0
LINE
  8
ECPE.7
  6
CONTINUOUS
 62
8
 10
3.5230617493867
 20
8.1423125213191
 11
3.5230617493867
 21
8.1251997272321
  0
LINE
  8
ECPE.7
  6
CONTINUOUS
 62
8
 10
3.5230617493867
 20
8.1251997272321
 11
3.5196391905693
 21
8.1115094919625
  0
LINE
  8
ECPE.7
  6
CONTINUOUS
 62
8
 10
3.5196391905693
 20
8.1115094919625
 11
3.5162166317519
 21
8.1012418155104
  0
LINE
  8
ECPE.7
  6
CONTINUOUS
 62
8
 10
3.5162166317519
 20
8.1012418155104
 11
3.5196391905693
 21
8.0909741390582
  0
LINE
  8
ECPE.7
  6
CONTINUOUS
 62
8
 10
3.5196391905693
 20
8.0909741390582
 11
3.5230617493867
 21
8.080706462606
  0
LINE
  8
ECPE.7
  6
CONTINUOUS
 62
8
 10
3.5230617493867
 20
8.080706462606
 11
3.5230617493867
 21
8.0670162273365
  0
LINE
  8
ECPE.7
  6
CONTINUOUS
 62
8
 10
3.7537143919588
 20
8.130679594892
 11
3.7557957489692
 21
8.1217771684147
  0
LINE
  8
ECPE.7
  6
CONTINUOUS
 62
8
 10
3.7557957489692
 20
8.1217771684147
 11
3.7592183077866
 21
8.1149320507799
  0
LINE
  8
ECPE.7
  6
CONTINUOUS
 62
8
 10
3.7592183077866
 20
8.1149320507799
 11
3.7592183077866
 21
8.1012418155104
  0
LINE
  8
ECPE.7
  6
CONTINUOUS
 62
8
 10
3.7592183077866
 20
8.1012418155104
 11
3.7592183077866
 21
8.0909741390582
  0
LINE
  8
ECPE.7
  6
CONTINUOUS
 62
8
 10
3.7592183077866
 20
8.0909741390582
 11
3.7557957489692
 21
8.0841290214234
  0
LINE
  8
ECPE.7
  6
CONTINUOUS
 62
8
 10
3.7557957489692
 20
8.0841290214234
 11
3.7523731901518
 21
8.0772839037886
  0
LINE
  8
ECPE.7
  6
CONTINUOUS
 62
8
 10
3.7523731901518
 20
8.0772839037886
 11
3.7557957489692
 21
8.0635936685191
  0
LINE
  8
ECPE.7
  6
CONTINUOUS
 62
8
 10
3.9657813186269
 20
8.00830896886
 11
3.96457183683
 21
7.9951424921713
  0
LINE
  8
ECPE.7
  6
CONTINUOUS
 62
8
 10
3.96457183683
 20
8.0213047475367
 11
3.96457183683
 21
7.9882973745365
  0
LINE
  8
ECPE.7
  6
CONTINUOUS
 62
8
 10
3.96457183683
 20
7.9882973745365
 11
3.9679943956473
 21
7.974607139267
  0
LINE
  8
ECPE.7
  6
CONTINUOUS
 62
8
 10
3.9679943956473
 20
7.974607139267
 11
3.9714169544647
 21
7.9643394628148
  0
LINE
  8
ECPE.7
  6
CONTINUOUS
 62
8
 10
3.9714169544647
 20
7.9643394628148
 11
3.9714169544647
 21
7.9506492275452
  0
LINE
  8
ECPE.7
  6
CONTINUOUS
 62
8
 10
3.9714169544647
 20
7.9506492275452
 11
3.9679943956473
 21
7.9403815510931
  0
LINE
  8
ECPE.7
  6
CONTINUOUS
 62
8
 10
3.9679943956473
 20
7.9403815510931
 11
3.9679943956473
 21
7.9266913158235
  0
LINE
  8
ECPE.7
  6
CONTINUOUS
 62
8
 10
3.9679943956473
 20
7.9266913158235
 11
3.96457183683
 21
7.9164236393713
  0
LINE
  8
ECPE.7
  6
CONTINUOUS
 62
8
 10
3.96457183683
 20
7.9164236393713
 11
3.9679943956473
 21
7.9027334041018
  0
LINE
  8
ECPE.7
  6
CONTINUOUS
 62
8
 10
3.9679943956473
 20
7.9027334041018
 11
3.9714169544647
 21
7.8924657276496
  0
LINE
  8
ECPE.7
  6
CONTINUOUS
 62
8
 10
3.9714169544647
 20
7.8924657276496
 11
3.9714169544647
 21
7.87877549238
  0
LINE
  8
ECPE.7
  6
CONTINUOUS
 62
8
 10
3.9714169544647
 20
7.87877549238
 11
3.9679943956473
 21
7.8685078159279
  0
LINE
  8
ECPE.7
  6
CONTINUOUS
 62
8
 10
3.9679943956473
 20
7.8685078159279
 11
3.9679943956473
 21
7.8616626982931
  0
LINE
  8
ECPE.7
  6
CONTINUOUS
 62
8
 10
3.9679943956473
 20
7.8616626982931
 11
3.96457183683
 21
7.8582401394757
  0
LINE
  8
ECPE.7
  6
CONTINUOUS
 62
8
 10
3.96457183683
 20
7.8582401394757
 11
3.96457183683
 21
7.8445499042061
  0
LINE
  8
ECPE.7
  6
CONTINUOUS
 62
8
 10
3.96457183683
 20
7.8445499042061
 11
3.96457183683
 21
7.834282227754
  0
LINE
  8
ECPE.7
  6
CONTINUOUS
 62
8
 10
3.96457183683
 20
7.834282227754
 11
3.9679943956473
 21
7.8274371101192
  0
LINE
  8
ECPE.7
  6
CONTINUOUS
 62
8
 10
3.9679943956473
 20
7.8274371101192
 11
3.9714169544647
 21
7.8205919924844
  0
LINE
  8
ECPE.7
  6
CONTINUOUS
 62
8
 10
3.9714169544647
 20
7.8205919924844
 11
3.9714169544647
 21
7.8069017572149
  0
LINE
  8
ECPE.7
  6
CONTINUOUS
 62
8
 10
4.2002879141858
 20
8.0213047475367
 11
4.2041509540472
 21
8.0019876098061
  0
LINE
  8
ECPE.7
  6
CONTINUOUS
 62
8
 10
4.2041509540472
 20
8.0019876098061
 11
4.2041509540472
 21
7.9951424921713
  0
LINE
  8
ECPE.7
  6
CONTINUOUS
 62
8
 10
4.2041509540472
 20
7.9951424921713
 11
4.2041509540472
 21
7.9814522569017
  0
LINE
  8
ECPE.7
  6
CONTINUOUS
 62
8
 10
4.2041509540472
 20
7.9814522569017
 11
4.2041509540472
 21
7.9711845804496
  0
LINE
  8
ECPE.7
  6
CONTINUOUS
 62
8
 10
4.2041509540472
 20
7.9711845804496
 11
4.2007283952298
 21
7.9643394628148
  0
LINE
  8
ECPE.7
  6
CONTINUOUS
 62
8
 10
4.2007283952298
 20
7.9643394628148
 11
4.1973058364125
 21
7.9609169039974
  0
LINE
  8
ECPE.7
  6
CONTINUOUS
 62
8
 10
4.1973058364125
 20
7.9609169039974
 11
4.2007283952298
 21
7.9472266687278
  0
LINE
  8
ECPE.7
  6
CONTINUOUS
 62
8
 10
4.2007283952298
 20
7.9472266687278
 11
4.2007283952298
 21
7.9369589922757
  0
LINE
  8
ECPE.7
  6
CONTINUOUS
 62
8
 10
4.2007283952298
 20
7.9369589922757
 11
4.2041509540472
 21
7.9301138746409
  0
LINE
  8
ECPE.7
  6
CONTINUOUS
 62
8
 10
4.2041509540472
 20
7.9301138746409
 11
4.2041509540472
 21
7.9266913158235
  0
LINE
  8
ECPE.7
  6
CONTINUOUS
 62
8
 10
4.2041509540472
 20
7.9266913158235
 11
4.2041509540472
 21
7.9130010805539
  0
LINE
  8
ECPE.7
  6
CONTINUOUS
 62
8
 10
4.2041509540472
 20
7.9130010805539
 11
4.2041509540472
 21
7.9027334041018
  0
LINE
  8
ECPE.7
  6
CONTINUOUS
 62
8
 10
4.2041509540472
 20
7.9027334041018
 11
4.2007283952298
 21
7.895888286467
  0
LINE
  8
ECPE.7
  6
CONTINUOUS
 62
8
 10
4.2007283952298
 20
7.895888286467
 11
4.1973058364125
 21
7.8890431688322
  0
LINE
  8
ECPE.7
  6
CONTINUOUS
 62
8
 10
4.1973058364125
 20
7.8890431688322
 11
4.2007283952298
 21
7.8753529335626
  0
LINE
  8
ECPE.7
  6
CONTINUOUS
 62
8
 10
4.2007283952298
 20
7.8753529335626
 11
4.2007283952298
 21
7.8650852571105
  0
LINE
  8
ECPE.7
  6
CONTINUOUS
 62
8
 10
4.2007283952298
 20
7.8650852571105
 11
4.2041509540472
 21
7.8582401394757
  0
LINE
  8
ECPE.7
  6
CONTINUOUS
 62
8
 10
4.2041509540472
 20
7.8582401394757
 11
4.2041509540472
 21
7.8548175806583
  0
LINE
  8
ECPE.7
  6
CONTINUOUS
 62
8
 10
4.2041509540472
 20
7.8548175806583
 11
4.2041509540472
 21
7.8411273453888
  0
LINE
  8
ECPE.7
  6
CONTINUOUS
 62
8
 10
4.2041509540472
 20
7.8411273453888
 11
4.2041509540472
 21
7.8308596689366
  0
LINE
  8
ECPE.7
  6
CONTINUOUS
 62
8
 10
4.2041509540472
 20
7.8308596689366
 11
4.2007283952298
 21
7.8240145513018
  0
LINE
  8
ECPE.7
  6
CONTINUOUS
 62
8
 10
4.2007283952298
 20
7.8240145513018
 11
4.1973058364125
 21
7.817169433667
  0
LINE
  8
ECPE.7
  6
CONTINUOUS
 62
8
 10
4.1973058364125
 20
7.817169433667
 11
4.2007283952298
 21
7.8034791983975
  0
LINE
  8
ECPE.7
  6
CONTINUOUS
 62
8
 10
4.6415458639634
 20
8.2653410894617
 11
4.6422384826731
 21
8.2552569622929
  0
LINE
  8
ECPE.7
  6
CONTINUOUS
 62
8
 10
4.6422384826731
 20
8.2552569622929
 11
4.6422384826731
 21
8.2484118446581
  0
LINE
  8
ECPE.7
  6
CONTINUOUS
 62
8
 10
4.6422384826731
 20
8.2484118446581
 11
4.6422384826731
 21
8.2415667270234
  0
LINE
  8
ECPE.7
  6
CONTINUOUS
 62
8
 10
4.6422384826731
 20
8.2415667270234
 11
4.6388159238557
 21
8.2347216093886
  0
LINE
  8
ECPE.7
  6
CONTINUOUS
 62
8
 10
4.6388159238557
 20
8.2347216093886
 11
4.6353933650384
 21
8.2278764917538
  0
LINE
  8
ECPE.7
  6
CONTINUOUS
 62
8
 10
4.6353933650384
 20
8.2278764917538
 11
4.6353933650384
 21
8.221031374119
  0
LINE
  8
ECPE.7
  6
CONTINUOUS
 62
8
 10
4.6353933650384
 20
8.221031374119
 11
4.6285482474036
 21
8.2107636976668
  0
LINE
  8
ECPE.7
  6
CONTINUOUS
 62
8
 10
4.6285482474036
 20
8.2107636976668
 11
4.631970806221
 21
8.2039185800321
  0
LINE
  8
ECPE.7
  6
CONTINUOUS
 62
8
 10
4.631970806221
 20
8.2039185800321
 11
4.6353933650384
 21
8.1970734623973
  0
LINE
  8
ECPE.7
  6
CONTINUOUS
 62
8
 10
4.6353933650384
 20
8.1970734623973
 11
4.6422384826731
 21
8.1868057859451
  0
LINE
  8
ECPE.7
  6
CONTINUOUS
 62
8
 10
4.6422384826731
 20
8.1868057859451
 11
4.6422384826731
 21
8.1731155506756
  0
LINE
  8
ECPE.7
  6
CONTINUOUS
 62
8
 10
4.6422384826731
 20
8.1731155506756
 11
4.6388159238557
 21
8.1628478742234
  0
LINE
  8
ECPE.7
  6
CONTINUOUS
 62
8
 10
4.6388159238557
 20
8.1628478742234
 11
4.6388159238557
 21
8.1423125213191
  0
LINE
  8
ECPE.7
  6
CONTINUOUS
 62
8
 10
4.6388159238557
 20
8.1423125213191
 11
4.6353933650384
 21
8.1251997272321
  0
LINE
  8
ECPE.7
  6
CONTINUOUS
 62
8
 10
4.6353933650384
 20
8.1251997272321
 11
4.6388159238557
 21
8.1115094919625
  0
LINE
  8
ECPE.7
  6
CONTINUOUS
 62
8
 10
4.6388159238557
 20
8.1115094919625
 11
4.6422384826731
 21
8.1012418155104
  0
LINE
  8
ECPE.7
  6
CONTINUOUS
 62
8
 10
4.6422384826731
 20
8.1012418155104
 11
4.6388159238557
 21
8.0909741390582
  0
LINE
  8
ECPE.7
  6
CONTINUOUS
 62
8
 10
4.6388159238557
 20
8.0909741390582
 11
4.6353933650384
 21
8.080706462606
  0
LINE
  8
ECPE.7
  6
CONTINUOUS
 62
8
 10
4.6353933650384
 20
8.080706462606
 11
4.6353933650384
 21
8.0670162273365
  0
LINE
  8
ECPE.7
  6
CONTINUOUS
 62
8
 10
4.408420098572
 20
8.130679594892
 11
4.4026593654558
 21
8.1217771684147
  0
LINE
  8
ECPE.7
  6
CONTINUOUS
 62
8
 10
4.4026593654558
 20
8.1217771684147
 11
4.3992368066385
 21
8.1149320507799
  0
LINE
  8
ECPE.7
  6
CONTINUOUS
 62
8
 10
4.3992368066385
 20
8.1149320507799
 11
4.3992368066385
 21
8.1012418155104
  0
LINE
  8
ECPE.7
  6
CONTINUOUS
 62
8
 10
4.3992368066385
 20
8.1012418155104
 11
4.3992368066385
 21
8.0909741390582
  0
LINE
  8
ECPE.7
  6
CONTINUOUS
 62
8
 10
4.3992368066385
 20
8.0909741390582
 11
4.4026593654558
 21
8.0841290214234
  0
LINE
  8
ECPE.7
  6
CONTINUOUS
 62
8
 10
4.4026593654558
 20
8.0841290214234
 11
4.4060819242732
 21
8.0772839037886
  0
LINE
  8
ECPE.7
  6
CONTINUOUS
 62
8
 10
4.4060819242732
 20
8.0772839037886
 11
4.4060819242732
 21
8.0635936685191
  0
LINE
  8
ECPE.7
  6
CONTINUOUS
 62
8
 10
3.5166516186935
 20
8.2653410894617
 11
3.5162166317519
 21
8.2552569622929
  0
LINE
  8
ECPE.7
  6
CONTINUOUS
 62
8
 10
3.5162166317519
 20
8.2552569622929
 11
3.5127940729345
 21
8.2484118446581
  0
LINE
  8
ECPE.7
  6
CONTINUOUS
 62
8
 10
3.5127940729345
 20
8.2484118446581
 11
3.5162166317519
 21
8.2415667270234
  0
LINE
  8
ECPE.7
  6
CONTINUOUS
 62
8
 10
3.5162166317519
 20
8.2415667270234
 11
3.5162166317519
 21
8.2347216093886
  0
LINE
  8
ECPE.7
  6
CONTINUOUS
 62
8
 10
3.5162166317519
 20
8.2347216093886
 11
3.5196391905693
 21
8.2278764917538
  0
LINE
  8
ECPE.7
  6
CONTINUOUS
 62
8
 10
3.5196391905693
 20
8.2278764917538
 11
3.5230617493867
 21
8.221031374119
  0
LINE
  8
ECPE.7
  6
CONTINUOUS
 62
8
 10
3.5230617493867
 20
8.221031374119
 11
3.5264843082041
 21
8.2107636976668
  0
LINE
  8
ECPE.7
  6
CONTINUOUS
 62
8
 10
3.5264843082041
 20
8.2107636976668
 11
3.5230617493867
 21
8.2039185800321
  0
LINE
  8
ECPE.7
  6
CONTINUOUS
 62
8
 10
3.5230617493867
 20
8.2039185800321
 11
3.5196391905693
 21
8.1970734623973
  0
LINE
  8
ECPE.7
  6
CONTINUOUS
 62
8
 10
3.5196391905693
 20
8.1970734623973
 11
3.5127940729345
 21
8.1868057859451
  0
LINE
  8
ECPE.7
  6
CONTINUOUS
 62
8
 10
3.5127940729345
 20
8.1868057859451
 11
3.5162166317519
 21
8.1731155506756
  0
LINE
  8
ECPE.7
  6
CONTINUOUS
 62
8
 10
3.5162166317519
 20
8.1731155506756
 11
3.5162166317519
 21
8.1628478742234
  0
LINE
  8
ECPE.7
  6
CONTINUOUS
 62
8
 10
3.5162166317519
 20
8.1628478742234
 11
3.5162166317519
 21
8.1423125213191
  0
LINE
  8
ECPE.7
  6
CONTINUOUS
 62
8
 10
3.5162166317519
 20
8.1423125213191
 11
3.5162166317519
 21
8.1251997272321
  0
LINE
  8
ECPE.7
  6
CONTINUOUS
 62
8
 10
3.5162166317519
 20
8.1251997272321
 11
3.5162166317519
 21
8.1115094919625
  0
LINE
  8
ECPE.7
  6
CONTINUOUS
 62
8
 10
3.5162166317519
 20
8.1115094919625
 11
3.5127940729345
 21
8.1012418155104
  0
LINE
  8
ECPE.7
  6
CONTINUOUS
 62
8
 10
3.5127940729345
 20
8.1012418155104
 11
3.5162166317519
 21
8.0909741390582
  0
LINE
  8
ECPE.7
  6
CONTINUOUS
 62
8
 10
3.5162166317519
 20
8.0909741390582
 11
3.5196391905693
 21
8.080706462606
  0
LINE
  8
ECPE.7
  6
CONTINUOUS
 62
8
 10
3.5196391905693
 20
8.080706462606
 11
3.5196391905693
 21
8.0670162273365
  0
LINE
  8
ECPE.7
  6
CONTINUOUS
 62
8
 10
3.9625303326765
 20
8.0213047475367
 11
3.9611492780126
 21
7.9951424921713
  0
LINE
  8
ECPE.7
  6
CONTINUOUS
 62
8
 10
3.9742304056953
 20
8.0213047475367
 11
3.9577267191952
 21
7.9882973745365
  0
LINE
  8
ECPE.7
  6
CONTINUOUS
 62
8
 10
3.9577267191952
 20
7.9882973745365
 11
3.96457183683
 21
7.974607139267
  0
LINE
  8
ECPE.7
  6
CONTINUOUS
 62
8
 10
3.96457183683
 20
7.974607139267
 11
3.9679943956473
 21
7.9643394628148
  0
LINE
  8
ECPE.7
  6
CONTINUOUS
 62
8
 10
3.9679943956473
 20
7.9643394628148
 11
3.9679943956473
 21
7.9506492275452
  0
LINE
  8
ECPE.7
  6
CONTINUOUS
 62
8
 10
3.9679943956473
 20
7.9506492275452
 11
3.96457183683
 21
7.9403815510931
  0
LINE
  8
ECPE.7
  6
CONTINUOUS
 62
8
 10
3.96457183683
 20
7.9403815510931
 11
3.9611492780126
 21
7.9266913158235
  0
LINE
  8
ECPE.7
  6
CONTINUOUS
 62
8
 10
3.9611492780126
 20
7.9266913158235
 11
3.9577267191952
 21
7.9164236393713
  0
LINE
  8
ECPE.7
  6
CONTINUOUS
 62
8
 10
3.9577267191952
 20
7.9164236393713
 11
3.96457183683
 21
7.9027334041018
  0
LINE
  8
ECPE.7
  6
CONTINUOUS
 62
8
 10
3.96457183683
 20
7.9027334041018
 11
3.9679943956473
 21
7.8924657276496
  0
LINE
  8
ECPE.7
  6
CONTINUOUS
 62
8
 10
3.9679943956473
 20
7.8924657276496
 11
3.9679943956473
 21
7.87877549238
  0
LINE
  8
ECPE.7
  6
CONTINUOUS
 62
8
 10
3.9679943956473
 20
7.87877549238
 11
3.96457183683
 21
7.8685078159279
  0
LINE
  8
ECPE.7
  6
CONTINUOUS
 62
8
 10
3.96457183683
 20
7.8685078159279
 11
3.96457183683
 21
7.8616626982931
  0
LINE
  8
ECPE.7
  6
CONTINUOUS
 62
8
 10
3.96457183683
 20
7.8616626982931
 11
3.9611492780126
 21
7.8582401394757
  0
LINE
  8
ECPE.7
  6
CONTINUOUS
 62
8
 10
3.9611492780126
 20
7.8582401394757
 11
3.9611492780126
 21
7.8445499042061
  0
LINE
  8
ECPE.7
  6
CONTINUOUS
 62
8
 10
3.9611492780126
 20
7.8445499042061
 11
3.9611492780126
 21
7.834282227754
  0
LINE
  8
ECPE.7
  6
CONTINUOUS
 62
8
 10
3.9611492780126
 20
7.834282227754
 11
3.9665089339403
 21
7.8235629158984
  0
LINE
  8
ECPE.7
  6
CONTINUOUS
 62
8
 10
3.96457183683
 20
7.8274371101192
 11
3.9679943956473
 21
7.8205919924844
  0
LINE
  8
ECPE.7
  6
CONTINUOUS
 62
8
 10
3.9679943956473
 20
7.8205919924844
 11
3.9679943956473
 21
7.8069017572149
  0
LINE
  8
ECPE.7
  6
CONTINUOUS
 62
8
 10
4.404483090698
 20
8.130679594892
 11
4.3992368066385
 21
8.1217771684147
  0
LINE
  8
ECPE.7
  6
CONTINUOUS
 62
8
 10
4.3992368066385
 20
8.1217771684147
 11
4.3923916890037
 21
8.1149320507799
  0
LINE
  8
ECPE.7
  6
CONTINUOUS
 62
8
 10
4.3923916890037
 20
8.1149320507799
 11
4.3958142478211
 21
8.1012418155104
  0
LINE
  8
ECPE.7
  6
CONTINUOUS
 62
8
 10
4.3958142478211
 20
8.1012418155104
 11
4.3958142478211
 21
8.0909741390582
  0
LINE
  8
ECPE.7
  6
CONTINUOUS
 62
8
 10
4.3958142478211
 20
8.0909741390582
 11
4.3992368066385
 21
8.0841290214234
  0
LINE
  8
ECPE.7
  6
CONTINUOUS
 62
8
 10
4.3992368066385
 20
8.0841290214234
 11
4.4026593654558
 21
8.0772839037886
  0
LINE
  8
ECPE.7
  6
CONTINUOUS
 62
8
 10
4.4026593654558
 20
8.0772839037886
 11
4.4026593654558
 21
8.0635936685191
  0
LINE
  8
ECPE.7
  6
CONTINUOUS
 62
8
 10
3.7576513998329
 20
8.130679594892
 11
3.762640866604
 21
8.1217771684147
  0
LINE
  8
ECPE.7
  6
CONTINUOUS
 62
8
 10
3.762640866604
 20
8.1217771684147
 11
3.7660634254213
 21
8.1149320507799
  0
LINE
  8
ECPE.7
  6
CONTINUOUS
 62
8
 10
3.7660634254213
 20
8.1149320507799
 11
3.7660634254213
 21
8.1012418155104
  0
LINE
  8
ECPE.7
  6
CONTINUOUS
 62
8
 10
3.7660634254213
 20
8.1012418155104
 11
3.762640866604
 21
8.0909741390582
  0
LINE
  8
ECPE.7
  6
CONTINUOUS
 62
8
 10
3.762640866604
 20
8.0909741390582
 11
3.7592183077866
 21
8.0841290214234
  0
LINE
  8
ECPE.7
  6
CONTINUOUS
 62
8
 10
3.7592183077866
 20
8.0841290214234
 11
3.7557957489692
 21
8.0772839037886
  0
LINE
  8
ECPE.7
  6
CONTINUOUS
 62
8
 10
3.7557957489692
 20
8.0772839037886
 11
3.7592183077866
 21
8.0635936685191
  0
LINE
  8
ECPE.7
  6
CONTINUOUS
 62
8
 10
4.2047346485881
 20
8.0213047475367
 11
4.2075735128646
 21
8.0019876098061
  0
LINE
  8
ECPE.7
  6
CONTINUOUS
 62
8
 10
4.1979149439993
 20
8.0213047475367
 11
4.210996071682
 21
7.9951424921713
  0
LINE
  8
ECPE.7
  6
CONTINUOUS
 62
8
 10
4.210996071682
 20
7.9951424921713
 11
4.210996071682
 21
7.9814522569017
  0
LINE
  8
ECPE.7
  6
CONTINUOUS
 62
8
 10
4.210996071682
 20
7.9814522569017
 11
4.2075735128646
 21
7.9711845804496
  0
LINE
  8
ECPE.7
  6
CONTINUOUS
 62
8
 10
4.2075735128646
 20
7.9711845804496
 11
4.2041509540472
 21
7.9643394628148
  0
LINE
  8
ECPE.7
  6
CONTINUOUS
 62
8
 10
4.2041509540472
 20
7.9643394628148
 11
4.2007283952298
 21
7.9609169039974
  0
LINE
  8
ECPE.7
  6
CONTINUOUS
 62
8
 10
4.2007283952298
 20
7.9609169039974
 11
4.2041509540472
 21
7.9472266687278
  0
LINE
  8
ECPE.7
  6
CONTINUOUS
 62
8
 10
4.2041509540472
 20
7.9472266687278
 11
4.2041509540472
 21
7.9369589922757
  0
LINE
  8
ECPE.7
  6
CONTINUOUS
 62
8
 10
4.2041509540472
 20
7.9369589922757
 11
4.210996071682
 21
7.9266913158235
  0
LINE
  8
ECPE.7
  6
CONTINUOUS
 62
8
 10
4.210996071682
 20
7.9266913158235
 11
4.210996071682
 21
7.9130010805539
  0
LINE
  8
ECPE.7
  6
CONTINUOUS
 62
8
 10
4.210996071682
 20
7.9130010805539
 11
4.2075735128646
 21
7.9027334041018
  0
LINE
  8
ECPE.7
  6
CONTINUOUS
 62
8
 10
4.2075735128646
 20
7.9027334041018
 11
4.2041509540472
 21
7.895888286467
  0
LINE
  8
ECPE.7
  6
CONTINUOUS
 62
8
 10
4.2041509540472
 20
7.895888286467
 11
4.2007283952298
 21
7.8890431688322
  0
LINE
  8
ECPE.7
  6
CONTINUOUS
 62
8
 10
4.2007283952298
 20
7.8890431688322
 11
4.2041509540472
 21
7.8753529335626
  0
LINE
  8
ECPE.7
  6
CONTINUOUS
 62
8
 10
4.2041509540472
 20
7.8753529335626
 11
4.2041509540472
 21
7.8650852571105
  0
LINE
  8
ECPE.7
  6
CONTINUOUS
 62
8
 10
4.2041509540472
 20
7.8650852571105
 11
4.210996071682
 21
7.8548175806583
  0
LINE
  8
ECPE.7
  6
CONTINUOUS
 62
8
 10
4.210996071682
 20
7.8548175806583
 11
4.210996071682
 21
7.8411273453888
  0
LINE
  8
ECPE.7
  6
CONTINUOUS
 62
8
 10
4.210996071682
 20
7.8411273453888
 11
4.2075735128646
 21
7.8308596689366
  0
LINE
  8
ECPE.7
  6
CONTINUOUS
 62
8
 10
4.2075735128646
 20
7.8308596689366
 11
4.2041509540472
 21
7.8240145513018
  0
LINE
  8
ECPE.7
  6
CONTINUOUS
 62
8
 10
4.2041509540472
 20
7.8240145513018
 11
4.2007283952298
 21
7.817169433667
  0
LINE
  8
ECPE.7
  6
CONTINUOUS
 62
8
 10
4.2007283952298
 20
7.817169433667
 11
4.2041509540472
 21
7.8034791983975
  0
LINE
  8
ECPE.7
  6
CONTINUOUS
 62
8
 10
4.6454828718374
 20
8.2653410894617
 11
4.6456610414905
 21
8.2552569622929
  0
LINE
  8
ECPE.7
  6
CONTINUOUS
 62
8
 10
4.6456610414905
 20
8.2552569622929
 11
4.6456610414905
 21
8.2484118446581
  0
LINE
  8
ECPE.7
  6
CONTINUOUS
 62
8
 10
4.6456610414905
 20
8.2484118446581
 11
4.6456610414905
 21
8.2415667270234
  0
LINE
  8
ECPE.7
  6
CONTINUOUS
 62
8
 10
4.6456610414905
 20
8.2415667270234
 11
4.6456610414905
 21
8.2347216093886
  0
LINE
  8
ECPE.7
  6
CONTINUOUS
 62
8
 10
4.6456610414905
 20
8.2347216093886
 11
4.6388159238557
 21
8.221031374119
  0
LINE
  8
ECPE.7
  6
CONTINUOUS
 62
8
 10
4.6388159238557
 20
8.221031374119
 11
4.631970806221
 21
8.2107636976668
  0
LINE
  8
ECPE.7
  6
CONTINUOUS
 62
8
 10
4.631970806221
 20
8.2107636976668
 11
4.6353933650384
 21
8.2039185800321
  0
LINE
  8
ECPE.7
  6
CONTINUOUS
 62
8
 10
4.6353933650384
 20
8.2039185800321
 11
4.6388159238557
 21
8.1970734623973
  0
LINE
  8
ECPE.7
  6
CONTINUOUS
 62
8
 10
4.6388159238557
 20
8.1970734623973
 11
4.6456610414905
 21
8.1868057859451
  0
LINE
  8
ECPE.7
  6
CONTINUOUS
 62
8
 10
4.6456610414905
 20
8.1868057859451
 11
4.6456610414905
 21
8.1731155506756
  0
LINE
  8
ECPE.7
  6
CONTINUOUS
 62
8
 10
4.6456610414905
 20
8.1731155506756
 11
4.6456610414905
 21
8.1628478742234
  0
LINE
  8
ECPE.7
  6
CONTINUOUS
 62
8
 10
4.6456610414905
 20
8.1628478742234
 11
4.6422384826731
 21
8.1423125213191
  0
LINE
  8
ECPE.7
  6
CONTINUOUS
 62
8
 10
4.6422384826731
 20
8.1423125213191
 11
4.6422384826731
 21
8.1251997272321
  0
LINE
  8
ECPE.7
  6
CONTINUOUS
 62
8
 10
4.6422384826731
 20
8.1251997272321
 11
4.6456610414905
 21
8.1115094919625
  0
LINE
  8
ECPE.7
  6
CONTINUOUS
 62
8
 10
4.6456610414905
 20
8.1115094919625
 11
4.6456610414905
 21
8.1012418155104
  0
LINE
  8
ECPE.7
  6
CONTINUOUS
 62
8
 10
4.6456610414905
 20
8.1012418155104
 11
4.6422384826731
 21
8.0909741390582
  0
LINE
  8
ECPE.7
  6
CONTINUOUS
 62
8
 10
4.6422384826731
 20
8.0909741390582
 11
4.6388159238557
 21
8.080706462606
  0
LINE
  8
ECPE.7
  6
CONTINUOUS
 62
8
 10
4.6388159238557
 20
8.080706462606
 11
4.6422384826731
 21
8.0670162273365
  0
LINE
  8
ECPE.7
  6
CONTINUOUS
 62
8
 10
4.2150984631167
 20
7.8534345196929
 11
4.5325619334038
 21
8.036722139721
  0
LINE
  8
ECPE.7
  6
CONTINUOUS
 62
8
 10
4.2041509540472
 20
7.9607656001779
 11
4.4034002111494
 21
8.0758022124016
  0
LINE
  8
ECPE.7
  6
CONTINUOUS
 62
8
 10
4.6456610414905
 20
8.10201994022
 11
4.8719479917413
 21
8.2326667718613
  0
LINE
  8
ECPE.7
  6
CONTINUOUS
 62
8
 10
4.6331333143626
 20
8.2084386813836
 11
4.6750975980405
 21
8.2326667718613
  0
LINE
  8
ECPE.7
  6
CONTINUOUS
 62
8
 10
4.6036513170971
 20
8.9043517484171
 11
4.766852194419
 21
8.8101276779633
  0
LINE
  8
ECPE.7
  6
CONTINUOUS
 62
8
 10
3.4025588604798
 20
8.8059265515667
 11
3.5730363021697
 21
8.9043517484171
  0
LINE
  8
ECPE.7
  6
CONTINUOUS
 62
8
 10
4.218862520856
 20
8.4937456924186
 11
4.218862520856
 21
8.0213047475367
  0
LINE
  8
ECPE.7
  6
CONTINUOUS
 62
8
 10
3.9432719696749
 20
8.4937456924186
 11
3.9432719696749
 21
8.0213047475367
  0
LINE
  8
ECPE.7
  6
CONTINUOUS
 62
8
 10
3.9432719696749
 20
8.4937456924186
 11
4.218862520856
 21
8.4937456924186
  0
LINE
  8
ECPE.7
  6
CONTINUOUS
 62
8
 10
3.9432719696749
 20
8.0213047475367
 11
4.218862520856
 21
8.0213047475367
  0
LINE
  8
ECPE.7
  6
HIDDEN
 62
8
 10
3.9081654146402
 20
8.6752750816165
 11
4.2624961233016
 21
8.6752750816165
  0
LINE
  8
ECPE.7
  6
HIDDEN
 62
8
 10
3.9475354933804
 20
8.793385317837
 11
4.2231260445615
 21
8.793385317837
  0
LINE
  8
ECPE.7
  6
HIDDEN
 62
8
 10
3.9081654146402
 20
8.6752750816165
 11
3.9475354933804
 21
8.793385317837
  0
LINE
  8
ECPE.7
  6
HIDDEN
 62
8
 10
4.2231260445615
 20
8.793385317837
 11
4.2624961233016
 21
8.6752750816165
  0
LINE
  8
ECPE.7
  6
HIDDEN
 62
8
 10
4.2624961233016
 20
8.6752750816165
 11
4.2624961233016
 21
9.2963507604709
  0
LINE
  8
ECPE.7
  6
HIDDEN
 62
8
 10
3.9081654146402
 20
8.6752750816165
 11
3.9081654146402
 21
9.2963507604709
  0
LINE
  8
ECPE.7
  6
HIDDEN
 62
8
 10
3.9475354933804
 20
8.793385317837
 11
3.9475354933804
 21
9.2963507604709
  0
LINE
  8
ECPE.7
  6
HIDDEN
 62
8
 10
4.2231260445615
 20
8.793385317837
 11
4.2231260445615
 21
9.2963507604709
  0
ENDSEC
  0
EOF
