  0
SECTION
  2
HEADER
  9
$EXTMIN
 10
3.332634911393
 20
8.6746434490447
  9
$EXTMAX
 10
4.9074380609993
 20
10.249446598651
  9
$LIMMIN
 10
0
 20
0
  9
$LIMMAX
 10
8.27
 20
11.69
  0
ENDSEC
  0
SECTION
  2
TABLES
  0
TABLE
  2
LTYPE
 70
9
  0
LTYPE
  2
CONTINUOUS
  3
___________________________
 70
64
 72
65
 73
0
 40
0
  0
LTYPE
  2
HIDDEN
  3
_ _ _ _ _ _ _ _ _ _ _ _ _ _ 
 70
64
 72
65
 73
2
 49
0.25
 49
-0.125
 40
0.375
  0
LTYPE
  2
DASHED
  3
__ __ __ __ __ __ __ __ __ 
 70
64
 72
65
 73
2
 49
0.5
 49
-0.25
 40
0.75
  0
LTYPE
  2
CENTER
  3
____ _ ____ _ ____ _ ____ _ 
 70
64
 72
65
 73
4
 49
1.25
 49
-0.25
 49
0.25
 49
-0.25
 40
2
  0
LTYPE
  2
PHANTOM
  3
_____ _ _ _____ _ _ _____ _ _ 
 70
64
 72
65
 73
6
 49
1.25
 49
-0.25
 49
0.25
 49
-0.25
 49
0.25
 49
-0.25
 40
2.5
  0
LTYPE
  2
DOT
  3
...........................
 70
64
 72
65
 73
2
 49
0
 49
-0.25
 40
0.25
  0
LTYPE
  2
DASHDOT
  3
__ . __ . __ . __ . __ . __ . 
 70
64
 72
65
 73
4
 49
0.5
 49
-0.25
 49
0
 49
-0.25
 40
1
  0
LTYPE
  2
DIVIDE
  3
__ . . __ . . __ . . __ . . 
 70
64
 72
65
 73
6
 49
0.5
 49
-0.25
 49
0
 49
-0.25
 49
0
 49
-0.25
 40
1.25
  0
LTYPE
  2
BORDER
  3
__ __ . __ __ . __ __ . __ __ . 
 70
64
 72
65
 73
6
 49
0.5
 49
-0.25
 49
0.5
 49
-0.25
 49
0
 49
-0.25
 40
1.75
  0
ENDTAB
  0
TABLE
  2
LAYER
 70
1
  0
LAYER
  2
ECPE.10$
 62
7
  6
CONTINUOUS
 70
0
  0
ENDTAB
  0
TABLE
  2
STYLE
 70
5
  0
STYLE
  2
ptmarker
 70
1
 40
0
 50
0
 71
0
 41
0
 42
0
  3
ptmarks
  0
STYLE
  2
TXT
 70
0
 40
0
 50
0
 71
0
 41
0
 42
0
  3
TXT
  0
STYLE
  2
ITALIC
 70
0
 40
0
 50
0
 71
0
 41
0
 42
0
  3
ITALIC
  0
STYLE
  2
SIMPLEX
 70
0
 40
0
 50
0
 71
0
 41
0
 42
0
  3
SIMPLEX
  0
STYLE
  2
COMPLEX
 70
0
 40
0
 50
0
 71
0
 41
0
 42
0
  3
COMPLEX
  0
ENDTAB
  0
ENDSEC
  0
SECTION
  2
BLOCKS
  0
ENDSEC
  0
SECTION
  2
ENTITIES
  0
LINE
  8
ECPE.10$
  6
CONTINUOUS
 62
8
 10
4.9074380609993
 20
10.249446598651
 11
3.332634911393
 21
10.249446598651
  0
LINE
  8
ECPE.10$
  6
CONTINUOUS
 62
8
 10
4.9074380609993
 20
8.6746434490447
 11
4.9074380609993
 21
10.249446598651
  0
LINE
  8
ECPE.10$
  6
CONTINUOUS
 62
8
 10
3.332634911393
 20
8.6746434490447
 11
4.9074380609993
 21
8.6746434490447
  0
LINE
  8
ECPE.10$
  6
CONTINUOUS
 62
8
 10
3.332634911393
 20
10.249446598651
 11
3.332634911393
 21
8.6746434490447
  0
LINE
  8
ECPE.10$
  6
CONTINUOUS
 62
8
 10
3.3883779004566
 20
9.8158482036434
 11
4.1653114820926
 21
9.3672853911434
  0
LINE
  8
ECPE.10$
  6
CONTINUOUS
 62
8
 10
4.1653114820926
 20
9.3672853911434
 11
4.1653114820926
 21
8.8948444462615
  0
LINE
  8
ECPE.10$
  6
CONTINUOUS
 62
8
 10
3.3883779004566
 20
9.3434072587615
 11
4.1653114820926
 21
8.8948444462615
  0
LINE
  8
ECPE.10$
  6
CONTINUOUS
 62
8
 10
3.3883779004566
 20
9.8158482036434
 11
3.3883779004566
 21
9.3434072587615
  0
LINE
  8
ECPE.10$
  6
CONTINUOUS
 62
8
 10
4.8510964312461
 20
9.7632235161434
 11
4.8510964312461
 21
9.2907825712615
  0
LINE
  8
ECPE.10$
  6
CONTINUOUS
 62
8
 10
3.3883779004566
 20
9.8158482036434
 11
4.0741628496101
 21
10.211786328643
  0
LINE
  8
ECPE.10$
  6
CONTINUOUS
 62
8
 10
4.0741628496101
 20
10.211786328643
 11
4.8510964312461
 21
9.7632235161434
  0
POLYLINE
  8
ECPE.10$
  6
CONTINUOUS
 62
8
 70
0
 66
1
  0
VERTEX
  8
ECPE.10$
  6
CONTINUOUS
 62
8
 10
3.6155331988033
 20
9.164267089186
  0
VERTEX
  8
ECPE.10$
  6
CONTINUOUS
 62
8
 10
3.6031021211965
 20
9.1414103281445
  0
VERTEX
  8
ECPE.10$
  6
CONTINUOUS
 62
8
 10
3.6045698336254
 20
9.1174682307244
  0
VERTEX
  8
ECPE.10$
  6
CONTINUOUS
 62
8
 10
3.6076328967204
 20
9.0813921701832
  0
VERTEX
  8
ECPE.10$
  6
CONTINUOUS
 62
8
 10
3.6020712143943
 20
9.0576512494197
  0
VERTEX
  8
ECPE.10$
  6
CONTINUOUS
 62
8
 10
3.6105260981638
 20
9.0341967458945
  0
VERTEX
  8
ECPE.10$
  6
CONTINUOUS
 62
8
 10
3.6076328967204
 20
9.0096402016793
  0
VERTEX
  8
ECPE.10$
  6
CONTINUOUS
 62
8
 10
3.6020712143943
 20
8.9858992809158
  0
VERTEX
  8
ECPE.10$
  6
CONTINUOUS
 62
8
 10
3.6105260981638
 20
8.9624447773906
  0
VERTEX
  8
ECPE.10$
  6
CONTINUOUS
 62
8
 10
3.6076328967204
 20
8.9378882331753
  0
VERTEX
  8
ECPE.10$
  6
CONTINUOUS
 62
8
 10
3.6045698336254
 20
8.9022123252125
  0
VERTEX
  8
ECPE.10$
  6
CONTINUOUS
 62
8
 10
3.6076328967204
 20
8.8661362646714
  0
VERTEX
  8
ECPE.10$
  6
CONTINUOUS
 62
8
 10
3.6076328967204
 20
8.7943842961675
  0
VERTEX
  8
ECPE.10$
  6
CONTINUOUS
 62
8
 10
3.6105260981638
 20
8.7471888718787
  0
VERTEX
  8
ECPE.10$
  6
CONTINUOUS
 62
8
 10
3.6076328967204
 20
8.7226323276635
  0
VERTEX
  8
ECPE.10$
  6
CONTINUOUS
 62
8
 10
3.6020712143943
 20
8.6988914069
  0
VERTEX
  8
ECPE.10$
  6
CONTINUOUS
 62
8
 10
3.6102537943843
 20
8.6746434490447
  0
SEQEND
  0
POLYLINE
  8
ECPE.10$
  6
CONTINUOUS
 62
8
 70
0
 66
1
  0
VERTEX
  8
ECPE.10$
  6
CONTINUOUS
 62
8
 10
3.8445836749285
 20
9.044735757225
  0
VERTEX
  8
ECPE.10$
  6
CONTINUOUS
 62
8
 10
3.8423953344708
 20
9.0086811497275
  0
VERTEX
  8
ECPE.10$
  6
CONTINUOUS
 62
8
 10
3.8445836749285
 20
8.9729837887211
  0
VERTEX
  8
ECPE.10$
  6
CONTINUOUS
 62
8
 10
3.8423953344708
 20
8.9369291812236
  0
VERTEX
  8
ECPE.10$
  6
CONTINUOUS
 62
8
 10
3.8445836749285
 20
8.9012318202172
  0
VERTEX
  8
ECPE.10$
  6
CONTINUOUS
 62
8
 10
3.8423953344708
 20
8.8651772127197
  0
VERTEX
  8
ECPE.10$
  6
CONTINUOUS
 62
8
 10
3.8445836749285
 20
8.8294798517132
  0
VERTEX
  8
ECPE.10$
  6
CONTINUOUS
 62
8
 10
3.8473745703242
 20
8.7696412616735
  0
VERTEX
  8
ECPE.10$
  6
CONTINUOUS
 62
8
 10
3.8383456636179
 20
8.746258182962
  0
VERTEX
  8
ECPE.10$
  6
CONTINUOUS
 62
8
 10
3.8423953344708
 20
8.7216732757118
  0
VERTEX
  8
ECPE.10$
  6
CONTINUOUS
 62
8
 10
3.8473745703242
 20
8.6978892931695
  0
VERTEX
  8
ECPE.10$
  6
CONTINUOUS
 62
8
 10
3.8392720732755
 20
8.6746434490447
  0
SEQEND
  0
LINE
  8
ECPE.10$
  6
CONTINUOUS
 62
8
 10
3.6105260981638
 20
8.8189408403827
 11
3.6197686571233
 21
8.8081681904412
  0
LINE
  8
ECPE.10$
  6
CONTINUOUS
 62
8
 10
3.6197686571233
 20
8.8081681904412
 11
3.6320316189105
 21
8.7984523164094
  0
LINE
  8
ECPE.10$
  6
CONTINUOUS
 62
8
 10
3.6320316189105
 20
8.7984523164094
 11
3.6469622004419
 21
8.7900727262934
  0
LINE
  8
ECPE.10$
  6
CONTINUOUS
 62
8
 10
3.6641308760708
 20
8.7832704856442
 11
3.6830437342585
 21
8.7782412825405
  0
LINE
  8
ECPE.10$
  6
CONTINUOUS
 62
8
 10
3.7031566865093
 20
8.7751297979989
 11
3.7238911198066
 21
8.7740255437646
  0
LINE
  8
ECPE.10$
  6
CONTINUOUS
 62
8
 10
3.7238911198066
 20
8.7740255437646
 11
3.7446505422555
 21
8.7749602872215
  0
LINE
  8
ECPE.10$
  6
CONTINUOUS
 62
8
 10
3.8163401227834
 20
8.7976993789631
 11
3.8288399926203
 21
8.8073140918287
  0
LINE
  8
ECPE.10$
  6
CONTINUOUS
 62
8
 10
3.8288399926203
 20
8.8073140918287
 11
3.8383456636179
 21
8.8180101514659
  0
LINE
  8
ECPE.10$
  6
CONTINUOUS
 62
8
 10
3.6020712143943
 20
8.7706433754039
 11
3.6045698336254
 21
8.7587083882047
  0
LINE
  8
ECPE.10$
  6
CONTINUOUS
 62
8
 10
3.6045698336254
 20
8.7587083882047
 11
3.6105260981638
 21
8.7471888718787
  0
LINE
  8
ECPE.10$
  6
CONTINUOUS
 62
8
 10
3.6105260981638
 20
8.7471888718787
 11
3.6197686571233
 21
8.7364162219373
  0
LINE
  8
ECPE.10$
  6
CONTINUOUS
 62
8
 10
3.6197686571233
 20
8.7364162219373
 11
3.6320316189105
 21
8.7267003479055
  0
LINE
  8
ECPE.10$
  6
CONTINUOUS
 62
8
 10
3.6641308760708
 20
8.7115185171403
 11
3.6830437342585
 21
8.7064893140366
  0
LINE
  8
ECPE.10$
  6
CONTINUOUS
 62
8
 10
3.8012056526039
 20
8.7176906421489
 11
3.8163401227834
 21
8.7259474104592
  0
LINE
  8
ECPE.10$
  6
CONTINUOUS
 62
8
 10
3.8163401227834
 20
8.7259474104592
 11
3.8288399926203
 21
8.7355621233248
  0
LINE
  8
ECPE.10$
  6
CONTINUOUS
 62
8
 10
3.8288399926203
 20
8.7355621233248
 11
3.8383456636179
 21
8.746258182962
  0
LINE
  8
ECPE.10$
  6
CONTINUOUS
 62
8
 10
3.8383456636179
 20
8.746258182962
 11
3.8445836749285
 21
8.7577278832093
  0
LINE
  8
ECPE.10$
  6
CONTINUOUS
 62
8
 10
3.6105260981638
 20
8.8906928088866
 11
3.6197686571233
 21
8.8799201589452
  0
LINE
  8
ECPE.10$
  6
CONTINUOUS
 62
8
 10
3.6197686571233
 20
8.8799201589452
 11
3.6320316189105
 21
8.8702042849133
  0
LINE
  8
ECPE.10$
  6
CONTINUOUS
 62
8
 10
3.6320316189105
 20
8.8702042849133
 11
3.6469622004419
 21
8.8618246947973
  0
LINE
  8
ECPE.10$
  6
CONTINUOUS
 62
8
 10
3.6641308760708
 20
8.8550224541482
 11
3.6830437342585
 21
8.8499932510444
  0
LINE
  8
ECPE.10$
  6
CONTINUOUS
 62
8
 10
3.6830437342585
 20
8.8499932510444
 11
3.7031566865093
 21
8.8468817665028
  0
LINE
  8
ECPE.10$
  6
CONTINUOUS
 62
8
 10
3.7648377430687
 20
8.849659106006
 11
3.7838719732336
 21
8.8545332875931
  0
LINE
  8
ECPE.10$
  6
CONTINUOUS
 62
8
 10
3.8012056526039
 20
8.8611945791568
 11
3.8163401227834
 21
8.8694513474671
  0
LINE
  8
ECPE.10$
  6
CONTINUOUS
 62
8
 10
3.8163401227834
 20
8.8694513474671
 11
3.8288399926203
 21
8.8790660603326
  0
LINE
  8
ECPE.10$
  6
CONTINUOUS
 62
8
 10
3.6105260981638
 20
8.9624447773906
 11
3.6197686571233
 21
8.9516721274491
  0
LINE
  8
ECPE.10$
  6
CONTINUOUS
 62
8
 10
3.6197686571233
 20
8.9516721274491
 11
3.6320316189105
 21
8.9419562534173
  0
LINE
  8
ECPE.10$
  6
CONTINUOUS
 62
8
 10
3.6469622004419
 20
8.9335766633013
 11
3.6641308760708
 21
8.9267744226521
  0
LINE
  8
ECPE.10$
  6
CONTINUOUS
 62
8
 10
3.7446505422555
 20
8.9184642242293
 11
3.7648377430687
 21
8.9214110745099
  0
LINE
  8
ECPE.10$
  6
CONTINUOUS
 62
8
 10
3.8012056526039
 20
8.9329465476607
 11
3.8163401227834
 21
8.941203315971
  0
LINE
  8
ECPE.10$
  6
CONTINUOUS
 62
8
 10
3.8163401227834
 20
8.941203315971
 11
3.8288399926203
 21
8.9508180288366
  0
LINE
  8
ECPE.10$
  6
CONTINUOUS
 62
8
 10
3.8288399926203
 20
8.9508180288366
 11
3.8383456636179
 21
8.9615140884738
  0
LINE
  8
ECPE.10$
  6
CONTINUOUS
 62
8
 10
3.6105260981638
 20
9.0341967458945
 11
3.6197686571233
 21
9.0234240959531
  0
LINE
  8
ECPE.10$
  6
CONTINUOUS
 62
8
 10
3.6197686571233
 20
9.0234240959531
 11
3.6320316189105
 21
9.0137082219212
  0
LINE
  8
ECPE.10$
  6
CONTINUOUS
 62
8
 10
3.6320316189105
 20
9.0137082219212
 11
3.6469622004419
 21
9.0053286318052
  0
LINE
  8
ECPE.10$
  6
CONTINUOUS
 62
8
 10
3.7648377430687
 20
8.9931630430139
 11
3.7838719732336
 21
8.998037224601
  0
LINE
  8
ECPE.10$
  6
CONTINUOUS
 62
8
 10
3.8012056526039
 20
9.0046985161647
 11
3.8163401227834
 21
9.0129552844749
  0
LINE
  8
ECPE.10$
  6
CONTINUOUS
 62
8
 10
3.8163401227834
 20
9.0129552844749
 11
3.8288399926203
 21
9.0225699973405
  0
LINE
  8
ECPE.10$
  6
CONTINUOUS
 62
8
 10
3.8288399926203
 20
9.0225699973405
 11
3.8383456636179
 21
9.0332660569777
  0
LINE
  8
ECPE.10$
  6
CONTINUOUS
 62
8
 10
3.6045698336254
 20
9.1174682307244
 11
3.6105260981638
 21
9.1059487143984
  0
LINE
  8
ECPE.10$
  6
CONTINUOUS
 62
8
 10
3.6105260981638
 20
9.1059487143984
 11
3.6197686571233
 21
9.095176064457
  0
LINE
  8
ECPE.10$
  6
CONTINUOUS
 62
8
 10
3.6197686571233
 20
9.095176064457
 11
3.6320316189105
 21
9.0854601904252
  0
LINE
  8
ECPE.10$
  6
CONTINUOUS
 62
8
 10
3.6320316189105
 20
9.0854601904252
 11
3.6469622004419
 21
9.0770806003092
  0
LINE
  8
ECPE.10$
  6
CONTINUOUS
 62
8
 10
3.6469622004419
 20
9.0770806003092
 11
3.6641308760708
 21
9.07027835966
  0
LINE
  8
ECPE.10$
  6
CONTINUOUS
 62
8
 10
3.6830437342585
 20
9.0652491565563
 11
3.7031566865093
 21
9.0621376720147
  0
LINE
  8
ECPE.10$
  6
CONTINUOUS
 62
8
 10
3.7838719732336
 20
9.0697891931049
 11
3.8012056526039
 21
9.0764504846686
  0
LINE
  8
ECPE.10$
  6
CONTINUOUS
 62
8
 10
3.8012056526039
 20
9.0764504846686
 11
3.8163401227834
 21
9.0847072529789
  0
LINE
  8
ECPE.10$
  6
CONTINUOUS
 62
8
 10
3.8163401227834
 20
9.0847072529789
 11
3.824966633689
 21
9.0913426361046
  0
LINE
  8
ECPE.10$
  6
CONTINUOUS
 62
8
 10
3.6105260981638
 20
9.1777006829024
 11
3.6197686571233
 21
9.1669280329609
  0
LINE
  8
ECPE.10$
  6
CONTINUOUS
 62
8
 10
3.6197686571233
 20
9.1669280329609
 11
3.6320316189105
 21
9.1572121589291
  0
LINE
  8
ECPE.10$
  6
CONTINUOUS
 62
8
 10
3.6641308760708
 20
9.1420303281639
 11
3.6830437342585
 21
9.1370011250602
  0
LINE
  8
ECPE.10$
  6
CONTINUOUS
 62
8
 10
3.7031566865093
 20
9.1338896405186
 11
3.7238911198066
 21
9.1327853862843
  0
POLYLINE
  8
ECPE.10$
  6
CONTINUOUS
 62
8
 70
0
 66
1
  0
VERTEX
  8
ECPE.10$
  6
CONTINUOUS
 62
8
 10
4.0575884384348
 20
8.9195891204024
  0
VERTEX
  8
ECPE.10$
  6
CONTINUOUS
 62
8
 10
4.0546952369914
 20
8.8950325761871
  0
VERTEX
  8
ECPE.10$
  6
CONTINUOUS
 62
8
 10
4.0491335546653
 20
8.8712916554236
  0
VERTEX
  8
ECPE.10$
  6
CONTINUOUS
 62
8
 10
4.0575884384348
 20
8.8478371518984
  0
VERTEX
  8
ECPE.10$
  6
CONTINUOUS
 62
8
 10
4.0546952369914
 20
8.8232806076832
  0
VERTEX
  8
ECPE.10$
  6
CONTINUOUS
 62
8
 10
4.0516321738964
 20
8.7876046997204
  0
VERTEX
  8
ECPE.10$
  6
CONTINUOUS
 62
8
 10
4.0546952369914
 20
8.7515286391793
  0
VERTEX
  8
ECPE.10$
  6
CONTINUOUS
 62
8
 10
4.0546952369914
 20
8.6797766706753
  0
SEQEND
  0
POLYLINE
  8
ECPE.10$
  6
CONTINUOUS
 62
8
 70
0
 66
1
  0
VERTEX
  8
ECPE.10$
  6
CONTINUOUS
 62
8
 10
4.2896171524371
 20
8.9276362068124
  0
VERTEX
  8
ECPE.10$
  6
CONTINUOUS
 62
8
 10
4.2874288119795
 20
8.8915815993149
  0
VERTEX
  8
ECPE.10$
  6
CONTINUOUS
 62
8
 10
4.2896171524371
 20
8.8558842383084
  0
VERTEX
  8
ECPE.10$
  6
CONTINUOUS
 62
8
 10
4.2874288119795
 20
8.8198296308109
  0
VERTEX
  8
ECPE.10$
  6
CONTINUOUS
 62
8
 10
4.2896171524371
 20
8.7841322698045
  0
VERTEX
  8
ECPE.10$
  6
CONTINUOUS
 62
8
 10
4.2874288119795
 20
8.748077662307
  0
VERTEX
  8
ECPE.10$
  6
CONTINUOUS
 62
8
 10
4.2896171524371
 20
8.7123803013005
  0
SEQEND
  0
LINE
  8
ECPE.10$
  6
CONTINUOUS
 62
8
 10
4.0575884384348
 20
8.7043332148906
 11
4.0668309973943
 21
8.6935605649491
  0
LINE
  8
ECPE.10$
  6
CONTINUOUS
 62
8
 10
4.0668309973943
 20
8.6935605649491
 11
4.0790939591815
 21
8.6838446909173
  0
LINE
  8
ECPE.10$
  6
CONTINUOUS
 62
8
 10
4.0790939591815
 20
8.6838446909173
 11
4.0958654301068
 21
8.6746434490447
  0
LINE
  8
ECPE.10$
  6
CONTINUOUS
 62
8
 10
4.2482679928749
 20
8.6748349851607
 11
4.2634024630544
 21
8.683091753471
  0
LINE
  8
ECPE.10$
  6
CONTINUOUS
 62
8
 10
4.2634024630544
 20
8.683091753471
 11
4.2759023328913
 21
8.6927064663366
  0
LINE
  8
ECPE.10$
  6
CONTINUOUS
 62
8
 10
4.2759023328913
 20
8.6927064663366
 11
4.2854080038889
 21
8.7034025259738
  0
LINE
  8
ECPE.10$
  6
CONTINUOUS
 62
8
 10
4.0575884384348
 20
8.7760851833945
 11
4.0668309973943
 21
8.7653125334531
  0
LINE
  8
ECPE.10$
  6
CONTINUOUS
 62
8
 10
4.0668309973943
 20
8.7653125334531
 11
4.0790939591815
 21
8.7555966594212
  0
LINE
  8
ECPE.10$
  6
CONTINUOUS
 62
8
 10
4.0790939591815
 20
8.7555966594212
 11
4.0940245407129
 21
8.7472170693052
  0
LINE
  8
ECPE.10$
  6
CONTINUOUS
 62
8
 10
4.1111932163418
 20
8.740414828656
 11
4.1301060745295
 21
8.7353856255523
  0
LINE
  8
ECPE.10$
  6
CONTINUOUS
 62
8
 10
4.2119000833397
 20
8.7350514805139
 11
4.2309343135046
 21
8.739925662101
  0
LINE
  8
ECPE.10$
  6
CONTINUOUS
 62
8
 10
4.2309343135046
 20
8.739925662101
 11
4.2482679928749
 21
8.7465869536647
  0
LINE
  8
ECPE.10$
  6
CONTINUOUS
 62
8
 10
4.2634024630544
 20
8.7548437219749
 11
4.2759023328913
 21
8.7644584348405
  0
LINE
  8
ECPE.10$
  6
CONTINUOUS
 62
8
 10
4.2759023328913
 20
8.7644584348405
 11
4.2854080038889
 21
8.7751544944777
  0
LINE
  8
ECPE.10$
  6
CONTINUOUS
 62
8
 10
4.0575884384348
 20
8.8478371518984
 11
4.0668309973943
 21
8.837064501957
  0
LINE
  8
ECPE.10$
  6
CONTINUOUS
 62
8
 10
4.0668309973943
 20
8.837064501957
 11
4.0790939591815
 21
8.8273486279252
  0
LINE
  8
ECPE.10$
  6
CONTINUOUS
 62
8
 10
4.1111932163418
 20
8.81216679716
 11
4.1301060745295
 21
8.8071375940563
  0
LINE
  8
ECPE.10$
  6
CONTINUOUS
 62
8
 10
4.1502190267803
 20
8.8040261095147
 11
4.1709534600776
 21
8.8029218552804
  0
LINE
  8
ECPE.10$
  6
CONTINUOUS
 62
8
 10
4.2309343135046
 20
8.8116776306049
 11
4.2482679928749
 21
8.8183389221686
  0
LINE
  8
ECPE.10$
  6
CONTINUOUS
 62
8
 10
4.2759023328913
 20
8.8362104033445
 11
4.2854080038889
 21
8.8469064629816
  0
LINE
  8
ECPE.10$
  6
CONTINUOUS
 62
8
 10
4.0575884384348
 20
8.9195891204024
 11
4.0668309973943
 21
8.9088164704609
  0
LINE
  8
ECPE.10$
  6
CONTINUOUS
 62
8
 10
4.0668309973943
 20
8.9088164704609
 11
4.0790939591815
 21
8.8991005964291
  0
LINE
  8
ECPE.10$
  6
CONTINUOUS
 62
8
 10
4.0790939591815
 20
8.8991005964291
 11
4.0940245407129
 21
8.8907210063131
  0
LINE
  8
ECPE.10$
  6
CONTINUOUS
 62
8
 10
4.1502190267803
 20
8.8757780780186
 11
4.1709534600776
 21
8.8746738237843
  0
LINE
  8
ECPE.10$
  6
CONTINUOUS
 62
8
 10
4.1709534600776
 20
8.8746738237843
 11
4.1917128825265
 21
8.8756085672411
  0
LINE
  8
ECPE.10$
  6
CONTINUOUS
 62
8
 10
4.2119000833397
 20
8.8785554175217
 11
4.2309343135046
 21
8.8834295991088
  0
LINE
  8
ECPE.10$
  6
CONTINUOUS
 62
8
 10
4.2309343135046
 20
8.8834295991088
 11
4.2482679928749
 21
8.8900908906726
  0
LINE
  8
ECPE.10$
  6
CONTINUOUS
 62
8
 10
4.2634024630544
 20
8.8983476589828
 11
4.2759023328913
 21
8.9079623718484
  0
LINE
  8
ECPE.10$
  6
CONTINUOUS
 62
8
 10
4.2759023328913
 20
8.9079623718484
 11
4.2854080038889
 21
8.9186584314856
  0
LINE
  8
ECPE.10$
  6
HIDDEN
 62
8
 10
3.8717209766179
 20
9.7895358598934
 11
3.8717209766179
 21
10.249446598651
  0
LINE
  8
ECPE.10$
  6
HIDDEN
 62
8
 10
4.3677533550848
 20
9.7895358598934
 11
4.3677533550848
 21
10.249446598651
  0
LINE
  8
ECPE.10$
  6
HIDDEN
 62
8
 10
4.1197371658513
 20
9.6463436462761
 11
4.1197371658513
 21
10.249446598651
  0
LINE
  8
ECPE.10$
  6
CONTINUOUS
 62
8
 10
4.1653114820926
 20
8.8948444462615
 11
4.8510964312461
 21
9.2907825712615
  0
LINE
  8
ECPE.10$
  6
CONTINUOUS
 62
8
 10
3.9534185727406
 20
8.8147164866462
 11
3.9626611317
 21
8.8039438367048
  0
LINE
  8
ECPE.10$
  6
CONTINUOUS
 62
8
 10
3.9626611317
 20
8.8039438367048
 11
3.9749240934872
 21
8.794227962673
  0
LINE
  8
ECPE.10$
  6
CONTINUOUS
 62
8
 10
4.0460491610861
 20
8.7709054442625
 11
4.0576014595374
 21
8.7698011900282
  0
LINE
  8
ECPE.10$
  6
CONTINUOUS
 62
8
 10
3.9534185727406
 20
8.7429645181423
 11
3.9626611317
 21
8.7321918682009
  0
LINE
  8
ECPE.10$
  6
CONTINUOUS
 62
8
 10
4.0460491610861
 20
8.6991534757585
 11
4.0577049731934
 21
8.6980492215243
  0
POLYLINE
  8
ECPE.10$
  6
CONTINUOUS
 62
8
 70
0
 66
1
  0
VERTEX
  8
ECPE.10$
  6
CONTINUOUS
 62
8
 10
4.392026029242
 20
8.9975087494197
  0
VERTEX
  8
ECPE.10$
  6
CONTINUOUS
 62
8
 10
4.4004809130115
 20
8.9740542458945
  0
VERTEX
  8
ECPE.10$
  6
CONTINUOUS
 62
8
 10
4.3975877115682
 20
8.9494977016793
  0
VERTEX
  8
ECPE.10$
  6
CONTINUOUS
 62
8
 10
4.392026029242
 20
8.9257567809157
  0
VERTEX
  8
ECPE.10$
  6
CONTINUOUS
 62
8
 10
4.4004809130115
 20
8.9023022773906
  0
VERTEX
  8
ECPE.10$
  6
CONTINUOUS
 62
8
 10
4.3975877115682
 20
8.8777457331753
  0
VERTEX
  8
ECPE.10$
  6
CONTINUOUS
 62
8
 10
4.3945246484731
 20
8.8420698252125
  0
VERTEX
  8
ECPE.10$
  6
CONTINUOUS
 62
8
 10
4.3975877115682
 20
8.8059937646714
  0
VERTEX
  8
ECPE.10$
  6
CONTINUOUS
 62
8
 10
4.3975877115682
 20
8.7342417961675
  0
VERTEX
  8
ECPE.10$
  6
CONTINUOUS
 62
8
 10
4.409723471971
 20
8.6762737219373
  0
SEQEND
  0
LINE
  8
ECPE.10$
  6
CONTINUOUS
 62
8
 10
4.4004809130115
 20
8.9023022773906
 11
4.409723471971
 21
8.8915296274491
  0
LINE
  8
ECPE.10$
  6
CONTINUOUS
 62
8
 10
4.409723471971
 20
8.8915296274491
 11
4.4219864337582
 21
8.8818137534173
  0
LINE
  8
ECPE.10$
  6
CONTINUOUS
 62
8
 10
4.4369170152896
 20
8.8734341633013
 11
4.4540856909186
 21
8.8666319226521
  0
LINE
  8
ECPE.10$
  6
CONTINUOUS
 62
8
 10
4.4931115013571
 20
8.8584912350068
 11
4.5138459346544
 21
8.8573869807725
  0
LINE
  8
ECPE.10$
  6
CONTINUOUS
 62
8
 10
4.5911604674517
 20
8.8728040476607
 11
4.6062949376311
 21
8.881060815971
  0
LINE
  8
ECPE.10$
  6
CONTINUOUS
 62
8
 10
4.6062949376311
 20
8.881060815971
 11
4.6187948074681
 21
8.8906755288366
  0
LINE
  8
ECPE.10$
  6
CONTINUOUS
 62
8
 10
4.6187948074681
 20
8.8906755288366
 11
4.6283004784657
 21
8.9013715884738
  0
LINE
  8
ECPE.10$
  6
CONTINUOUS
 62
8
 10
4.3975877115682
 20
8.8777457331753
 11
4.3930569360443
 21
8.8660119226327
  0
LINE
  8
ECPE.10$
  6
CONTINUOUS
 62
8
 10
4.3945246484731
 20
8.8420698252125
 11
4.4004809130115
 21
8.8305503088866
  0
LINE
  8
ECPE.10$
  6
CONTINUOUS
 62
8
 10
4.4004809130115
 20
8.8305503088866
 11
4.409723471971
 21
8.8197776589452
  0
LINE
  8
ECPE.10$
  6
CONTINUOUS
 62
8
 10
4.409723471971
 20
8.8197776589452
 11
4.4219864337582
 21
8.8100617849133
  0
LINE
  8
ECPE.10$
  6
CONTINUOUS
 62
8
 10
4.4219864337582
 20
8.8100617849133
 11
4.4369170152896
 21
8.8016821947973
  0
LINE
  8
ECPE.10$
  6
CONTINUOUS
 62
8
 10
4.4369170152896
 20
8.8016821947973
 11
4.4540856909186
 21
8.7948799541482
  0
LINE
  8
ECPE.10$
  6
CONTINUOUS
 62
8
 10
4.4931115013571
 20
8.7867392665028
 11
4.5138459346544
 21
8.7856350122686
  0
LINE
  8
ECPE.10$
  6
CONTINUOUS
 62
8
 10
4.5346053571033
 20
8.7865697557254
 11
4.5547925579165
 21
8.789516606006
  0
LINE
  8
ECPE.10$
  6
CONTINUOUS
 62
8
 10
4.6062949376311
 20
8.8093088474671
 11
4.6187948074681
 21
8.8189235603326
  0
LINE
  8
ECPE.10$
  6
CONTINUOUS
 62
8
 10
4.6187948074681
 20
8.8189235603326
 11
4.6283004784657
 21
8.8296196199698
  0
LINE
  8
ECPE.10$
  6
CONTINUOUS
 62
8
 10
4.637329385172
 20
8.8530026986813
 11
4.6365928756737
 21
8.8650170291546
  0
LINE
  8
ECPE.10$
  6
CONTINUOUS
 62
8
 10
4.4004809130115
 20
8.9740542458945
 11
4.409723471971
 21
8.9632815959531
  0
LINE
  8
ECPE.10$
  6
CONTINUOUS
 62
8
 10
4.409723471971
 20
8.9632815959531
 11
4.4219864337582
 21
8.9535657219212
  0
LINE
  8
ECPE.10$
  6
CONTINUOUS
 62
8
 10
4.4219864337582
 20
8.9535657219212
 11
4.4369170152896
 21
8.9451861318052
  0
LINE
  8
ECPE.10$
  6
CONTINUOUS
 62
8
 10
4.4369170152896
 20
8.9451861318052
 11
4.4540856909186
 21
8.938383891156
  0
LINE
  8
ECPE.10$
  6
CONTINUOUS
 62
8
 10
4.4729985491063
 20
8.9333546880523
 11
4.4931115013571
 21
8.9302432035107
  0
LINE
  8
ECPE.10$
  6
CONTINUOUS
 62
8
 10
4.4931115013571
 20
8.9302432035107
 11
4.5138459346544
 21
8.9291389492764
  0
LINE
  8
ECPE.10$
  6
CONTINUOUS
 62
8
 10
4.5346053571033
 20
8.9300736927333
 11
4.5547925579165
 21
8.9330205430139
  0
LINE
  8
ECPE.10$
  6
CONTINUOUS
 62
8
 10
4.6062949376311
 20
8.9528127844749
 11
4.6187948074681
 21
8.9624274973405
  0
LINE
  8
ECPE.10$
  6
CONTINUOUS
 62
8
 10
4.6187948074681
 20
8.9624274973405
 11
4.6283004784657
 21
8.9731235569777
  0
LINE
  8
ECPE.10$
  6
CONTINUOUS
 62
8
 10
4.4090728222824
 20
9.0355801216382
 11
4.4219864337582
 21
9.0253176904251
  0
LINE
  8
ECPE.10$
  6
CONTINUOUS
 62
8
 10
4.4219864337582
 20
9.0253176904251
 11
4.4369170152896
 21
9.0169381003092
  0
LINE
  8
ECPE.10$
  6
CONTINUOUS
 62
8
 10
4.4369170152896
 20
9.0169381003092
 11
4.4540856909186
 21
9.01013585966
  0
LINE
  8
ECPE.10$
  6
CONTINUOUS
 62
8
 10
4.4931115013571
 20
9.0019951720147
 11
4.5138459346544
 21
9.0008909177804
  0
LINE
  8
ECPE.10$
  6
CONTINUOUS
 62
8
 10
4.5911604674517
 20
9.0163079846686
 11
4.6062949376311
 21
9.0245647529789
  0
LINE
  8
ECPE.10$
  6
CONTINUOUS
 62
8
 10
4.6062949376311
 20
9.0245647529789
 11
4.6187948074681
 21
9.0341794658445
  0
LINE
  8
ECPE.10$
  6
CONTINUOUS
 62
8
 10
4.6187948074681
 20
9.0341794658445
 11
4.6283004784657
 21
9.0448755254816
  0
LINE
  8
ECPE.10$
  6
CONTINUOUS
 62
8
 10
4.5547925579165
 20
9.0765244800217
 11
4.5738267880814
 21
9.0813986616088
  0
LINE
  8
ECPE.10$
  6
CONTINUOUS
 62
8
 10
4.6062949376311
 20
9.0963167214828
 11
4.6187948074681
 21
9.1059314343484
  0
LINE
  8
ECPE.10$
  6
CONTINUOUS
 62
8
 10
4.6187948074681
 20
9.1059314343484
 11
4.6277791902893
 21
9.1160409252496
  0
LINE
  8
ECPE.10$
  6
CONTINUOUS
 62
8
 10
4.1653114820926
 20
9.3672853911434
 11
4.8510964312461
 21
9.7632235161434
  0
LINE
  8
ECPE.10$
  6
CONTINUOUS
 62
8
 10
3.9534185727406
 20
8.8864684551502
 11
3.9626611317
 21
8.8756958052087
  0
LINE
  8
ECPE.10$
  6
CONTINUOUS
 62
8
 10
3.9626611317
 20
8.8756958052087
 11
3.9749240934872
 21
8.8659799311769
  0
LINE
  8
ECPE.10$
  6
CONTINUOUS
 62
8
 10
4.0460491610861
 20
8.8426574127664
 11
4.05761526458
 21
8.8415531585321
  0
LINE
  8
ECPE.10$
  6
CONTINUOUS
 62
8
 10
3.9534185727406
 20
8.9582204236541
 11
3.9626611317
 21
8.9474477737127
  0
LINE
  8
ECPE.10$
  6
CONTINUOUS
 62
8
 10
3.9626611317
 20
8.9474477737127
 11
3.9749240934872
 21
8.9377318996808
  0
LINE
  8
ECPE.10$
  6
CONTINUOUS
 62
8
 10
4.0460491610861
 20
8.9144093812703
 11
4.0578452091704
 21
8.9133051270361
  0
LINE
  8
ECPE.10$
  6
HIDDEN
 62
8
 10
4.1197371658513
 20
9.6463436462761
 11
4.3677533550848
 21
9.7895358598934
  0
LINE
  8
ECPE.10$
  6
HIDDEN
 62
8
 10
3.8717209766179
 20
9.7895358598934
 11
4.1197371658513
 21
9.6463436462761
  0
LINE
  8
ECPE.10$
  6
CONTINUOUS
 62
8
 10
4.3945246484731
 20
8.7703178567086
 11
4.4004809130115
 21
8.7587983403827
  0
LINE
  8
ECPE.10$
  6
CONTINUOUS
 62
8
 10
4.4004809130115
 20
8.7587983403827
 11
4.409723471971
 21
8.7480256904412
  0
LINE
  8
ECPE.10$
  6
CONTINUOUS
 62
8
 10
4.409723471971
 20
8.7480256904412
 11
4.4219864337582
 21
8.7383098164094
  0
LINE
  8
ECPE.10$
  6
CONTINUOUS
 62
8
 10
4.4369170152896
 20
8.7299302262934
 11
4.4540856909186
 21
8.7231279856442
  0
LINE
  8
ECPE.10$
  6
CONTINUOUS
 62
8
 10
4.5738267880814
 20
8.7226388190891
 11
4.5911604674517
 21
8.7293001106529
  0
LINE
  8
ECPE.10$
  6
CONTINUOUS
 62
8
 10
4.5911604674517
 20
8.7293001106529
 11
4.6062949376311
 21
8.7375568789631
  0
LINE
  8
ECPE.10$
  6
CONTINUOUS
 62
8
 10
4.6187948074681
 20
8.7471715918287
 11
4.6283004784657
 21
8.7578676514659
  0
POLYLINE
  8
ECPE.10$
  6
CONTINUOUS
 62
8
 70
0
 66
1
  0
VERTEX
  8
ECPE.10$
  6
CONTINUOUS
 62
8
 10
4.6346516962661
 20
9.1277744287526
  0
VERTEX
  8
ECPE.10$
  6
CONTINUOUS
 62
8
 10
4.6324633558084
 20
9.0917198212551
  0
VERTEX
  8
ECPE.10$
  6
CONTINUOUS
 62
8
 10
4.6346516962661
 20
9.0560224602487
  0
VERTEX
  8
ECPE.10$
  6
CONTINUOUS
 62
8
 10
4.6324633558084
 20
9.0199678527512
  0
VERTEX
  8
ECPE.10$
  6
CONTINUOUS
 62
8
 10
4.6346516962661
 20
8.9842704917447
  0
VERTEX
  8
ECPE.10$
  6
CONTINUOUS
 62
8
 10
4.6324633558084
 20
8.9482158842472
  0
VERTEX
  8
ECPE.10$
  6
CONTINUOUS
 62
8
 10
4.6346516962661
 20
8.9125185232408
  0
VERTEX
  8
ECPE.10$
  6
CONTINUOUS
 62
8
 10
4.6374425916618
 20
8.852679933201
  0
VERTEX
  8
ECPE.10$
  6
CONTINUOUS
 62
8
 10
4.6284136849555
 20
8.8292968544895
  0
VERTEX
  8
ECPE.10$
  6
CONTINUOUS
 62
8
 10
4.6324633558084
 20
8.8047119472394
  0
VERTEX
  8
ECPE.10$
  6
CONTINUOUS
 62
8
 10
4.6374425916618
 20
8.7809279646971
  0
VERTEX
  8
ECPE.10$
  6
CONTINUOUS
 62
8
 10
4.6293400946131
 20
8.7576821205723
  0
VERTEX
  8
ECPE.10$
  6
CONTINUOUS
 62
8
 10
4.6230630888346
 20
8.7365157225764
  0
VERTEX
  8
ECPE.10$
  6
CONTINUOUS
 62
8
 10
4.6333058518667
 20
8.7194444508561
  0
VERTEX
  8
ECPE.10$
  6
CONTINUOUS
 62
8
 10
4.6465719441315
 20
8.698726111732
  0
SEQEND
  0
POLYLINE
  8
ECPE.10$
  6
CONTINUOUS
 62
8
 70
0
 66
1
  0
VERTEX
  8
ECPE.10$
  6
CONTINUOUS
 62
8
 10
4.0536514305607
 20
8.9195891204024
  0
VERTEX
  8
ECPE.10$
  6
CONTINUOUS
 62
8
 10
4.0507582291174
 20
8.8950325761871
  0
VERTEX
  8
ECPE.10$
  6
CONTINUOUS
 62
8
 10
4.0451965467912
 20
8.8712916554236
  0
VERTEX
  8
ECPE.10$
  6
CONTINUOUS
 62
8
 10
4.0536514305607
 20
8.8478371518984
  0
VERTEX
  8
ECPE.10$
  6
CONTINUOUS
 62
8
 10
4.0507582291174
 20
8.8232806076832
  0
VERTEX
  8
ECPE.10$
  6
CONTINUOUS
 62
8
 10
4.0476951660223
 20
8.7876046997204
  0
VERTEX
  8
ECPE.10$
  6
CONTINUOUS
 62
8
 10
4.0507582291174
 20
8.7515286391793
  0
VERTEX
  8
ECPE.10$
  6
CONTINUOUS
 62
8
 10
4.0507582291174
 20
8.6797766706753
  0
SEQEND
  0
POLYLINE
  8
ECPE.10$
  6
CONTINUOUS
 62
8
 70
0
 66
1
  0
VERTEX
  8
ECPE.10$
  6
CONTINUOUS
 62
8
 10
4.388089021368
 20
8.9975087494197
  0
VERTEX
  8
ECPE.10$
  6
CONTINUOUS
 62
8
 10
4.3965439051375
 20
8.9740542458945
  0
VERTEX
  8
ECPE.10$
  6
CONTINUOUS
 62
8
 10
4.3936507036942
 20
8.9494977016793
  0
VERTEX
  8
ECPE.10$
  6
CONTINUOUS
 62
8
 10
4.388089021368
 20
8.9257567809157
  0
VERTEX
  8
ECPE.10$
  6
CONTINUOUS
 62
8
 10
4.3965439051375
 20
8.9023022773906
  0
VERTEX
  8
ECPE.10$
  6
CONTINUOUS
 62
8
 10
4.3936507036942
 20
8.8777457331753
  0
VERTEX
  8
ECPE.10$
  6
CONTINUOUS
 62
8
 10
4.3905876405991
 20
8.8420698252125
  0
VERTEX
  8
ECPE.10$
  6
CONTINUOUS
 62
8
 10
4.3936507036942
 20
8.8059937646714
  0
VERTEX
  8
ECPE.10$
  6
CONTINUOUS
 62
8
 10
4.3936507036942
 20
8.7342417961675
  0
VERTEX
  8
ECPE.10$
  6
CONTINUOUS
 62
8
 10
4.405786464097
 20
8.6762737219373
  0
SEQEND
  0
POLYLINE
  8
ECPE.10$
  6
CONTINUOUS
 62
8
 70
0
 66
1
  0
VERTEX
  8
ECPE.10$
  6
CONTINUOUS
 62
8
 10
3.8485206828025
 20
9.044735757225
  0
VERTEX
  8
ECPE.10$
  6
CONTINUOUS
 62
8
 10
3.8463323423449
 20
9.0086811497275
  0
VERTEX
  8
ECPE.10$
  6
CONTINUOUS
 62
8
 10
3.8485206828025
 20
8.9729837887211
  0
VERTEX
  8
ECPE.10$
  6
CONTINUOUS
 62
8
 10
3.8463323423449
 20
8.9369291812236
  0
VERTEX
  8
ECPE.10$
  6
CONTINUOUS
 62
8
 10
3.8485206828025
 20
8.9012318202172
  0
VERTEX
  8
ECPE.10$
  6
CONTINUOUS
 62
8
 10
3.8463323423449
 20
8.8651772127197
  0
VERTEX
  8
ECPE.10$
  6
CONTINUOUS
 62
8
 10
3.8485206828025
 20
8.8294798517132
  0
VERTEX
  8
ECPE.10$
  6
CONTINUOUS
 62
8
 10
3.8513115781982
 20
8.7696412616735
  0
VERTEX
  8
ECPE.10$
  6
CONTINUOUS
 62
8
 10
3.8422826714919
 20
8.746258182962
  0
VERTEX
  8
ECPE.10$
  6
CONTINUOUS
 62
8
 10
3.8463323423449
 20
8.7216732757118
  0
VERTEX
  8
ECPE.10$
  6
CONTINUOUS
 62
8
 10
3.8513115781982
 20
8.6978892931695
  0
VERTEX
  8
ECPE.10$
  6
CONTINUOUS
 62
8
 10
3.8432090811496
 20
8.6746434490447
  0
SEQEND
  0
POLYLINE
  8
ECPE.10$
  6
CONTINUOUS
 62
8
 70
0
 66
1
  0
VERTEX
  8
ECPE.10$
  6
CONTINUOUS
 62
8
 10
4.2935541603111
 20
8.9276362068124
  0
VERTEX
  8
ECPE.10$
  6
CONTINUOUS
 62
8
 10
4.2913658198535
 20
8.8915815993149
  0
VERTEX
  8
ECPE.10$
  6
CONTINUOUS
 62
8
 10
4.2935541603111
 20
8.8558842383084
  0
VERTEX
  8
ECPE.10$
  6
CONTINUOUS
 62
8
 10
4.2913658198535
 20
8.8198296308109
  0
VERTEX
  8
ECPE.10$
  6
CONTINUOUS
 62
8
 10
4.2935541603111
 20
8.7841322698045
  0
VERTEX
  8
ECPE.10$
  6
CONTINUOUS
 62
8
 10
4.2913658198535
 20
8.748077662307
  0
VERTEX
  8
ECPE.10$
  6
CONTINUOUS
 62
8
 10
4.2935541603111
 20
8.7123803013005
  0
SEQEND
  0
POLYLINE
  8
ECPE.10$
  6
CONTINUOUS
 62
8
 70
0
 66
1
  0
VERTEX
  8
ECPE.10$
  6
CONTINUOUS
 62
8
 10
4.6385887041401
 20
9.1277744287526
  0
VERTEX
  8
ECPE.10$
  6
CONTINUOUS
 62
8
 10
4.6364003636825
 20
9.0917198212551
  0
VERTEX
  8
ECPE.10$
  6
CONTINUOUS
 62
8
 10
4.6385887041401
 20
9.0560224602487
  0
VERTEX
  8
ECPE.10$
  6
CONTINUOUS
 62
8
 10
4.6364003636825
 20
9.0199678527512
  0
VERTEX
  8
ECPE.10$
  6
CONTINUOUS
 62
8
 10
4.6385887041401
 20
8.9842704917447
  0
VERTEX
  8
ECPE.10$
  6
CONTINUOUS
 62
8
 10
4.6364003636825
 20
8.9482158842472
  0
VERTEX
  8
ECPE.10$
  6
CONTINUOUS
 62
8
 10
4.6385887041401
 20
8.9125185232408
  0
VERTEX
  8
ECPE.10$
  6
CONTINUOUS
 62
8
 10
4.6413795995358
 20
8.852679933201
  0
VERTEX
  8
ECPE.10$
  6
CONTINUOUS
 62
8
 10
4.6323506928295
 20
8.8292968544895
  0
VERTEX
  8
ECPE.10$
  6
CONTINUOUS
 62
8
 10
4.6364003636825
 20
8.8047119472394
  0
VERTEX
  8
ECPE.10$
  6
CONTINUOUS
 62
8
 10
4.6413795995358
 20
8.7809279646971
  0
VERTEX
  8
ECPE.10$
  6
CONTINUOUS
 62
8
 10
4.6332771024872
 20
8.7576821205723
  0
VERTEX
  8
ECPE.10$
  6
CONTINUOUS
 62
8
 10
4.6270000967086
 20
8.7365157225764
  0
VERTEX
  8
ECPE.10$
  6
CONTINUOUS
 62
8
 10
4.6372428597407
 20
8.7194444508561
  0
VERTEX
  8
ECPE.10$
  6
CONTINUOUS
 62
8
 10
4.6505089520055
 20
8.698726111732
  0
SEQEND
  0
POLYLINE
  8
ECPE.10$
  6
CONTINUOUS
 62
8
 70
0
 66
1
  0
VERTEX
  8
ECPE.10$
  6
CONTINUOUS
 62
8
 10
3.6115961909293
 20
9.164267089186
  0
VERTEX
  8
ECPE.10$
  6
CONTINUOUS
 62
8
 10
3.5991651133225
 20
9.1414103281445
  0
VERTEX
  8
ECPE.10$
  6
CONTINUOUS
 62
8
 10
3.6006328257514
 20
9.1174682307244
  0
VERTEX
  8
ECPE.10$
  6
CONTINUOUS
 62
8
 10
3.6036958888464
 20
9.0813921701832
  0
VERTEX
  8
ECPE.10$
  6
CONTINUOUS
 62
8
 10
3.5981342065203
 20
9.0576512494197
  0
VERTEX
  8
ECPE.10$
  6
CONTINUOUS
 62
8
 10
3.6065890902898
 20
9.0341967458945
  0
VERTEX
  8
ECPE.10$
  6
CONTINUOUS
 62
8
 10
3.6036958888464
 20
9.0096402016793
  0
VERTEX
  8
ECPE.10$
  6
CONTINUOUS
 62
8
 10
3.5981342065203
 20
8.9858992809158
  0
VERTEX
  8
ECPE.10$
  6
CONTINUOUS
 62
8
 10
3.6065890902898
 20
8.9624447773906
  0
VERTEX
  8
ECPE.10$
  6
CONTINUOUS
 62
8
 10
3.6036958888464
 20
8.9378882331753
  0
VERTEX
  8
ECPE.10$
  6
CONTINUOUS
 62
8
 10
3.6006328257514
 20
8.9022123252125
  0
VERTEX
  8
ECPE.10$
  6
CONTINUOUS
 62
8
 10
3.6036958888464
 20
8.8661362646714
  0
VERTEX
  8
ECPE.10$
  6
CONTINUOUS
 62
8
 10
3.6036958888464
 20
8.7943842961675
  0
VERTEX
  8
ECPE.10$
  6
CONTINUOUS
 62
8
 10
3.6065890902898
 20
8.7471888718787
  0
VERTEX
  8
ECPE.10$
  6
CONTINUOUS
 62
8
 10
3.6036958888464
 20
8.7226323276635
  0
VERTEX
  8
ECPE.10$
  6
CONTINUOUS
 62
8
 10
3.5981342065203
 20
8.6988914069
  0
VERTEX
  8
ECPE.10$
  6
CONTINUOUS
 62
8
 10
3.6063167865103
 20
8.6746434490447
  0
SEQEND
  0
POLYLINE
  8
ECPE.10$
  6
CONTINUOUS
 62
8
 70
0
 66
1
  0
VERTEX
  8
ECPE.10$
  6
CONTINUOUS
 62
8
 10
3.9534185727406
 20
8.9582204236541
  0
VERTEX
  8
ECPE.10$
  6
CONTINUOUS
 62
8
 10
3.9505253712972
 20
8.9336638794389
  0
VERTEX
  8
ECPE.10$
  6
CONTINUOUS
 62
8
 10
3.9449636889711
 20
8.9099229586754
  0
VERTEX
  8
ECPE.10$
  6
CONTINUOUS
 62
8
 10
3.9534185727406
 20
8.8864684551502
  0
VERTEX
  8
ECPE.10$
  6
CONTINUOUS
 62
8
 10
3.9505253712972
 20
8.861911910935
  0
VERTEX
  8
ECPE.10$
  6
CONTINUOUS
 62
8
 10
3.9474623082021
 20
8.8262360029722
  0
VERTEX
  8
ECPE.10$
  6
CONTINUOUS
 62
8
 10
3.9505253712972
 20
8.790159942431
  0
VERTEX
  8
ECPE.10$
  6
CONTINUOUS
 62
8
 10
3.9505253712972
 20
8.7184079739271
  0
VERTEX
  8
ECPE.10$
  6
CONTINUOUS
 62
8
 10
3.9441154222432
 20
8.6746434490447
  0
SEQEND
  0
LINE
  8
ECPE.10$
  6
HIDDEN
 62
8
 10
4.1197371658513
 20
9.9327280735107
 11
4.3677533550848
 21
9.7895358598934
  0
LINE
  8
ECPE.10$
  6
HIDDEN
 62
8
 10
3.8717209766179
 20
9.7895358598934
 11
4.1197371658513
 21
9.9327280735107
  0
ENDSEC
  0
EOF
