  0
SECTION
  2
HEADER
  9
$EXTMIN
 10
2.6081261696115
 20
9.1844057006056
  9
$EXTMAX
 10
4.1832662637162
 20
10.759361154317
  9
$LIMMIN
 10
0
 20
0
  9
$LIMMAX
 10
8.2666666666667
 20
11.69
  0
ENDSEC
  0
SECTION
  2
TABLES
  0
TABLE
  2
LTYPE
 70
9
  0
LTYPE
  2
CONTINUOUS
  3
___________________________
 70
64
 72
65
 73
0
 40
0
  0
LTYPE
  2
HIDDEN
  3
_ _ _ _ _ _ _ _ _ _ _ _ _ _ 
 70
64
 72
65
 73
2
 49
0.25
 49
-0.125
 40
0.375
  0
LTYPE
  2
DASHED
  3
__ __ __ __ __ __ __ __ __ 
 70
64
 72
65
 73
2
 49
0.5
 49
-0.25
 40
0.75
  0
LTYPE
  2
CENTER
  3
____ _ ____ _ ____ _ ____ _ 
 70
64
 72
65
 73
4
 49
1.25
 49
-0.25
 49
0.25
 49
-0.25
 40
2
  0
LTYPE
  2
PHANTOM
  3
_____ _ _ _____ _ _ _____ _ _ 
 70
64
 72
65
 73
6
 49
1.25
 49
-0.25
 49
0.25
 49
-0.25
 49
0.25
 49
-0.25
 40
2.5
  0
LTYPE
  2
DOT
  3
...........................
 70
64
 72
65
 73
2
 49
0
 49
-0.25
 40
0.25
  0
LTYPE
  2
DASHDOT
  3
__ . __ . __ . __ . __ . __ . 
 70
64
 72
65
 73
4
 49
0.5
 49
-0.25
 49
0
 49
-0.25
 40
1
  0
LTYPE
  2
DIVIDE
  3
__ . . __ . . __ . . __ . . 
 70
64
 72
65
 73
6
 49
0.5
 49
-0.25
 49
0
 49
-0.25
 49
0
 49
-0.25
 40
1.25
  0
LTYPE
  2
BORDER
  3
__ __ . __ __ . __ __ . __ __ . 
 70
64
 72
65
 73
6
 49
0.5
 49
-0.25
 49
0.5
 49
-0.25
 49
0
 49
-0.25
 40
1.75
  0
ENDTAB
  0
TABLE
  2
LAYER
 70
1
  0
LAYER
  2
ERSF.2a
 62
7
  6
CONTINUOUS
 70
0
  0
ENDTAB
  0
TABLE
  2
STYLE
 70
5
  0
STYLE
  2
ptmarker
 70
1
 40
0
 50
0
 71
0
 41
0
 42
0
  3
ptmarks
  0
STYLE
  2
TXT
 70
0
 40
0
 50
0
 71
0
 41
0
 42
0
  3
TXT
  0
STYLE
  2
ITALIC
 70
0
 40
0
 50
0
 71
0
 41
0
 42
0
  3
ITALIC
  0
STYLE
  2
SIMPLEX
 70
0
 40
0
 50
0
 71
0
 41
0
 42
0
  3
SIMPLEX
  0
STYLE
  2
COMPLEX
 70
0
 40
0
 50
0
 71
0
 41
0
 42
0
  3
COMPLEX
  0
ENDTAB
  0
ENDSEC
  0
SECTION
  2
BLOCKS
  0
ENDSEC
  0
SECTION
  2
ENTITIES
  0
LINE
  8
ERSF.2a
  6
CONTINUOUS
 62
8
 10
3.3243040265783
 20
9.91816960323
 11
2.6081261696115
 21
10.331655081737
  0
LINE
  8
ERSF.2a
  6
CONTINUOUS
 62
8
 10
3.382424691549
 20
9.9618371504602
 11
3.3917046576285
 21
9.9627949085227
  0
LINE
  8
ERSF.2a
  6
CONTINUOUS
 62
8
 10
3.372997856302
 20
9.9617986399351
 11
3.382424691549
 21
9.9618371504602
  0
LINE
  8
ERSF.2a
  6
CONTINUOUS
 62
8
 10
3.3636953447742
 20
9.9626804848252
 11
3.372997856302
 21
9.9617986399351
  0
LINE
  8
ERSF.2a
  6
CONTINUOUS
 62
8
 10
3.3547847732851
 20
9.9644573160584
 11
3.3636953447742
 21
9.9626804848252
  0
LINE
  8
ERSF.2a
  6
CONTINUOUS
 62
8
 10
3.3465224827531
 20
9.9670780174354
 11
3.3547847732851
 21
9.9644573160584
  0
LINE
  8
ERSF.2a
  6
CONTINUOUS
 62
8
 10
3.3391461642338
 20
9.9704671961489
 11
3.3465224827531
 21
9.9670780174354
  0
LINE
  8
ERSF.2a
  6
CONTINUOUS
 62
8
 10
3.3328680209808
 20
9.9745273516981
 11
3.3391461642338
 21
9.9704671961489
  0
LINE
  8
ERSF.2a
  6
CONTINUOUS
 62
8
 10
3.3278686637449
 20
9.9791416808001
 11
3.3328680209808
 21
9.9745273516981
  0
LINE
  8
ERSF.2a
  6
CONTINUOUS
 62
8
 10
3.3242919149316
 20
9.9841774376079
 11
3.3278686637449
 21
9.9791416808001
  0
LINE
  8
ERSF.2a
  6
CONTINUOUS
 62
8
 10
3.3222406710919
 20
9.9894897525667
 11
3.3242919149316
 21
9.9841774376079
  0
LINE
  8
ERSF.2a
  6
CONTINUOUS
 62
8
 10
3.3217739427766
 20
9.9949258000474
 11
3.3222406710919
 21
9.9894897525667
  0
LINE
  8
ERSF.2a
  6
CONTINUOUS
 62
8
 10
3.3229051569095
 20
10.000329194861
 11
3.3217739427766
 21
9.9949258000474
  0
LINE
  8
ERSF.2a
  6
CONTINUOUS
 62
8
 10
3.4328315299455
 20
9.9953794927111
 11
3.4315679919579
 21
10.000773104479
  0
LINE
  8
ERSF.2a
  6
CONTINUOUS
 62
8
 10
3.4324980858004
 20
9.9899401763644
 11
3.4328315299455
 21
9.9953794927111
  0
LINE
  8
ERSF.2a
  6
CONTINUOUS
 62
8
 10
3.4305772521036
 20
9.984611634667
 11
3.4324980858004
 21
9.9899401763644
  0
LINE
  8
ERSF.2a
  6
CONTINUOUS
 62
8
 10
3.4271242877433
 20
9.9795471600617
 11
3.4305772521036
 21
9.984611634667
  0
LINE
  8
ERSF.2a
  6
CONTINUOUS
 62
8
 10
3.4222385282173
 20
9.9748924482621
 11
3.4271242877433
 21
9.9795471600617
  0
LINE
  8
ERSF.2a
  6
CONTINUOUS
 62
8
 10
3.4160605279318
 20
9.970781406852
 11
3.4222385282173
 21
9.9748924482621
  0
LINE
  8
ERSF.2a
  6
CONTINUOUS
 62
8
 10
3.4087680167067
 20
9.9673323030076
 11
3.4160605279318
 21
9.970781406852
  0
LINE
  8
ERSF.2a
  6
CONTINUOUS
 62
8
 10
3.4005707868125
 20
9.9646443611669
 11
3.4087680167067
 21
9.9673323030076
  0
LINE
  8
ERSF.2a
  6
CONTINUOUS
 62
8
 10
3.3917046576285
 20
9.9627949085227
 11
3.4005707868125
 21
9.9646443611669
  0
LINE
  8
ERSF.2a
  6
CONTINUOUS
 62
8
 10
3.4283392092499
 20
10.012229041553
 11
3.4315679919579
 21
10.000773104479
  0
LINE
  8
ERSF.2a
  6
CONTINUOUS
 62
8
 10
3.3261418128868
 20
10.011811544557
 11
3.3229051569095
 21
10.000329194861
  0
POLYLINE
  8
ERSF.2a
  6
CONTINUOUS
 62
8
 70
1
 66
1
  0
VERTEX
  8
ERSF.2a
  6
CONTINUOUS
 62
8
 10
3.3908477433131
 20
9.9765105482558
  0
VERTEX
  8
ERSF.2a
  6
CONTINUOUS
 62
8
 10
3.3991863378106
 20
9.9782499584677
  0
VERTEX
  8
ERSF.2a
  6
CONTINUOUS
 62
8
 10
3.4068958325261
 20
9.9807779677689
  0
VERTEX
  8
ERSF.2a
  6
CONTINUOUS
 62
8
 10
3.4137544393333
 20
9.9840218499346
  0
VERTEX
  8
ERSF.2a
  6
CONTINUOUS
 62
8
 10
3.4195648486019
 20
9.9878882843808
  0
VERTEX
  8
ERSF.2a
  6
CONTINUOUS
 62
8
 10
3.424159905436
 20
9.9922660408283
  0
VERTEX
  8
ERSF.2a
  6
CONTINUOUS
 62
8
 10
3.4274074184169
 20
9.9970291791946
  0
VERTEX
  8
ERSF.2a
  6
CONTINUOUS
 62
8
 10
3.4292139625087
 20
10.002040672661
  0
VERTEX
  8
ERSF.2a
  6
CONTINUOUS
 62
8
 10
3.4295275667272
 20
10.007156349685
  0
VERTEX
  8
ERSF.2a
  6
CONTINUOUS
 62
8
 10
3.4283392092499
 20
10.012229041553
  0
VERTEX
  8
ERSF.2a
  6
CONTINUOUS
 62
8
 10
3.4256830769579
 20
10.017112816155
  0
VERTEX
  8
ERSF.2a
  6
CONTINUOUS
 62
8
 10
3.4216355819411
 20
10.021667176188
  0
VERTEX
  8
ERSF.2a
  6
CONTINUOUS
 62
8
 10
3.4163131632619
 20
10.025761101007
  0
VERTEX
  8
ERSF.2a
  6
CONTINUOUS
 62
8
 10
3.4098689372153
 20
10.029276815847
  0
VERTEX
  8
ERSF.2a
  6
CONTINUOUS
 62
8
 10
3.4024882924515
 20
10.032113179994
  0
VERTEX
  8
ERSF.2a
  6
CONTINUOUS
 62
8
 10
3.3943835566827
 20
10.034188596415
  0
VERTEX
  8
ERSF.2a
  6
CONTINUOUS
 62
8
 10
3.3857878884005
 20
10.035443359159
  0
VERTEX
  8
ERSF.2a
  6
CONTINUOUS
 62
8
 10
3.3769485693314
 20
10.035841370986
  0
VERTEX
  8
ERSF.2a
  6
CONTINUOUS
 62
8
 10
3.3681198905913
 20
10.035371181821
  0
VERTEX
  8
ERSF.2a
  6
CONTINUOUS
 62
8
 10
3.3595558371932
 20
10.03404631815
  0
VERTEX
  8
ERSF.2a
  6
CONTINUOUS
 62
8
 10
3.3515027813608
 20
10.031904893888
  0
VERTEX
  8
ERSF.2a
  6
CONTINUOUS
 62
8
 10
3.3441923948482
 20
10.029008513912
  0
VERTEX
  8
ERSF.2a
  6
CONTINUOUS
 62
8
 10
3.3378349841655
 20
10.025440501802
  0
VERTEX
  8
ERSF.2a
  6
CONTINUOUS
 62
8
 10
3.3326134404431
 20
10.021303502769
  0
VERTEX
  8
ERSF.2a
  6
CONTINUOUS
 62
8
 10
3.328677977987
 20
10.016716530743
  0
VERTEX
  8
ERSF.2a
  6
CONTINUOUS
 62
8
 10
3.3261418128868
 20
10.011811544557
  0
VERTEX
  8
ERSF.2a
  6
CONTINUOUS
 62
8
 10
3.3250779059949
 20
10.006729651735
  0
VERTEX
  8
ERSF.2a
  6
CONTINUOUS
 62
8
 10
3.3255168639755
 20
10.001617049079
  0
VERTEX
  8
ERSF.2a
  6
CONTINUOUS
 62
8
 10
3.3274460588066
 20
9.9966208168605
  0
VERTEX
  8
ERSF.2a
  6
CONTINUOUS
 62
8
 10
3.3308099910656
 20
9.9918846875827
  0
VERTEX
  8
ERSF.2a
  6
CONTINUOUS
 62
8
 10
3.3355118865459
 20
9.9875449110623
  0
VERTEX
  8
ERSF.2a
  6
CONTINUOUS
 62
8
 10
3.3414164802753
 20
9.9837263347683
  0
VERTEX
  8
ERSF.2a
  6
CONTINUOUS
 62
8
 10
3.3483539078428
 20
9.9805388121882
  0
VERTEX
  8
ERSF.2a
  6
CONTINUOUS
 62
8
 10
3.3561245920881
 20
9.9780740425432
  0
VERTEX
  8
ERSF.2a
  6
CONTINUOUS
 62
8
 10
3.3645049845736
 20
9.9764029327683
  0
VERTEX
  8
ERSF.2a
  6
CONTINUOUS
 62
8
 10
3.3732539966655
 20
9.9755735576492
  0
VERTEX
  8
ERSF.2a
  6
CONTINUOUS
 62
8
 10
3.3821199352153
 20
9.9756097767981
  0
VERTEX
  8
ERSF.2a
  6
CONTINUOUS
 62
8
 10
3.3908477433131
 20
9.9765105482558
  0
SEQEND
  0
LINE
  8
ERSF.2a
  6
CONTINUOUS
 62
8
 10
3.6403138333848
 20
9.2665966566507
 11
4.1829293192178
 21
9.5798758534628
  0
LINE
  8
ERSF.2a
  6
CONTINUOUS
 62
8
 10
3.6723697007299
 20
9.5485448918185
 11
4.1829293192178
 21
9.8433166249898
  0
LINE
  8
ERSF.2a
  6
CONTINUOUS
 62
8
 10
3.6534594314915
 20
9.6512841514454
 11
3.6534594314915
 21
9.6678701341666
  0
LINE
  8
ERSF.2a
  6
CONTINUOUS
 62
8
 10
3.6534594314915
 20
9.6060645745726
 11
3.6534594314915
 21
9.6168556099627
  0
LINE
  8
ERSF.2a
  6
CONTINUOUS
 62
8
 10
3.6416576951728
 20
9.6128783102131
 11
3.6416576951728
 21
9.5784496606634
  0
LINE
  8
ERSF.2a
  6
CONTINUOUS
 62
8
 10
3.6416576951728
 20
9.6580978870859
 11
3.6416576951728
 21
9.6236693456032
  0
LINE
  8
ERSF.2a
  6
CONTINUOUS
 62
8
 10
3.6380316697259
 20
9.7368179944111
 11
4.1829293192178
 21
10.051414799026
  0
LINE
  8
ERSF.2a
  6
CONTINUOUS
 62
8
 10
3.6136464265337
 20
9.7451096736709
 11
4.1829293192178
 21
10.073785305007
  0
LINE
  8
ERSF.2a
  6
CONTINUOUS
 62
8
 10
3.6136587957546
 20
9.7508896797594
 11
4.1829293192178
 21
10.079558169723
  0
LINE
  8
ERSF.2a
  6
CONTINUOUS
 62
8
 10
3.5918180683836
 20
9.7634994295863
 11
4.1829293192178
 21
10.104777669377
  0
LINE
  8
ERSF.2a
  6
CONTINUOUS
 62
8
 10
3.5746247402135
 20
9.7677410434626
 11
4.1829293192178
 21
10.1189458559
  0
LINE
  8
ERSF.2a
  6
CONTINUOUS
 62
8
 10
3.5746247402135
 20
9.773499625432
 11
4.1829293192178
 21
10.124704437869
  0
LINE
  8
ERSF.2a
  6
CONTINUOUS
 62
8
 10
3.5527840128425
 20
9.786109375259
 11
4.1829293192178
 21
10.149923937523
  0
LINE
  8
ERSF.2a
  6
CONTINUOUS
 62
8
 10
3.5355906846725
 20
9.7903223912511
 11
4.1829293192178
 21
10.164063526163
  0
LINE
  8
ERSF.2a
  6
CONTINUOUS
 62
8
 10
3.5355906846725
 20
9.7961095711047
 11
4.1829293192178
 21
10.169850706016
  0
LINE
  8
ERSF.2a
  6
CONTINUOUS
 62
8
 10
3.4965566291314
 20
9.8129609348079
 11
4.1829293192178
 21
10.209238392194
  0
LINE
  8
ERSF.2a
  6
CONTINUOUS
 62
8
 10
3.5137499573014
 20
9.8087193209317
 11
4.1829293192178
 21
10.19507020567
  0
LINE
  8
ERSF.2a
  6
CONTINUOUS
 62
8
 10
3.4965566291314
 20
9.8187195167773
 11
4.1829293192178
 21
10.214996974163
  0
LINE
  8
ERSF.2a
  6
CONTINUOUS
 62
8
 10
2.6435876019107
 20
10.311181414254
 11
3.4195938841754
 21
10.759208850212
  0
LINE
  8
ERSF.2a
  6
CONTINUOUS
 62
8
 10
3.6136464265337
 20
9.7451096736709
 11
3.6380316697259
 21
9.7309669876882
  0
LINE
  8
ERSF.2a
  6
CONTINUOUS
 62
8
 10
3.5355906846725
 20
9.7903223912511
 11
3.5527840128425
 21
9.7803507932896
  0
LINE
  8
ERSF.2a
  6
CONTINUOUS
 62
8
 10
3.6136587957546
 20
9.7451310977899
 11
3.6136587957546
 21
9.7508896797594
  0
LINE
  8
ERSF.2a
  6
CONTINUOUS
 62
8
 10
3.5918180683836
 20
9.7577408476169
 11
3.5918180683836
 21
9.7634994295863
  0
LINE
  8
ERSF.2a
  6
CONTINUOUS
 62
8
 10
3.5918180683836
 20
9.7634994295863
 11
3.6136587957546
 21
9.7508896797594
  0
LINE
  8
ERSF.2a
  6
CONTINUOUS
 62
8
 10
3.5355906846725
 20
9.7903223912511
 11
3.5355906846725
 21
9.7961095711047
  0
LINE
  8
ERSF.2a
  6
CONTINUOUS
 62
8
 10
3.5137499573014
 20
9.8029607389622
 11
3.5137499573014
 21
9.8087193209317
  0
LINE
  8
ERSF.2a
  6
CONTINUOUS
 62
8
 10
3.5137499573014
 20
9.8087193209317
 11
3.5355906846725
 21
9.7961095711047
  0
LINE
  8
ERSF.2a
  6
CONTINUOUS
 62
8
 10
3.5746247402135
 20
9.7677410434626
 11
3.5918304376044
 21
9.7577622717359
  0
LINE
  8
ERSF.2a
  6
CONTINUOUS
 62
8
 10
3.4965566291314
 20
9.8129609348079
 11
3.5137575472697
 21
9.8029849348997
  0
LINE
  8
ERSF.2a
  6
CONTINUOUS
 62
8
 10
3.6380316697259
 20
9.7309097919198
 11
3.6380316697259
 21
9.7368179944111
  0
LINE
  8
ERSF.2a
  6
CONTINUOUS
 62
8
 10
3.5746247402135
 20
9.7677410434626
 11
3.5746247402135
 21
9.773499625432
  0
LINE
  8
ERSF.2a
  6
CONTINUOUS
 62
8
 10
3.5527840128425
 20
9.7803507932896
 11
3.5527840128425
 21
9.786109375259
  0
LINE
  8
ERSF.2a
  6
CONTINUOUS
 62
8
 10
3.6534594314915
 20
9.5716359250229
 11
3.6416576951728
 21
9.5784496606634
  0
LINE
  8
ERSF.2a
  6
CONTINUOUS
 62
8
 10
3.6534594314915
 20
9.6060645745726
 11
3.6416576951728
 21
9.6128783102131
  0
LINE
  8
ERSF.2a
  6
CONTINUOUS
 62
8
 10
3.6534594314915
 20
9.6168556099627
 11
3.6416576951728
 21
9.6236693456032
  0
ARC
  8
ERSF.2a
  6
CONTINUOUS
 62
8
 10
3.6194225649954
 20
9.6678701341666
 40
0.034036866496063
 50
0
 51
50.240687347653
  0
LINE
  8
ERSF.2a
  6
CONTINUOUS
 62
8
 10
3.5833715749418
 20
9.727417807346
 11
3.5833715749418
 21
9.7387759950903
  0
LINE
  8
ERSF.2a
  6
CONTINUOUS
 62
8
 10
3.5473398824811
 20
9.7482207146876
 11
3.5473398824811
 21
9.7595789024318
  0
LINE
  8
ERSF.2a
  6
CONTINUOUS
 62
8
 10
3.5113081900203
 20
9.7690236220291
 11
3.5113081900203
 21
9.7803818097734
  0
LINE
  8
ERSF.2a
  6
CONTINUOUS
 62
8
 10
3.4752764975596
 20
9.7898265293707
 11
3.4752764975596
 21
9.801184717115
  0
LINE
  8
ERSF.2a
  6
CONTINUOUS
 62
8
 10
3.4392448050989
 20
9.8106294367123
 11
3.4392448050989
 21
9.8219876244565
  0
LINE
  8
ERSF.2a
  6
CONTINUOUS
 62
8
 10
3.4032131126381
 20
9.8314323440538
 11
3.4032131126381
 21
9.8427905317981
  0
LINE
  8
ERSF.2a
  6
CONTINUOUS
 62
8
 10
3.3311497277167
 20
9.8730381587369
 11
3.3311497277167
 21
9.8843963464812
  0
LINE
  8
ERSF.2a
  6
CONTINUOUS
 62
8
 10
3.6534594314915
 20
9.5585068900256
 11
3.6534594314915
 21
9.5716359250229
  0
LINE
  8
ERSF.2a
  6
CONTINUOUS
 62
8
 10
3.6534594314915
 20
9.6512841514454
 11
3.6416576951728
 21
9.6580978870859
  0
ARC
  8
ERSF.2a
  6
CONTINUOUS
 62
8
 10
3.6661673310117
 20
9.559700421249
 40
0.012763824936024
 50
185.365504
 51
0
  0
LINE
  8
ERSF.2a
  6
CONTINUOUS
 62
8
 10
3.6789311559477
 20
9.6883663491231
 11
3.6789311559477
 21
9.559700421249
  0
ARC
  8
ERSF.2a
  6
CONTINUOUS
 62
8
 10
3.6358601681854
 20
9.6883663491231
 40
0.043070987762278
 50
0
 51
61.947613650601
  0
LINE
  8
ERSF.2a
  6
CONTINUOUS
 62
8
 10
3.6380316697259
 20
9.7368179944111
 11
3.6586509083052
 21
9.7249134714669
  0
LINE
  8
ERSF.2a
  6
CONTINUOUS
 62
8
 10
3.5527840128425
 20
9.786109375259
 11
3.5746247402135
 21
9.773499625432
  0
LINE
  8
ERSF.2a
  6
CONTINUOUS
 62
8
 10
3.3243040265783
 20
9.91816960323
 11
3.4965566291314
 21
9.8187195167773
  0
LINE
  8
ERSF.2a
  6
CONTINUOUS
 62
8
 10
3.5113081900203
 20
9.7803818097734
 11
3.4752764975596
 21
9.801184717115
  0
LINE
  8
ERSF.2a
  6
CONTINUOUS
 62
8
 10
3.4392448050989
 20
9.8219876244565
 11
3.4032131126381
 21
9.8427905317981
  0
LINE
  8
ERSF.2a
  6
CONTINUOUS
 62
8
 10
3.3671814201774
 20
9.8635934391397
 11
3.3311497277167
 21
9.8843963464812
  0
LINE
  8
ERSF.2a
  6
CONTINUOUS
 62
8
 10
3.3671814201774
 20
9.8522352513954
 11
3.3671814201774
 21
9.8635934391397
  0
LINE
  8
ERSF.2a
  6
CONTINUOUS
 62
8
 10
3.5833715749418
 20
9.7387759950903
 11
3.5473398824811
 21
9.7595789024318
  0
LINE
  8
ERSF.2a
  6
CONTINUOUS
 62
8
 10
3.4965566291314
 20
9.8129609348079
 11
3.4965566291314
 21
9.8187195167773
  0
LINE
  8
ERSF.2a
  6
CONTINUOUS
 62
8
 10
3.6403138333848
 20
9.2665966566507
 11
3.6403138333848
 21
9.6945421791057
  0
LINE
  8
ERSF.2a
  6
CONTINUOUS
 62
8
 10
3.6789311559477
 20
9.6722464575286
 11
2.6081261696115
 21
10.290476004639
  0
LINE
  8
ERSF.2a
  6
CONTINUOUS
 62
8
 10
2.6081261696115
 20
10.759208850212
 11
4.1829293192178
 21
10.759208850212
  0
LINE
  8
ERSF.2a
  6
CONTINUOUS
 62
8
 10
4.1829293192178
 20
10.759208850212
 11
4.1829293192178
 21
9.1844057006056
  0
LINE
  8
ERSF.2a
  6
CONTINUOUS
 62
8
 10
2.6081261696115
 20
9.1844057006056
 11
2.6081261696115
 21
10.759208850212
  0
LINE
  8
ERSF.2a
  6
CONTINUOUS
 62
8
 10
2.6081261696115
 20
9.1844057006056
 11
4.1829293192178
 21
9.1844057006056
  0
LINE
  8
ERSF.2a
  6
CONTINUOUS
 62
8
 10
3.6046517065136
 20
9.2460071181017
 11
3.6046517065136
 21
9.7151317176547
  0
LINE
  8
ERSF.2a
  6
CONTINUOUS
 62
8
 10
3.7826727451775
 20
9.1844057006056
 11
3.6403138333848
 21
9.2665966566507
  0
LINE
  8
ERSF.2a
  6
CONTINUOUS
 62
8
 10
3.711348491435
 20
9.1844057006056
 11
3.6046517065136
 21
9.2460071181017
  0
LINE
  8
ERSF.2a
  6
CONTINUOUS
 62
8
 10
2.6081261696115
 20
10.328904712345
 11
3.4965566291314
 21
9.8159691473847
  0
LINE
  8
ERSF.2a
  6
CONTINUOUS
 62
8
 10
2.6081261696115
 20
10.326154342952
 11
3.4965566291314
 21
9.8132187779921
  0
LINE
  8
ERSF.2a
  6
CONTINUOUS
 62
8
 10
2.6081261696115
 20
10.32340397356
 11
3.6742621928888
 21
9.7078700535277
  0
LINE
  8
ERSF.2a
  6
CONTINUOUS
 62
8
 10
2.6081261696115
 20
10.320653604167
 11
3.6759329237097
 21
9.7041550872459
  0
LINE
  8
ERSF.2a
  6
CONTINUOUS
 62
8
 10
2.6081261696115
 20
10.317903234774
 11
3.6771220424093
 21
9.700718179852
  0
LINE
  8
ERSF.2a
  6
CONTINUOUS
 62
8
 10
2.6081261696115
 20
10.315152865382
 11
3.6779543297801
 21
9.6974872891218
  0
LINE
  8
ERSF.2a
  6
CONTINUOUS
 62
8
 10
2.6081261696115
 20
10.312402495989
 11
3.6785036442099
 21
9.6944197728953
  0
LINE
  8
ERSF.2a
  6
CONTINUOUS
 62
8
 10
2.6081261696115
 20
10.309652126597
 11
3.6788178849445
 21
9.69148797653
  0
LINE
  8
ERSF.2a
  6
CONTINUOUS
 62
8
 10
2.6081261696115
 20
10.306901757204
 11
3.6789300654496
 21
9.6886728396926
  0
LINE
  8
ERSF.2a
  6
CONTINUOUS
 62
8
 10
2.6081261696115
 20
10.304151387811
 11
3.6788639197028
 21
9.6859606595647
  0
LINE
  8
ERSF.2a
  6
CONTINUOUS
 62
8
 10
2.6081261696115
 20
10.301401018419
 11
3.3309621578878
 21
9.8840714660076
  0
LINE
  8
ERSF.2a
  6
CONTINUOUS
 62
8
 10
3.3669938503485
 20
9.863268558666
 11
3.4032131126381
 21
9.8423573578332
  0
LINE
  8
ERSF.2a
  6
CONTINUOUS
 62
8
 10
3.4392448050989
 20
9.8215544504917
 11
3.4752764975596
 21
9.8007515431501
  0
LINE
  8
ERSF.2a
  6
CONTINUOUS
 62
8
 10
3.5113081900203
 20
9.7799486358086
 11
3.5473398824811
 21
9.759145728467
  0
LINE
  8
ERSF.2a
  6
CONTINUOUS
 62
8
 10
3.5833715749418
 20
9.7383428211254
 11
3.6789311559477
 21
9.683171471308
  0
LINE
  8
ERSF.2a
  6
CONTINUOUS
 62
8
 10
2.6081261696115
 20
10.298650649026
 11
3.3309621578878
 21
9.881321096615
  0
LINE
  8
ERSF.2a
  6
CONTINUOUS
 62
8
 10
3.3669938503485
 20
9.8605181892734
 11
3.4032131126381
 21
9.8396069884406
  0
LINE
  8
ERSF.2a
  6
CONTINUOUS
 62
8
 10
3.4392448050989
 20
9.8188040810991
 11
3.4752764975596
 21
9.7980011737575
  0
LINE
  8
ERSF.2a
  6
CONTINUOUS
 62
8
 10
3.5113081900203
 20
9.777198266416
 11
3.5473398824811
 21
9.7563953590744
  0
LINE
  8
ERSF.2a
  6
CONTINUOUS
 62
8
 10
3.5833715749418
 20
9.7355924517328
 11
3.6789311559477
 21
9.6804211019154
  0
LINE
  8
ERSF.2a
  6
CONTINUOUS
 62
8
 10
2.6081261696115
 20
10.295900279634
 11
3.3309621578878
 21
9.8785707272224
  0
LINE
  8
ERSF.2a
  6
CONTINUOUS
 62
8
 10
3.3669938503485
 20
9.8577678198808
 11
3.4032131126381
 21
9.836856619048
  0
LINE
  8
ERSF.2a
  6
CONTINUOUS
 62
8
 10
3.4392448050989
 20
9.8160537117065
 11
3.4752764975596
 21
9.7952508043649
  0
LINE
  8
ERSF.2a
  6
CONTINUOUS
 62
8
 10
3.5113081900203
 20
9.7744478970234
 11
3.5473398824811
 21
9.7536449896818
  0
LINE
  8
ERSF.2a
  6
CONTINUOUS
 62
8
 10
3.5833715749418
 20
9.7328420823402
 11
3.6789311559477
 21
9.6776707325228
  0
LINE
  8
ERSF.2a
  6
CONTINUOUS
 62
8
 10
2.6081261696115
 20
10.293149910241
 11
3.3309621578878
 21
9.8758203578298
  0
LINE
  8
ERSF.2a
  6
CONTINUOUS
 62
8
 10
3.3669938503485
 20
9.8550174504882
 11
3.4032131126381
 21
9.8341062496554
  0
LINE
  8
ERSF.2a
  6
CONTINUOUS
 62
8
 10
3.4392448050989
 20
9.8133033423139
 11
3.4752764975596
 21
9.7925004349723
  0
LINE
  8
ERSF.2a
  6
CONTINUOUS
 62
8
 10
3.5113081900203
 20
9.7716975276308
 11
3.5473398824811
 21
9.7508946202892
  0
LINE
  8
ERSF.2a
  6
CONTINUOUS
 62
8
 10
3.5833715749418
 20
9.7300917129476
 11
3.6789311559477
 21
9.6749203631302
  0
LINE
  8
ERSF.2a
  6
CONTINUOUS
 62
8
 10
3.5137499573014
 20
9.8059689515391
 11
3.5355906846725
 21
9.7933592017121
  0
LINE
  8
ERSF.2a
  6
CONTINUOUS
 62
8
 10
3.5137499573014
 20
9.8032185821465
 11
3.5355906846725
 21
9.7906088323195
  0
LINE
  8
ERSF.2a
  6
CONTINUOUS
 62
8
 10
3.5527840128425
 20
9.7833590058664
 11
3.5746247402135
 21
9.7707492560394
  0
LINE
  8
ERSF.2a
  6
CONTINUOUS
 62
8
 10
3.5527840128425
 20
9.7806086364738
 11
3.5746247402135
 21
9.7679988866468
  0
LINE
  8
ERSF.2a
  6
CONTINUOUS
 62
8
 10
3.5918180683836
 20
9.7607490601937
 11
3.6136587957546
 21
9.7481393103668
  0
LINE
  8
ERSF.2a
  6
CONTINUOUS
 62
8
 10
3.5918180683836
 20
9.7579986908012
 11
3.6136587957546
 21
9.7453889409742
  0
LINE
  8
ERSF.2a
  6
CONTINUOUS
 62
8
 10
3.6380316697259
 20
9.7340676250185
 11
3.6684865272718
 21
9.7164845048163
  0
LINE
  8
ERSF.2a
  6
CONTINUOUS
 62
8
 10
3.6380316697259
 20
9.7313172556259
 11
3.6720946073531
 21
9.7116510094175
  0
LINE
  8
ERSF.2a
  6
CONTINUOUS
 62
8
 10
3.6789311559477
 20
9.669572551927
 11
3.646761240274
 21
9.688145861401
  0
LINE
  8
ERSF.2a
  6
CONTINUOUS
 62
8
 10
3.6789311559477
 20
9.6668986463253
 11
3.649432555981
 21
9.6839296709568
  0
LINE
  8
ERSF.2a
  6
CONTINUOUS
 62
8
 10
3.6789311559477
 20
9.6642247407237
 11
3.6511146677443
 21
9.6802845976758
  0
LINE
  8
ERSF.2a
  6
CONTINUOUS
 62
8
 10
3.6789311559477
 20
9.661550835122
 11
3.6522196906697
 21
9.6769727067908
  0
LINE
  8
ERSF.2a
  6
CONTINUOUS
 62
8
 10
3.6789311559477
 20
9.6588769295204
 11
3.6529222887042
 21
9.6738931560248
  0
LINE
  8
ERSF.2a
  6
CONTINUOUS
 62
8
 10
3.6789311559477
 20
9.6562030239188
 11
3.6533159636336
 21
9.6709919620967
  0
LINE
  8
ERSF.2a
  6
CONTINUOUS
 62
8
 10
3.6789311559477
 20
9.6535291183171
 11
3.6534574611671
 21
9.668236362856
  0
LINE
  8
ERSF.2a
  6
CONTINUOUS
 62
8
 10
3.6789311559477
 20
9.6508552127155
 11
3.6534594314915
 21
9.665561319687
  0
LINE
  8
ERSF.2a
  6
CONTINUOUS
 62
8
 10
3.6789311559477
 20
9.6481813071139
 11
3.6534594314915
 21
9.6628874140854
  0
LINE
  8
ERSF.2a
  6
CONTINUOUS
 62
8
 10
3.6789311559477
 20
9.6455074015122
 11
3.6534594314915
 21
9.6602135084838
  0
LINE
  8
ERSF.2a
  6
CONTINUOUS
 62
8
 10
3.6789311559477
 20
9.6428334959106
 11
3.6534594314915
 21
9.6575396028821
  0
LINE
  8
ERSF.2a
  6
CONTINUOUS
 62
8
 10
3.6789311559477
 20
9.6401595903089
 11
3.6534594314915
 21
9.6548656972805
  0
LINE
  8
ERSF.2a
  6
CONTINUOUS
 62
8
 10
3.6789311559477
 20
9.6374856847073
 11
3.6534594314915
 21
9.6521917916789
  0
LINE
  8
ERSF.2a
  6
CONTINUOUS
 62
8
 10
3.6789311559477
 20
9.6348117791057
 11
3.6416576951728
 21
9.6563316217177
  0
LINE
  8
ERSF.2a
  6
CONTINUOUS
 62
8
 10
3.6789311559477
 20
9.632137873504
 11
3.6416576951728
 21
9.6536577161161
  0
LINE
  8
ERSF.2a
  6
CONTINUOUS
 62
8
 10
3.6789311559477
 20
9.6294639679024
 11
3.6416576951728
 21
9.6509838105144
  0
LINE
  8
ERSF.2a
  6
CONTINUOUS
 62
8
 10
3.6789311559477
 20
9.6267900623008
 11
3.6416576951728
 21
9.6483099049128
  0
LINE
  8
ERSF.2a
  6
CONTINUOUS
 62
8
 10
3.6789311559477
 20
9.6241161566991
 11
3.6416576951728
 21
9.6456359993111
  0
LINE
  8
ERSF.2a
  6
CONTINUOUS
 62
8
 10
3.6789311559477
 20
9.6214422510975
 11
3.6416576951728
 21
9.6429620937095
  0
LINE
  8
ERSF.2a
  6
CONTINUOUS
 62
8
 10
3.6789311559477
 20
9.6187683454959
 11
3.6416576951728
 21
9.6402881881079
  0
LINE
  8
ERSF.2a
  6
CONTINUOUS
 62
8
 10
3.6789311559477
 20
9.6160944398942
 11
3.6416576951728
 21
9.6376142825062
  0
LINE
  8
ERSF.2a
  6
CONTINUOUS
 62
8
 10
3.6789311559477
 20
9.6134205342926
 11
3.6416576951728
 21
9.6349403769046
  0
LINE
  8
ERSF.2a
  6
CONTINUOUS
 62
8
 10
3.6789311559477
 20
9.5893553838778
 11
3.6416576951728
 21
9.6108752264899
  0
LINE
  8
ERSF.2a
  6
CONTINUOUS
 62
8
 10
3.6789311559477
 20
9.5920292894795
 11
3.6534594314915
 21
9.606735396451
  0
LINE
  8
ERSF.2a
  6
CONTINUOUS
 62
8
 10
3.6789311559477
 20
9.5947031950811
 11
3.6534594314915
 21
9.6094093020527
  0
LINE
  8
ERSF.2a
  6
CONTINUOUS
 62
8
 10
3.6789311559477
 20
9.5973771006828
 11
3.6534594314915
 21
9.6120832076543
  0
LINE
  8
ERSF.2a
  6
CONTINUOUS
 62
8
 10
3.6789311559477
 20
9.6000510062844
 11
3.6534594314915
 21
9.6147571132559
  0
LINE
  8
ERSF.2a
  6
CONTINUOUS
 62
8
 10
3.6789311559477
 20
9.602724911886
 11
3.6416576951728
 21
9.624244754498
  0
LINE
  8
ERSF.2a
  6
CONTINUOUS
 62
8
 10
3.6789311559477
 20
9.6053988174877
 11
3.6416576951728
 21
9.6269186600997
  0
LINE
  8
ERSF.2a
  6
CONTINUOUS
 62
8
 10
3.6789311559477
 20
9.6080727230893
 11
3.6416576951728
 21
9.6295925657013
  0
LINE
  8
ERSF.2a
  6
CONTINUOUS
 62
8
 10
3.6789311559477
 20
9.6107466286909
 11
3.6416576951728
 21
9.632266471303
  0
LINE
  8
ERSF.2a
  6
CONTINUOUS
 62
8
 10
3.6789311559477
 20
9.5652902334631
 11
3.6416576951728
 21
9.5868100760751
  0
LINE
  8
ERSF.2a
  6
CONTINUOUS
 62
8
 10
3.6789311559477
 20
9.5679641390647
 11
3.6416576951728
 21
9.5894839816768
  0
LINE
  8
ERSF.2a
  6
CONTINUOUS
 62
8
 10
3.6789311559477
 20
9.5706380446664
 11
3.6416576951728
 21
9.5921578872784
  0
LINE
  8
ERSF.2a
  6
CONTINUOUS
 62
8
 10
3.6789311559477
 20
9.573311950268
 11
3.6416576951728
 21
9.59483179288
  0
LINE
  8
ERSF.2a
  6
CONTINUOUS
 62
8
 10
3.6789311559477
 20
9.5759858558697
 11
3.6416576951728
 21
9.5975056984817
  0
LINE
  8
ERSF.2a
  6
CONTINUOUS
 62
8
 10
3.6789311559477
 20
9.5786597614713
 11
3.6416576951728
 21
9.6001796040833
  0
LINE
  8
ERSF.2a
  6
CONTINUOUS
 62
8
 10
3.6789311559477
 20
9.5813336670729
 11
3.6416576951728
 21
9.602853509685
  0
LINE
  8
ERSF.2a
  6
CONTINUOUS
 62
8
 10
3.6789311559477
 20
9.5840075726746
 11
3.6416576951728
 21
9.6055274152866
  0
LINE
  8
ERSF.2a
  6
CONTINUOUS
 62
8
 10
3.6789311559477
 20
9.5866814782762
 11
3.6416576951728
 21
9.6082013208882
  0
LINE
  8
ERSF.2a
  6
CONTINUOUS
 62
8
 10
3.6686248737773
 20
9.5471754178338
 11
3.6540915884888
 21
9.5555662140074
  0
LINE
  8
ERSF.2a
  6
CONTINUOUS
 62
8
 10
3.6715820033806
 20
9.548142023863
 11
3.6534594314915
 21
9.5586050956215
  0
LINE
  8
ERSF.2a
  6
CONTINUOUS
 62
8
 10
3.6738491086919
 20
9.5495070156028
 11
3.6534594314915
 21
9.5612790012232
  0
LINE
  8
ERSF.2a
  6
CONTINUOUS
 62
8
 10
3.6756407595457
 20
9.5511465111017
 11
3.6534594314915
 21
9.5639529068248
  0
LINE
  8
ERSF.2a
  6
CONTINUOUS
 62
8
 10
3.677039079393
 20
9.5530130963631
 11
3.6534594314915
 21
9.5666268124265
  0
LINE
  8
ERSF.2a
  6
CONTINUOUS
 62
8
 10
3.6780700791409
 20
9.5550917539828
 11
3.6534594314915
 21
9.5693007180281
  0
LINE
  8
ERSF.2a
  6
CONTINUOUS
 62
8
 10
3.6787203477321
 20
9.5573902268382
 11
3.6416576951728
 21
9.5787883592702
  0
LINE
  8
ERSF.2a
  6
CONTINUOUS
 62
8
 10
3.6789311559477
 20
9.5599424222598
 11
3.6416576951728
 21
9.5814622648719
  0
LINE
  8
ERSF.2a
  6
CONTINUOUS
 62
8
 10
3.6789311559477
 20
9.5626163278615
 11
3.6416576951728
 21
9.5841361704735
  0
LINE
  8
ERSF.2a
  6
CONTINUOUS
 62
8
 10
3.5409083956296
 20
10.051860921158
 11
3.5501883617092
 21
10.052818679221
  0
LINE
  8
ERSF.2a
  6
CONTINUOUS
 62
8
 10
3.5314815603826
 20
10.051822410633
 11
3.5409083956296
 21
10.051860921158
  0
LINE
  8
ERSF.2a
  6
CONTINUOUS
 62
8
 10
3.5221790488548
 20
10.052704255523
 11
3.5314815603826
 21
10.051822410633
  0
LINE
  8
ERSF.2a
  6
CONTINUOUS
 62
8
 10
3.5132684773657
 20
10.054481086757
 11
3.5221790488548
 21
10.052704255523
  0
LINE
  8
ERSF.2a
  6
CONTINUOUS
 62
8
 10
3.5050061868338
 20
10.057101788134
 11
3.5132684773657
 21
10.054481086757
  0
LINE
  8
ERSF.2a
  6
CONTINUOUS
 62
8
 10
3.4976298683144
 20
10.060490966847
 11
3.5050061868338
 21
10.057101788134
  0
LINE
  8
ERSF.2a
  6
CONTINUOUS
 62
8
 10
3.4913517250614
 20
10.064551122396
 11
3.4976298683144
 21
10.060490966847
  0
LINE
  8
ERSF.2a
  6
CONTINUOUS
 62
8
 10
3.4863523678255
 20
10.069165451498
 11
3.4913517250614
 21
10.064551122396
  0
LINE
  8
ERSF.2a
  6
CONTINUOUS
 62
8
 10
3.4827756190122
 20
10.074201208306
 11
3.4863523678255
 21
10.069165451498
  0
LINE
  8
ERSF.2a
  6
CONTINUOUS
 62
8
 10
3.4807243751726
 20
10.079513523265
 11
3.4827756190122
 21
10.074201208306
  0
LINE
  8
ERSF.2a
  6
CONTINUOUS
 62
8
 10
3.4802576468572
 20
10.084949570746
 11
3.4807243751726
 21
10.079513523265
  0
LINE
  8
ERSF.2a
  6
CONTINUOUS
 62
8
 10
3.4813888609901
 20
10.090352965559
 11
3.4802576468572
 21
10.084949570746
  0
LINE
  8
ERSF.2a
  6
CONTINUOUS
 62
8
 10
3.5913152340261
 20
10.085403263409
 11
3.5900516960386
 21
10.090796875177
  0
LINE
  8
ERSF.2a
  6
CONTINUOUS
 62
8
 10
3.590981789881
 20
10.079963947063
 11
3.5913152340261
 21
10.085403263409
  0
LINE
  8
ERSF.2a
  6
CONTINUOUS
 62
8
 10
3.5890609561842
 20
10.074635405365
 11
3.590981789881
 21
10.079963947063
  0
LINE
  8
ERSF.2a
  6
CONTINUOUS
 62
8
 10
3.5856079918239
 20
10.06957093076
 11
3.5890609561842
 21
10.074635405365
  0
LINE
  8
ERSF.2a
  6
CONTINUOUS
 62
8
 10
3.5807222322979
 20
10.06491621896
 11
3.5856079918239
 21
10.06957093076
  0
LINE
  8
ERSF.2a
  6
CONTINUOUS
 62
8
 10
3.5745442320124
 20
10.06080517755
 11
3.5807222322979
 21
10.06491621896
  0
LINE
  8
ERSF.2a
  6
CONTINUOUS
 62
8
 10
3.5672517207873
 20
10.057356073706
 11
3.5745442320124
 21
10.06080517755
  0
LINE
  8
ERSF.2a
  6
CONTINUOUS
 62
8
 10
3.5590544908931
 20
10.054668131865
 11
3.5672517207873
 21
10.057356073706
  0
LINE
  8
ERSF.2a
  6
CONTINUOUS
 62
8
 10
3.5501883617092
 20
10.052818679221
 11
3.5590544908931
 21
10.054668131865
  0
LINE
  8
ERSF.2a
  6
CONTINUOUS
 62
8
 10
3.5868229133305
 20
10.102252812251
 11
3.5900516960386
 21
10.090796875177
  0
LINE
  8
ERSF.2a
  6
CONTINUOUS
 62
8
 10
3.4846255169674
 20
10.101835315255
 11
3.4813888609901
 21
10.090352965559
  0
POLYLINE
  8
ERSF.2a
  6
CONTINUOUS
 62
8
 70
1
 66
1
  0
VERTEX
  8
ERSF.2a
  6
CONTINUOUS
 62
8
 10
3.5493314473937
 20
10.066534318954
  0
VERTEX
  8
ERSF.2a
  6
CONTINUOUS
 62
8
 10
3.5576700418912
 20
10.068273729166
  0
VERTEX
  8
ERSF.2a
  6
CONTINUOUS
 62
8
 10
3.5653795366067
 20
10.070801738467
  0
VERTEX
  8
ERSF.2a
  6
CONTINUOUS
 62
8
 10
3.572238143414
 20
10.074045620633
  0
VERTEX
  8
ERSF.2a
  6
CONTINUOUS
 62
8
 10
3.5780485526825
 20
10.077912055079
  0
VERTEX
  8
ERSF.2a
  6
CONTINUOUS
 62
8
 10
3.5826436095166
 20
10.082289811527
  0
VERTEX
  8
ERSF.2a
  6
CONTINUOUS
 62
8
 10
3.5858911224975
 20
10.087052949893
  0
VERTEX
  8
ERSF.2a
  6
CONTINUOUS
 62
8
 10
3.5876976665894
 20
10.092064443359
  0
VERTEX
  8
ERSF.2a
  6
CONTINUOUS
 62
8
 10
3.5880112708078
 20
10.097180120383
  0
VERTEX
  8
ERSF.2a
  6
CONTINUOUS
 62
8
 10
3.5868229133305
 20
10.102252812251
  0
VERTEX
  8
ERSF.2a
  6
CONTINUOUS
 62
8
 10
3.5841667810385
 20
10.107136586853
  0
VERTEX
  8
ERSF.2a
  6
CONTINUOUS
 62
8
 10
3.5801192860217
 20
10.111690946887
  0
VERTEX
  8
ERSF.2a
  6
CONTINUOUS
 62
8
 10
3.5747968673425
 20
10.115784871705
  0
VERTEX
  8
ERSF.2a
  6
CONTINUOUS
 62
8
 10
3.5683526412959
 20
10.119300586545
  0
VERTEX
  8
ERSF.2a
  6
CONTINUOUS
 62
8
 10
3.5609719965322
 20
10.122136950692
  0
VERTEX
  8
ERSF.2a
  6
CONTINUOUS
 62
8
 10
3.5528672607633
 20
10.124212367113
  0
VERTEX
  8
ERSF.2a
  6
CONTINUOUS
 62
8
 10
3.5442715924811
 20
10.125467129857
  0
VERTEX
  8
ERSF.2a
  6
CONTINUOUS
 62
8
 10
3.535432273412
 20
10.125865141685
  0
VERTEX
  8
ERSF.2a
  6
CONTINUOUS
 62
8
 10
3.5266035946719
 20
10.12539495252
  0
VERTEX
  8
ERSF.2a
  6
CONTINUOUS
 62
8
 10
3.5180395412738
 20
10.124070088848
  0
VERTEX
  8
ERSF.2a
  6
CONTINUOUS
 62
8
 10
3.5099864854414
 20
10.121928664586
  0
VERTEX
  8
ERSF.2a
  6
CONTINUOUS
 62
8
 10
3.5026760989288
 20
10.119032284611
  0
VERTEX
  8
ERSF.2a
  6
CONTINUOUS
 62
8
 10
3.4963186882461
 20
10.1154642725
  0
VERTEX
  8
ERSF.2a
  6
CONTINUOUS
 62
8
 10
3.4910971445237
 20
10.111327273467
  0
VERTEX
  8
ERSF.2a
  6
CONTINUOUS
 62
8
 10
3.4871616820676
 20
10.106740301441
  0
VERTEX
  8
ERSF.2a
  6
CONTINUOUS
 62
8
 10
3.4846255169674
 20
10.101835315255
  0
VERTEX
  8
ERSF.2a
  6
CONTINUOUS
 62
8
 10
3.4835616100755
 20
10.096753422433
  0
VERTEX
  8
ERSF.2a
  6
CONTINUOUS
 62
8
 10
3.4840005680561
 20
10.091640819778
  0
VERTEX
  8
ERSF.2a
  6
CONTINUOUS
 62
8
 10
3.4859297628872
 20
10.086644587559
  0
VERTEX
  8
ERSF.2a
  6
CONTINUOUS
 62
8
 10
3.4892936951462
 20
10.081908458281
  0
VERTEX
  8
ERSF.2a
  6
CONTINUOUS
 62
8
 10
3.4939955906265
 20
10.077568681761
  0
VERTEX
  8
ERSF.2a
  6
CONTINUOUS
 62
8
 10
3.499900184356
 20
10.073750105467
  0
VERTEX
  8
ERSF.2a
  6
CONTINUOUS
 62
8
 10
3.5068376119234
 20
10.070562582886
  0
VERTEX
  8
ERSF.2a
  6
CONTINUOUS
 62
8
 10
3.5146082961687
 20
10.068097813241
  0
VERTEX
  8
ERSF.2a
  6
CONTINUOUS
 62
8
 10
3.5229886886542
 20
10.066426703467
  0
VERTEX
  8
ERSF.2a
  6
CONTINUOUS
 62
8
 10
3.5317377007461
 20
10.065597328347
  0
VERTEX
  8
ERSF.2a
  6
CONTINUOUS
 62
8
 10
3.5406036392959
 20
10.065633547496
  0
VERTEX
  8
ERSF.2a
  6
CONTINUOUS
 62
8
 10
3.5493314473937
 20
10.066534318954
  0
SEQEND
  0
LINE
  8
ERSF.2a
  6
CONTINUOUS
 62
8
 10
3.6993920997102
 20
10.141884691857
 11
3.7086720657898
 21
10.142842449919
  0
LINE
  8
ERSF.2a
  6
CONTINUOUS
 62
8
 10
3.6899652644632
 20
10.141846181332
 11
3.6993920997102
 21
10.141884691857
  0
LINE
  8
ERSF.2a
  6
CONTINUOUS
 62
8
 10
3.6806627529354
 20
10.142728026222
 11
3.6899652644632
 21
10.141846181332
  0
LINE
  8
ERSF.2a
  6
CONTINUOUS
 62
8
 10
3.6717521814463
 20
10.144504857455
 11
3.6806627529354
 21
10.142728026222
  0
LINE
  8
ERSF.2a
  6
CONTINUOUS
 62
8
 10
3.6634898909144
 20
10.147125558832
 11
3.6717521814463
 21
10.144504857455
  0
LINE
  8
ERSF.2a
  6
CONTINUOUS
 62
8
 10
3.656113572395
 20
10.150514737545
 11
3.6634898909144
 21
10.147125558832
  0
LINE
  8
ERSF.2a
  6
CONTINUOUS
 62
8
 10
3.649835429142
 20
10.154574893095
 11
3.656113572395
 21
10.150514737545
  0
LINE
  8
ERSF.2a
  6
CONTINUOUS
 62
8
 10
3.6448360719061
 20
10.159189222197
 11
3.649835429142
 21
10.154574893095
  0
LINE
  8
ERSF.2a
  6
CONTINUOUS
 62
8
 10
3.6412593230928
 20
10.164224979004
 11
3.6448360719061
 21
10.159189222197
  0
LINE
  8
ERSF.2a
  6
CONTINUOUS
 62
8
 10
3.6392080792532
 20
10.169537293963
 11
3.6412593230928
 21
10.164224979004
  0
LINE
  8
ERSF.2a
  6
CONTINUOUS
 62
8
 10
3.6387413509378
 20
10.174973341444
 11
3.6392080792532
 21
10.169537293963
  0
LINE
  8
ERSF.2a
  6
CONTINUOUS
 62
8
 10
3.6398725650707
 20
10.180376736258
 11
3.6387413509378
 21
10.174973341444
  0
LINE
  8
ERSF.2a
  6
CONTINUOUS
 62
8
 10
3.7497989381067
 20
10.175427034108
 11
3.7485354001192
 21
10.180820645876
  0
LINE
  8
ERSF.2a
  6
CONTINUOUS
 62
8
 10
3.7494654939616
 20
10.169987717761
 11
3.7497989381067
 21
10.175427034108
  0
LINE
  8
ERSF.2a
  6
CONTINUOUS
 62
8
 10
3.7475446602648
 20
10.164659176063
 11
3.7494654939616
 21
10.169987717761
  0
LINE
  8
ERSF.2a
  6
CONTINUOUS
 62
8
 10
3.7440916959045
 20
10.159594701458
 11
3.7475446602648
 21
10.164659176063
  0
LINE
  8
ERSF.2a
  6
CONTINUOUS
 62
8
 10
3.7392059363785
 20
10.154939989659
 11
3.7440916959045
 21
10.159594701458
  0
LINE
  8
ERSF.2a
  6
CONTINUOUS
 62
8
 10
3.733027936093
 20
10.150828948248
 11
3.7392059363785
 21
10.154939989659
  0
LINE
  8
ERSF.2a
  6
CONTINUOUS
 62
8
 10
3.7257354248679
 20
10.147379844404
 11
3.733027936093
 21
10.150828948248
  0
LINE
  8
ERSF.2a
  6
CONTINUOUS
 62
8
 10
3.7175381949737
 20
10.144691902563
 11
3.7257354248679
 21
10.147379844404
  0
LINE
  8
ERSF.2a
  6
CONTINUOUS
 62
8
 10
3.7086720657898
 20
10.142842449919
 11
3.7175381949737
 21
10.144691902563
  0
LINE
  8
ERSF.2a
  6
CONTINUOUS
 62
8
 10
3.7453066174112
 20
10.192276582949
 11
3.7485354001192
 21
10.180820645876
  0
LINE
  8
ERSF.2a
  6
CONTINUOUS
 62
8
 10
3.6431092210481
 20
10.191859085954
 11
3.6398725650707
 21
10.180376736258
  0
POLYLINE
  8
ERSF.2a
  6
CONTINUOUS
 62
8
 70
1
 66
1
  0
VERTEX
  8
ERSF.2a
  6
CONTINUOUS
 62
8
 10
3.7078151514744
 20
10.156558089652
  0
VERTEX
  8
ERSF.2a
  6
CONTINUOUS
 62
8
 10
3.7161537459718
 20
10.158297499864
  0
VERTEX
  8
ERSF.2a
  6
CONTINUOUS
 62
8
 10
3.7238632406874
 20
10.160825509165
  0
VERTEX
  8
ERSF.2a
  6
CONTINUOUS
 62
8
 10
3.7307218474946
 20
10.164069391331
  0
VERTEX
  8
ERSF.2a
  6
CONTINUOUS
 62
8
 10
3.7365322567631
 20
10.167935825777
  0
VERTEX
  8
ERSF.2a
  6
CONTINUOUS
 62
8
 10
3.7411273135973
 20
10.172313582225
  0
VERTEX
  8
ERSF.2a
  6
CONTINUOUS
 62
8
 10
3.7443748265781
 20
10.177076720591
  0
VERTEX
  8
ERSF.2a
  6
CONTINUOUS
 62
8
 10
3.74618137067
 20
10.182088214058
  0
VERTEX
  8
ERSF.2a
  6
CONTINUOUS
 62
8
 10
3.7464949748884
 20
10.187203891082
  0
VERTEX
  8
ERSF.2a
  6
CONTINUOUS
 62
8
 10
3.7453066174112
 20
10.192276582949
  0
VERTEX
  8
ERSF.2a
  6
CONTINUOUS
 62
8
 10
3.7426504851191
 20
10.197160357552
  0
VERTEX
  8
ERSF.2a
  6
CONTINUOUS
 62
8
 10
3.7386029901023
 20
10.201714717585
  0
VERTEX
  8
ERSF.2a
  6
CONTINUOUS
 62
8
 10
3.7332805714231
 20
10.205808642403
  0
VERTEX
  8
ERSF.2a
  6
CONTINUOUS
 62
8
 10
3.7268363453765
 20
10.209324357243
  0
VERTEX
  8
ERSF.2a
  6
CONTINUOUS
 62
8
 10
3.7194557006128
 20
10.21216072139
  0
VERTEX
  8
ERSF.2a
  6
CONTINUOUS
 62
8
 10
3.7113509648439
 20
10.214236137811
  0
VERTEX
  8
ERSF.2a
  6
CONTINUOUS
 62
8
 10
3.7027552965618
 20
10.215490900556
  0
VERTEX
  8
ERSF.2a
  6
CONTINUOUS
 62
8
 10
3.6939159774927
 20
10.215888912383
  0
VERTEX
  8
ERSF.2a
  6
CONTINUOUS
 62
8
 10
3.6850872987525
 20
10.215418723218
  0
VERTEX
  8
ERSF.2a
  6
CONTINUOUS
 62
8
 10
3.6765232453544
 20
10.214093859546
  0
VERTEX
  8
ERSF.2a
  6
CONTINUOUS
 62
8
 10
3.668470189522
 20
10.211952435284
  0
VERTEX
  8
ERSF.2a
  6
CONTINUOUS
 62
8
 10
3.6611598030095
 20
10.209056055309
  0
VERTEX
  8
ERSF.2a
  6
CONTINUOUS
 62
8
 10
3.6548023923268
 20
10.205488043198
  0
VERTEX
  8
ERSF.2a
  6
CONTINUOUS
 62
8
 10
3.6495808486043
 20
10.201351044165
  0
VERTEX
  8
ERSF.2a
  6
CONTINUOUS
 62
8
 10
3.6456453861482
 20
10.196764072139
  0
VERTEX
  8
ERSF.2a
  6
CONTINUOUS
 62
8
 10
3.6431092210481
 20
10.191859085954
  0
VERTEX
  8
ERSF.2a
  6
CONTINUOUS
 62
8
 10
3.6420453141561
 20
10.186777193131
  0
VERTEX
  8
ERSF.2a
  6
CONTINUOUS
 62
8
 10
3.6424842721367
 20
10.181664590476
  0
VERTEX
  8
ERSF.2a
  6
CONTINUOUS
 62
8
 10
3.6444134669678
 20
10.176668358257
  0
VERTEX
  8
ERSF.2a
  6
CONTINUOUS
 62
8
 10
3.6477773992268
 20
10.171932228979
  0
VERTEX
  8
ERSF.2a
  6
CONTINUOUS
 62
8
 10
3.6524792947071
 20
10.167592452459
  0
VERTEX
  8
ERSF.2a
  6
CONTINUOUS
 62
8
 10
3.6583838884366
 20
10.163773876165
  0
VERTEX
  8
ERSF.2a
  6
CONTINUOUS
 62
8
 10
3.665321316004
 20
10.160586353585
  0
VERTEX
  8
ERSF.2a
  6
CONTINUOUS
 62
8
 10
3.6730920002494
 20
10.15812158394
  0
VERTEX
  8
ERSF.2a
  6
CONTINUOUS
 62
8
 10
3.6814723927348
 20
10.156450474165
  0
VERTEX
  8
ERSF.2a
  6
CONTINUOUS
 62
8
 10
3.6902214048267
 20
10.155621099046
  0
VERTEX
  8
ERSF.2a
  6
CONTINUOUS
 62
8
 10
3.6990873433766
 20
10.155657318195
  0
VERTEX
  8
ERSF.2a
  6
CONTINUOUS
 62
8
 10
3.7078151514744
 20
10.156558089652
  0
SEQEND
  0
LINE
  8
ERSF.2a
  6
CONTINUOUS
 62
8
 10
3.8578758037909
 20
10.231908462555
 11
3.8671557698704
 21
10.232866220617
  0
LINE
  8
ERSF.2a
  6
CONTINUOUS
 62
8
 10
3.8484489685438
 20
10.23186995203
 11
3.8578758037909
 21
10.231908462555
  0
LINE
  8
ERSF.2a
  6
CONTINUOUS
 62
8
 10
3.839146457016
 20
10.23275179692
 11
3.8484489685438
 21
10.23186995203
  0
LINE
  8
ERSF.2a
  6
CONTINUOUS
 62
8
 10
3.8302358855269
 20
10.234528628153
 11
3.839146457016
 21
10.23275179692
  0
LINE
  8
ERSF.2a
  6
CONTINUOUS
 62
8
 10
3.821973594995
 20
10.23714932953
 11
3.8302358855269
 21
10.234528628153
  0
LINE
  8
ERSF.2a
  6
CONTINUOUS
 62
8
 10
3.8145972764756
 20
10.240538508244
 11
3.821973594995
 21
10.23714932953
  0
LINE
  8
ERSF.2a
  6
CONTINUOUS
 62
8
 10
3.8083191332226
 20
10.244598663793
 11
3.8145972764756
 21
10.240538508244
  0
LINE
  8
ERSF.2a
  6
CONTINUOUS
 62
8
 10
3.8033197759867
 20
10.249212992895
 11
3.8083191332226
 21
10.244598663793
  0
LINE
  8
ERSF.2a
  6
CONTINUOUS
 62
8
 10
3.7997430271734
 20
10.254248749703
 11
3.8033197759867
 21
10.249212992895
  0
LINE
  8
ERSF.2a
  6
CONTINUOUS
 62
8
 10
3.7976917833338
 20
10.259561064661
 11
3.7997430271734
 21
10.254248749703
  0
LINE
  8
ERSF.2a
  6
CONTINUOUS
 62
8
 10
3.7972250550185
 20
10.264997112142
 11
3.7976917833338
 21
10.259561064661
  0
LINE
  8
ERSF.2a
  6
CONTINUOUS
 62
8
 10
3.7983562691513
 20
10.270400506956
 11
3.7972250550185
 21
10.264997112142
  0
LINE
  8
ERSF.2a
  6
CONTINUOUS
 62
8
 10
3.9082826421873
 20
10.265450804806
 11
3.9070191041998
 21
10.270844416574
  0
LINE
  8
ERSF.2a
  6
CONTINUOUS
 62
8
 10
3.9079491980422
 20
10.260011488459
 11
3.9082826421873
 21
10.265450804806
  0
LINE
  8
ERSF.2a
  6
CONTINUOUS
 62
8
 10
3.9060283643454
 20
10.254682946762
 11
3.9079491980422
 21
10.260011488459
  0
LINE
  8
ERSF.2a
  6
CONTINUOUS
 62
8
 10
3.9025753999851
 20
10.249618472156
 11
3.9060283643454
 21
10.254682946762
  0
LINE
  8
ERSF.2a
  6
CONTINUOUS
 62
8
 10
3.8976896404592
 20
10.244963760357
 11
3.9025753999851
 21
10.249618472156
  0
LINE
  8
ERSF.2a
  6
CONTINUOUS
 62
8
 10
3.8915116401737
 20
10.240852718947
 11
3.8976896404592
 21
10.244963760357
  0
LINE
  8
ERSF.2a
  6
CONTINUOUS
 62
8
 10
3.8842191289485
 20
10.237403615102
 11
3.8915116401737
 21
10.240852718947
  0
LINE
  8
ERSF.2a
  6
CONTINUOUS
 62
8
 10
3.8760218990543
 20
10.234715673262
 11
3.8842191289485
 21
10.237403615102
  0
LINE
  8
ERSF.2a
  6
CONTINUOUS
 62
8
 10
3.8671557698704
 20
10.232866220617
 11
3.8760218990543
 21
10.234715673262
  0
LINE
  8
ERSF.2a
  6
CONTINUOUS
 62
8
 10
3.9037903214918
 20
10.282300353648
 11
3.9070191041998
 21
10.270844416574
  0
LINE
  8
ERSF.2a
  6
CONTINUOUS
 62
8
 10
3.8015929251287
 20
10.281882856652
 11
3.7983562691513
 21
10.270400506956
  0
POLYLINE
  8
ERSF.2a
  6
CONTINUOUS
 62
8
 70
1
 66
1
  0
VERTEX
  8
ERSF.2a
  6
CONTINUOUS
 62
8
 10
3.866298855555
 20
10.246581860351
  0
VERTEX
  8
ERSF.2a
  6
CONTINUOUS
 62
8
 10
3.8746374500525
 20
10.248321270562
  0
VERTEX
  8
ERSF.2a
  6
CONTINUOUS
 62
8
 10
3.882346944768
 20
10.250849279864
  0
VERTEX
  8
ERSF.2a
  6
CONTINUOUS
 62
8
 10
3.8892055515752
 20
10.254093162029
  0
VERTEX
  8
ERSF.2a
  6
CONTINUOUS
 62
8
 10
3.8950159608437
 20
10.257959596476
  0
VERTEX
  8
ERSF.2a
  6
CONTINUOUS
 62
8
 10
3.8996110176779
 20
10.262337352923
  0
VERTEX
  8
ERSF.2a
  6
CONTINUOUS
 62
8
 10
3.9028585306587
 20
10.267100491289
  0
VERTEX
  8
ERSF.2a
  6
CONTINUOUS
 62
8
 10
3.9046650747506
 20
10.272111984756
  0
VERTEX
  8
ERSF.2a
  6
CONTINUOUS
 62
8
 10
3.9049786789691
 20
10.27722766178
  0
VERTEX
  8
ERSF.2a
  6
CONTINUOUS
 62
8
 10
3.9037903214918
 20
10.282300353648
  0
VERTEX
  8
ERSF.2a
  6
CONTINUOUS
 62
8
 10
3.9011341891997
 20
10.28718412825
  0
VERTEX
  8
ERSF.2a
  6
CONTINUOUS
 62
8
 10
3.8970866941829
 20
10.291738488283
  0
VERTEX
  8
ERSF.2a
  6
CONTINUOUS
 62
8
 10
3.8917642755037
 20
10.295832413101
  0
VERTEX
  8
ERSF.2a
  6
CONTINUOUS
 62
8
 10
3.8853200494571
 20
10.299348127941
  0
VERTEX
  8
ERSF.2a
  6
CONTINUOUS
 62
8
 10
3.8779394046934
 20
10.302184492088
  0
VERTEX
  8
ERSF.2a
  6
CONTINUOUS
 62
8
 10
3.8698346689245
 20
10.30425990851
  0
VERTEX
  8
ERSF.2a
  6
CONTINUOUS
 62
8
 10
3.8612390006424
 20
10.305514671254
  0
VERTEX
  8
ERSF.2a
  6
CONTINUOUS
 62
8
 10
3.8523996815733
 20
10.305912683081
  0
VERTEX
  8
ERSF.2a
  6
CONTINUOUS
 62
8
 10
3.8435710028331
 20
10.305442493916
  0
VERTEX
  8
ERSF.2a
  6
CONTINUOUS
 62
8
 10
3.835006949435
 20
10.304117630245
  0
VERTEX
  8
ERSF.2a
  6
CONTINUOUS
 62
8
 10
3.8269538936026
 20
10.301976205983
  0
VERTEX
  8
ERSF.2a
  6
CONTINUOUS
 62
8
 10
3.8196435070901
 20
10.299079826007
  0
VERTEX
  8
ERSF.2a
  6
CONTINUOUS
 62
8
 10
3.8132860964074
 20
10.295511813897
  0
VERTEX
  8
ERSF.2a
  6
CONTINUOUS
 62
8
 10
3.808064552685
 20
10.291374814863
  0
VERTEX
  8
ERSF.2a
  6
CONTINUOUS
 62
8
 10
3.8041290902289
 20
10.286787842837
  0
VERTEX
  8
ERSF.2a
  6
CONTINUOUS
 62
8
 10
3.8015929251287
 20
10.281882856652
  0
VERTEX
  8
ERSF.2a
  6
CONTINUOUS
 62
8
 10
3.8005290182367
 20
10.27680096383
  0
VERTEX
  8
ERSF.2a
  6
CONTINUOUS
 62
8
 10
3.8009679762173
 20
10.271688361174
  0
VERTEX
  8
ERSF.2a
  6
CONTINUOUS
 62
8
 10
3.8028971710485
 20
10.266692128955
  0
VERTEX
  8
ERSF.2a
  6
CONTINUOUS
 62
8
 10
3.8062611033074
 20
10.261955999677
  0
VERTEX
  8
ERSF.2a
  6
CONTINUOUS
 62
8
 10
3.8109629987877
 20
10.257616223157
  0
VERTEX
  8
ERSF.2a
  6
CONTINUOUS
 62
8
 10
3.8168675925172
 20
10.253797646863
  0
VERTEX
  8
ERSF.2a
  6
CONTINUOUS
 62
8
 10
3.8238050200847
 20
10.250610124283
  0
VERTEX
  8
ERSF.2a
  6
CONTINUOUS
 62
8
 10
3.83157570433
 20
10.248145354638
  0
VERTEX
  8
ERSF.2a
  6
CONTINUOUS
 62
8
 10
3.8399560968154
 20
10.246474244863
  0
VERTEX
  8
ERSF.2a
  6
CONTINUOUS
 62
8
 10
3.8487051089074
 20
10.245644869744
  0
VERTEX
  8
ERSF.2a
  6
CONTINUOUS
 62
8
 10
3.8575710474572
 20
10.245681088893
  0
VERTEX
  8
ERSF.2a
  6
CONTINUOUS
 62
8
 10
3.866298855555
 20
10.246581860351
  0
SEQEND
  0
LINE
  8
ERSF.2a
  6
CONTINUOUS
 62
8
 10
4.0163595078715
 20
10.321932233253
 11
4.025639473951
 21
10.322889991316
  0
LINE
  8
ERSF.2a
  6
CONTINUOUS
 62
8
 10
4.0069326726245
 20
10.321893722728
 11
4.0163595078715
 21
10.321932233253
  0
LINE
  8
ERSF.2a
  6
CONTINUOUS
 62
8
 10
3.9976301610966
 20
10.322775567618
 11
4.0069326726245
 21
10.321893722728
  0
LINE
  8
ERSF.2a
  6
CONTINUOUS
 62
8
 10
3.9887195896076
 20
10.324552398851
 11
3.9976301610966
 21
10.322775567618
  0
LINE
  8
ERSF.2a
  6
CONTINUOUS
 62
8
 10
3.9804572990756
 20
10.327173100228
 11
3.9887195896076
 21
10.324552398851
  0
LINE
  8
ERSF.2a
  6
CONTINUOUS
 62
8
 10
3.9730809805562
 20
10.330562278942
 11
3.9804572990756
 21
10.327173100228
  0
LINE
  8
ERSF.2a
  6
CONTINUOUS
 62
8
 10
3.9668028373032
 20
10.334622434491
 11
3.9730809805562
 21
10.330562278942
  0
LINE
  8
ERSF.2a
  6
CONTINUOUS
 62
8
 10
3.9618034800673
 20
10.339236763593
 11
3.9668028373032
 21
10.334622434491
  0
LINE
  8
ERSF.2a
  6
CONTINUOUS
 62
8
 10
3.958226731254
 20
10.344272520401
 11
3.9618034800673
 21
10.339236763593
  0
LINE
  8
ERSF.2a
  6
CONTINUOUS
 62
8
 10
3.9561754874144
 20
10.34958483536
 11
3.958226731254
 21
10.344272520401
  0
LINE
  8
ERSF.2a
  6
CONTINUOUS
 62
8
 10
3.9557087590991
 20
10.35502088284
 11
3.9561754874144
 21
10.34958483536
  0
LINE
  8
ERSF.2a
  6
CONTINUOUS
 62
8
 10
3.9568399732319
 20
10.360424277654
 11
3.9557087590991
 21
10.35502088284
  0
LINE
  8
ERSF.2a
  6
CONTINUOUS
 62
8
 10
4.0667663462679
 20
10.355474575504
 11
4.0655028082804
 21
10.360868187272
  0
LINE
  8
ERSF.2a
  6
CONTINUOUS
 62
8
 10
4.0664329021228
 20
10.350035259157
 11
4.0667663462679
 21
10.355474575504
  0
LINE
  8
ERSF.2a
  6
CONTINUOUS
 62
8
 10
4.064512068426
 20
10.34470671746
 11
4.0664329021228
 21
10.350035259157
  0
LINE
  8
ERSF.2a
  6
CONTINUOUS
 62
8
 10
4.0610591040657
 20
10.339642242855
 11
4.064512068426
 21
10.34470671746
  0
LINE
  8
ERSF.2a
  6
CONTINUOUS
 62
8
 10
4.0561733445398
 20
10.334987531055
 11
4.0610591040657
 21
10.339642242855
  0
LINE
  8
ERSF.2a
  6
CONTINUOUS
 62
8
 10
4.0499953442543
 20
10.330876489645
 11
4.0561733445398
 21
10.334987531055
  0
LINE
  8
ERSF.2a
  6
CONTINUOUS
 62
8
 10
4.0427028330291
 20
10.327427385801
 11
4.0499953442543
 21
10.330876489645
  0
LINE
  8
ERSF.2a
  6
CONTINUOUS
 62
8
 10
4.0345056031349
 20
10.32473944396
 11
4.0427028330291
 21
10.327427385801
  0
LINE
  8
ERSF.2a
  6
CONTINUOUS
 62
8
 10
4.025639473951
 20
10.322889991316
 11
4.0345056031349
 21
10.32473944396
  0
LINE
  8
ERSF.2a
  6
CONTINUOUS
 62
8
 10
4.0622740255724
 20
10.372324124346
 11
4.0655028082804
 21
10.360868187272
  0
LINE
  8
ERSF.2a
  6
CONTINUOUS
 62
8
 10
3.9600766292093
 20
10.37190662735
 11
3.9568399732319
 21
10.360424277654
  0
POLYLINE
  8
ERSF.2a
  6
CONTINUOUS
 62
8
 70
1
 66
1
  0
VERTEX
  8
ERSF.2a
  6
CONTINUOUS
 62
8
 10
4.0247825596356
 20
10.336605631049
  0
VERTEX
  8
ERSF.2a
  6
CONTINUOUS
 62
8
 10
4.0331211541331
 20
10.338345041261
  0
VERTEX
  8
ERSF.2a
  6
CONTINUOUS
 62
8
 10
4.0408306488486
 20
10.340873050562
  0
VERTEX
  8
ERSF.2a
  6
CONTINUOUS
 62
8
 10
4.0476892556558
 20
10.344116932728
  0
VERTEX
  8
ERSF.2a
  6
CONTINUOUS
 62
8
 10
4.0534996649243
 20
10.347983367174
  0
VERTEX
  8
ERSF.2a
  6
CONTINUOUS
 62
8
 10
4.0580947217585
 20
10.352361123621
  0
VERTEX
  8
ERSF.2a
  6
CONTINUOUS
 62
8
 10
4.0613422347394
 20
10.357124261988
  0
VERTEX
  8
ERSF.2a
  6
CONTINUOUS
 62
8
 10
4.0631487788312
 20
10.362135755454
  0
VERTEX
  8
ERSF.2a
  6
CONTINUOUS
 62
8
 10
4.0634623830497
 20
10.367251432478
  0
VERTEX
  8
ERSF.2a
  6
CONTINUOUS
 62
8
 10
4.0622740255724
 20
10.372324124346
  0
VERTEX
  8
ERSF.2a
  6
CONTINUOUS
 62
8
 10
4.0596178932803
 20
10.377207898948
  0
VERTEX
  8
ERSF.2a
  6
CONTINUOUS
 62
8
 10
4.0555703982635
 20
10.381762258981
  0
VERTEX
  8
ERSF.2a
  6
CONTINUOUS
 62
8
 10
4.0502479795844
 20
10.3858561838
  0
VERTEX
  8
ERSF.2a
  6
CONTINUOUS
 62
8
 10
4.0438037535377
 20
10.38937189864
  0
VERTEX
  8
ERSF.2a
  6
CONTINUOUS
 62
8
 10
4.036423108774
 20
10.392208262787
  0
VERTEX
  8
ERSF.2a
  6
CONTINUOUS
 62
8
 10
4.0283183730052
 20
10.394283679208
  0
VERTEX
  8
ERSF.2a
  6
CONTINUOUS
 62
8
 10
4.019722704723
 20
10.395538441952
  0
VERTEX
  8
ERSF.2a
  6
CONTINUOUS
 62
8
 10
4.0108833856539
 20
10.395936453779
  0
VERTEX
  8
ERSF.2a
  6
CONTINUOUS
 62
8
 10
4.0020547069138
 20
10.395466264614
  0
VERTEX
  8
ERSF.2a
  6
CONTINUOUS
 62
8
 10
3.9934906535156
 20
10.394141400943
  0
VERTEX
  8
ERSF.2a
  6
CONTINUOUS
 62
8
 10
3.9854375976832
 20
10.391999976681
  0
VERTEX
  8
ERSF.2a
  6
CONTINUOUS
 62
8
 10
3.9781272111707
 20
10.389103596705
  0
VERTEX
  8
ERSF.2a
  6
CONTINUOUS
 62
8
 10
3.971769800488
 20
10.385535584595
  0
VERTEX
  8
ERSF.2a
  6
CONTINUOUS
 62
8
 10
3.9665482567656
 20
10.381398585562
  0
VERTEX
  8
ERSF.2a
  6
CONTINUOUS
 62
8
 10
3.9626127943095
 20
10.376811613536
  0
VERTEX
  8
ERSF.2a
  6
CONTINUOUS
 62
8
 10
3.9600766292093
 20
10.37190662735
  0
VERTEX
  8
ERSF.2a
  6
CONTINUOUS
 62
8
 10
3.9590127223174
 20
10.366824734528
  0
VERTEX
  8
ERSF.2a
  6
CONTINUOUS
 62
8
 10
3.9594516802979
 20
10.361712131872
  0
VERTEX
  8
ERSF.2a
  6
CONTINUOUS
 62
8
 10
3.9613808751291
 20
10.356715899653
  0
VERTEX
  8
ERSF.2a
  6
CONTINUOUS
 62
8
 10
3.964744807388
 20
10.351979770376
  0
VERTEX
  8
ERSF.2a
  6
CONTINUOUS
 62
8
 10
3.9694467028683
 20
10.347639993855
  0
VERTEX
  8
ERSF.2a
  6
CONTINUOUS
 62
8
 10
3.9753512965978
 20
10.343821417561
  0
VERTEX
  8
ERSF.2a
  6
CONTINUOUS
 62
8
 10
3.9822887241653
 20
10.340633894981
  0
VERTEX
  8
ERSF.2a
  6
CONTINUOUS
 62
8
 10
3.9900594084106
 20
10.338169125336
  0
VERTEX
  8
ERSF.2a
  6
CONTINUOUS
 62
8
 10
3.998439800896
 20
10.336498015561
  0
VERTEX
  8
ERSF.2a
  6
CONTINUOUS
 62
8
 10
4.007188812988
 20
10.335668640442
  0
VERTEX
  8
ERSF.2a
  6
CONTINUOUS
 62
8
 10
4.0160547515378
 20
10.335704859591
  0
VERTEX
  8
ERSF.2a
  6
CONTINUOUS
 62
8
 10
4.0247825596356
 20
10.336605631049
  0
SEQEND
  0
LINE
  8
ERSF.2a
  6
CONTINUOUS
 62
8
 10
3.2245765911094
 20
10.05297079374
 11
3.233856557189
 21
10.053928551803
  0
LINE
  8
ERSF.2a
  6
CONTINUOUS
 62
8
 10
3.2151497558624
 20
10.052932283215
 11
3.2245765911094
 21
10.05297079374
  0
LINE
  8
ERSF.2a
  6
CONTINUOUS
 62
8
 10
3.2058472443346
 20
10.053814128105
 11
3.2151497558624
 21
10.052932283215
  0
LINE
  8
ERSF.2a
  6
CONTINUOUS
 62
8
 10
3.1969366728455
 20
10.055590959338
 11
3.2058472443346
 21
10.053814128105
  0
LINE
  8
ERSF.2a
  6
CONTINUOUS
 62
8
 10
3.1886743823136
 20
10.058211660715
 11
3.1969366728455
 21
10.055590959338
  0
LINE
  8
ERSF.2a
  6
CONTINUOUS
 62
8
 10
3.1812980637942
 20
10.061600839429
 11
3.1886743823136
 21
10.058211660715
  0
LINE
  8
ERSF.2a
  6
CONTINUOUS
 62
8
 10
3.1750199205412
 20
10.065660994978
 11
3.1812980637942
 21
10.061600839429
  0
LINE
  8
ERSF.2a
  6
CONTINUOUS
 62
8
 10
3.1700205633053
 20
10.07027532408
 11
3.1750199205412
 21
10.065660994978
  0
LINE
  8
ERSF.2a
  6
CONTINUOUS
 62
8
 10
3.166443814492
 20
10.075311080888
 11
3.1700205633053
 21
10.07027532408
  0
LINE
  8
ERSF.2a
  6
CONTINUOUS
 62
8
 10
3.1643925706524
 20
10.080623395847
 11
3.166443814492
 21
10.075311080888
  0
LINE
  8
ERSF.2a
  6
CONTINUOUS
 62
8
 10
3.163925842337
 20
10.086059443327
 11
3.1643925706524
 21
10.080623395847
  0
LINE
  8
ERSF.2a
  6
CONTINUOUS
 62
8
 10
3.1650570564699
 20
10.091462838141
 11
3.163925842337
 21
10.086059443327
  0
LINE
  8
ERSF.2a
  6
CONTINUOUS
 62
8
 10
3.2749834295059
 20
10.086513135991
 11
3.2737198915184
 21
10.091906747759
  0
LINE
  8
ERSF.2a
  6
CONTINUOUS
 62
8
 10
3.2746499853608
 20
10.081073819644
 11
3.2749834295059
 21
10.086513135991
  0
LINE
  8
ERSF.2a
  6
CONTINUOUS
 62
8
 10
3.272729151664
 20
10.075745277947
 11
3.2746499853608
 21
10.081073819644
  0
LINE
  8
ERSF.2a
  6
CONTINUOUS
 62
8
 10
3.2692761873037
 20
10.070680803342
 11
3.272729151664
 21
10.075745277947
  0
LINE
  8
ERSF.2a
  6
CONTINUOUS
 62
8
 10
3.2643904277777
 20
10.066026091542
 11
3.2692761873037
 21
10.070680803342
  0
LINE
  8
ERSF.2a
  6
CONTINUOUS
 62
8
 10
3.2582124274922
 20
10.061915050132
 11
3.2643904277777
 21
10.066026091542
  0
LINE
  8
ERSF.2a
  6
CONTINUOUS
 62
8
 10
3.2509199162671
 20
10.058465946287
 11
3.2582124274922
 21
10.061915050132
  0
LINE
  8
ERSF.2a
  6
CONTINUOUS
 62
8
 10
3.2427226863729
 20
10.055778004447
 11
3.2509199162671
 21
10.058465946287
  0
LINE
  8
ERSF.2a
  6
CONTINUOUS
 62
8
 10
3.233856557189
 20
10.053928551803
 11
3.2427226863729
 21
10.055778004447
  0
LINE
  8
ERSF.2a
  6
CONTINUOUS
 62
8
 10
3.2704911088104
 20
10.103362684833
 11
3.2737198915184
 21
10.091906747759
  0
LINE
  8
ERSF.2a
  6
CONTINUOUS
 62
8
 10
3.1682937124473
 20
10.102945187837
 11
3.1650570564699
 21
10.091462838141
  0
POLYLINE
  8
ERSF.2a
  6
CONTINUOUS
 62
8
 70
1
 66
1
  0
VERTEX
  8
ERSF.2a
  6
CONTINUOUS
 62
8
 10
3.2329996428736
 20
10.067644191536
  0
VERTEX
  8
ERSF.2a
  6
CONTINUOUS
 62
8
 10
3.241338237371
 20
10.069383601748
  0
VERTEX
  8
ERSF.2a
  6
CONTINUOUS
 62
8
 10
3.2490477320866
 20
10.071911611049
  0
VERTEX
  8
ERSF.2a
  6
CONTINUOUS
 62
8
 10
3.2559063388938
 20
10.075155493214
  0
VERTEX
  8
ERSF.2a
  6
CONTINUOUS
 62
8
 10
3.2617167481623
 20
10.079021927661
  0
VERTEX
  8
ERSF.2a
  6
CONTINUOUS
 62
8
 10
3.2663118049965
 20
10.083399684108
  0
VERTEX
  8
ERSF.2a
  6
CONTINUOUS
 62
8
 10
3.2695593179773
 20
10.088162822474
  0
VERTEX
  8
ERSF.2a
  6
CONTINUOUS
 62
8
 10
3.2713658620692
 20
10.093174315941
  0
VERTEX
  8
ERSF.2a
  6
CONTINUOUS
 62
8
 10
3.2716794662876
 20
10.098289992965
  0
VERTEX
  8
ERSF.2a
  6
CONTINUOUS
 62
8
 10
3.2704911088104
 20
10.103362684833
  0
VERTEX
  8
ERSF.2a
  6
CONTINUOUS
 62
8
 10
3.2678349765183
 20
10.108246459435
  0
VERTEX
  8
ERSF.2a
  6
CONTINUOUS
 62
8
 10
3.2637874815015
 20
10.112800819468
  0
VERTEX
  8
ERSF.2a
  6
CONTINUOUS
 62
8
 10
3.2584650628223
 20
10.116894744287
  0
VERTEX
  8
ERSF.2a
  6
CONTINUOUS
 62
8
 10
3.2520208367757
 20
10.120410459127
  0
VERTEX
  8
ERSF.2a
  6
CONTINUOUS
 62
8
 10
3.244640192012
 20
10.123246823273
  0
VERTEX
  8
ERSF.2a
  6
CONTINUOUS
 62
8
 10
3.2365354562431
 20
10.125322239695
  0
VERTEX
  8
ERSF.2a
  6
CONTINUOUS
 62
8
 10
3.227939787961
 20
10.126577002439
  0
VERTEX
  8
ERSF.2a
  6
CONTINUOUS
 62
8
 10
3.2191004688919
 20
10.126975014266
  0
VERTEX
  8
ERSF.2a
  6
CONTINUOUS
 62
8
 10
3.2102717901517
 20
10.126504825101
  0
VERTEX
  8
ERSF.2a
  6
CONTINUOUS
 62
8
 10
3.2017077367536
 20
10.12517996143
  0
VERTEX
  8
ERSF.2a
  6
CONTINUOUS
 62
8
 10
3.1936546809212
 20
10.123038537168
  0
VERTEX
  8
ERSF.2a
  6
CONTINUOUS
 62
8
 10
3.1863442944087
 20
10.120142157192
  0
VERTEX
  8
ERSF.2a
  6
CONTINUOUS
 62
8
 10
3.179986883726
 20
10.116574145082
  0
VERTEX
  8
ERSF.2a
  6
CONTINUOUS
 62
8
 10
3.1747653400035
 20
10.112437146049
  0
VERTEX
  8
ERSF.2a
  6
CONTINUOUS
 62
8
 10
3.1708298775474
 20
10.107850174022
  0
VERTEX
  8
ERSF.2a
  6
CONTINUOUS
 62
8
 10
3.1682937124473
 20
10.102945187837
  0
VERTEX
  8
ERSF.2a
  6
CONTINUOUS
 62
8
 10
3.1672298055553
 20
10.097863295015
  0
VERTEX
  8
ERSF.2a
  6
CONTINUOUS
 62
8
 10
3.1676687635359
 20
10.092750692359
  0
VERTEX
  8
ERSF.2a
  6
CONTINUOUS
 62
8
 10
3.169597958367
 20
10.08775446014
  0
VERTEX
  8
ERSF.2a
  6
CONTINUOUS
 62
8
 10
3.172961890626
 20
10.083018330863
  0
VERTEX
  8
ERSF.2a
  6
CONTINUOUS
 62
8
 10
3.1776637861063
 20
10.078678554342
  0
VERTEX
  8
ERSF.2a
  6
CONTINUOUS
 62
8
 10
3.1835683798358
 20
10.074859978048
  0
VERTEX
  8
ERSF.2a
  6
CONTINUOUS
 62
8
 10
3.1905058074032
 20
10.071672455468
  0
VERTEX
  8
ERSF.2a
  6
CONTINUOUS
 62
8
 10
3.1982764916486
 20
10.069207685823
  0
VERTEX
  8
ERSF.2a
  6
CONTINUOUS
 62
8
 10
3.206656884134
 20
10.067536576048
  0
VERTEX
  8
ERSF.2a
  6
CONTINUOUS
 62
8
 10
3.2154058962259
 20
10.066707200929
  0
VERTEX
  8
ERSF.2a
  6
CONTINUOUS
 62
8
 10
3.2242718347758
 20
10.066743420078
  0
VERTEX
  8
ERSF.2a
  6
CONTINUOUS
 62
8
 10
3.2329996428736
 20
10.067644191536
  0
SEQEND
  0
LINE
  8
ERSF.2a
  6
CONTINUOUS
 62
8
 10
3.3830602951901
 20
10.142994564438
 11
3.3923402612696
 21
10.143952322501
  0
LINE
  8
ERSF.2a
  6
CONTINUOUS
 62
8
 10
3.373633459943
 20
10.142956053913
 11
3.3830602951901
 21
10.142994564438
  0
LINE
  8
ERSF.2a
  6
CONTINUOUS
 62
8
 10
3.3643309484152
 20
10.143837898803
 11
3.373633459943
 21
10.142956053913
  0
LINE
  8
ERSF.2a
  6
CONTINUOUS
 62
8
 10
3.3554203769261
 20
10.145614730037
 11
3.3643309484152
 21
10.143837898803
  0
LINE
  8
ERSF.2a
  6
CONTINUOUS
 62
8
 10
3.3471580863942
 20
10.148235431413
 11
3.3554203769261
 21
10.145614730037
  0
LINE
  8
ERSF.2a
  6
CONTINUOUS
 62
8
 10
3.3397817678748
 20
10.151624610127
 11
3.3471580863942
 21
10.148235431413
  0
LINE
  8
ERSF.2a
  6
CONTINUOUS
 62
8
 10
3.3335036246218
 20
10.155684765676
 11
3.3397817678748
 21
10.151624610127
  0
LINE
  8
ERSF.2a
  6
CONTINUOUS
 62
8
 10
3.3285042673859
 20
10.160299094778
 11
3.3335036246218
 21
10.155684765676
  0
LINE
  8
ERSF.2a
  6
CONTINUOUS
 62
8
 10
3.3249275185726
 20
10.165334851586
 11
3.3285042673859
 21
10.160299094778
  0
LINE
  8
ERSF.2a
  6
CONTINUOUS
 62
8
 10
3.322876274733
 20
10.170647166545
 11
3.3249275185726
 21
10.165334851586
  0
LINE
  8
ERSF.2a
  6
CONTINUOUS
 62
8
 10
3.3224095464177
 20
10.176083214025
 11
3.322876274733
 21
10.170647166545
  0
LINE
  8
ERSF.2a
  6
CONTINUOUS
 62
8
 10
3.3235407605505
 20
10.181486608839
 11
3.3224095464177
 21
10.176083214025
  0
LINE
  8
ERSF.2a
  6
CONTINUOUS
 62
8
 10
3.4334671335865
 20
10.176536906689
 11
3.432203595599
 21
10.181930518457
  0
LINE
  8
ERSF.2a
  6
CONTINUOUS
 62
8
 10
3.4331336894414
 20
10.171097590343
 11
3.4334671335865
 21
10.176536906689
  0
LINE
  8
ERSF.2a
  6
CONTINUOUS
 62
8
 10
3.4312128557446
 20
10.165769048645
 11
3.4331336894414
 21
10.171097590343
  0
LINE
  8
ERSF.2a
  6
CONTINUOUS
 62
8
 10
3.4277598913843
 20
10.16070457404
 11
3.4312128557446
 21
10.165769048645
  0
LINE
  8
ERSF.2a
  6
CONTINUOUS
 62
8
 10
3.4228741318584
 20
10.15604986224
 11
3.4277598913843
 21
10.16070457404
  0
LINE
  8
ERSF.2a
  6
CONTINUOUS
 62
8
 10
3.4166961315729
 20
10.15193882083
 11
3.4228741318584
 21
10.15604986224
  0
LINE
  8
ERSF.2a
  6
CONTINUOUS
 62
8
 10
3.4094036203477
 20
10.148489716986
 11
3.4166961315729
 21
10.15193882083
  0
LINE
  8
ERSF.2a
  6
CONTINUOUS
 62
8
 10
3.4012063904535
 20
10.145801775145
 11
3.4094036203477
 21
10.148489716986
  0
LINE
  8
ERSF.2a
  6
CONTINUOUS
 62
8
 10
3.3923402612696
 20
10.143952322501
 11
3.4012063904535
 21
10.145801775145
  0
LINE
  8
ERSF.2a
  6
CONTINUOUS
 62
8
 10
3.428974812891
 20
10.193386455531
 11
3.432203595599
 21
10.181930518457
  0
LINE
  8
ERSF.2a
  6
CONTINUOUS
 62
8
 10
3.3267774165279
 20
10.192968958535
 11
3.3235407605505
 21
10.181486608839
  0
POLYLINE
  8
ERSF.2a
  6
CONTINUOUS
 62
8
 70
1
 66
1
  0
VERTEX
  8
ERSF.2a
  6
CONTINUOUS
 62
8
 10
3.3914833469542
 20
10.157667962234
  0
VERTEX
  8
ERSF.2a
  6
CONTINUOUS
 62
8
 10
3.3998219414517
 20
10.159407372446
  0
VERTEX
  8
ERSF.2a
  6
CONTINUOUS
 62
8
 10
3.4075314361672
 20
10.161935381747
  0
VERTEX
  8
ERSF.2a
  6
CONTINUOUS
 62
8
 10
3.4143900429744
 20
10.165179263913
  0
VERTEX
  8
ERSF.2a
  6
CONTINUOUS
 62
8
 10
3.4202004522429
 20
10.169045698359
  0
VERTEX
  8
ERSF.2a
  6
CONTINUOUS
 62
8
 10
3.4247955090771
 20
10.173423454806
  0
VERTEX
  8
ERSF.2a
  6
CONTINUOUS
 62
8
 10
3.4280430220579
 20
10.178186593173
  0
VERTEX
  8
ERSF.2a
  6
CONTINUOUS
 62
8
 10
3.4298495661498
 20
10.183198086639
  0
VERTEX
  8
ERSF.2a
  6
CONTINUOUS
 62
8
 10
3.4301631703683
 20
10.188313763663
  0
VERTEX
  8
ERSF.2a
  6
CONTINUOUS
 62
8
 10
3.428974812891
 20
10.193386455531
  0
VERTEX
  8
ERSF.2a
  6
CONTINUOUS
 62
8
 10
3.4263186805989
 20
10.198270230133
  0
VERTEX
  8
ERSF.2a
  6
CONTINUOUS
 62
8
 10
3.4222711855821
 20
10.202824590166
  0
VERTEX
  8
ERSF.2a
  6
CONTINUOUS
 62
8
 10
3.4169487669029
 20
10.206918514985
  0
VERTEX
  8
ERSF.2a
  6
CONTINUOUS
 62
8
 10
3.4105045408563
 20
10.210434229825
  0
VERTEX
  8
ERSF.2a
  6
CONTINUOUS
 62
8
 10
3.4031238960926
 20
10.213270593972
  0
VERTEX
  8
ERSF.2a
  6
CONTINUOUS
 62
8
 10
3.3950191603237
 20
10.215346010393
  0
VERTEX
  8
ERSF.2a
  6
CONTINUOUS
 62
8
 10
3.3864234920416
 20
10.216600773137
  0
VERTEX
  8
ERSF.2a
  6
CONTINUOUS
 62
8
 10
3.3775841729725
 20
10.216998784965
  0
VERTEX
  8
ERSF.2a
  6
CONTINUOUS
 62
8
 10
3.3687554942323
 20
10.216528595799
  0
VERTEX
  8
ERSF.2a
  6
CONTINUOUS
 62
8
 10
3.3601914408342
 20
10.215203732128
  0
VERTEX
  8
ERSF.2a
  6
CONTINUOUS
 62
8
 10
3.3521383850018
 20
10.213062307866
  0
VERTEX
  8
ERSF.2a
  6
CONTINUOUS
 62
8
 10
3.3448279984893
 20
10.210165927891
  0
VERTEX
  8
ERSF.2a
  6
CONTINUOUS
 62
8
 10
3.3384705878066
 20
10.20659791578
  0
VERTEX
  8
ERSF.2a
  6
CONTINUOUS
 62
8
 10
3.3332490440842
 20
10.202460916747
  0
VERTEX
  8
ERSF.2a
  6
CONTINUOUS
 62
8
 10
3.3293135816281
 20
10.197873944721
  0
VERTEX
  8
ERSF.2a
  6
CONTINUOUS
 62
8
 10
3.3267774165279
 20
10.192968958535
  0
VERTEX
  8
ERSF.2a
  6
CONTINUOUS
 62
8
 10
3.3257135096359
 20
10.187887065713
  0
VERTEX
  8
ERSF.2a
  6
CONTINUOUS
 62
8
 10
3.3261524676165
 20
10.182774463057
  0
VERTEX
  8
ERSF.2a
  6
CONTINUOUS
 62
8
 10
3.3280816624477
 20
10.177778230839
  0
VERTEX
  8
ERSF.2a
  6
CONTINUOUS
 62
8
 10
3.3314455947066
 20
10.173042101561
  0
VERTEX
  8
ERSF.2a
  6
CONTINUOUS
 62
8
 10
3.3361474901869
 20
10.16870232504
  0
VERTEX
  8
ERSF.2a
  6
CONTINUOUS
 62
8
 10
3.3420520839164
 20
10.164883748746
  0
VERTEX
  8
ERSF.2a
  6
CONTINUOUS
 62
8
 10
3.3489895114839
 20
10.161696226166
  0
VERTEX
  8
ERSF.2a
  6
CONTINUOUS
 62
8
 10
3.3567601957292
 20
10.159231456521
  0
VERTEX
  8
ERSF.2a
  6
CONTINUOUS
 62
8
 10
3.3651405882146
 20
10.157560346746
  0
VERTEX
  8
ERSF.2a
  6
CONTINUOUS
 62
8
 10
3.3738896003066
 20
10.156730971627
  0
VERTEX
  8
ERSF.2a
  6
CONTINUOUS
 62
8
 10
3.3827555388564
 20
10.156767190776
  0
VERTEX
  8
ERSF.2a
  6
CONTINUOUS
 62
8
 10
3.3914833469542
 20
10.157667962234
  0
SEQEND
  0
LINE
  8
ERSF.2a
  6
CONTINUOUS
 62
8
 10
3.5415439992707
 20
10.233018335137
 11
3.5508239653502
 21
10.233976093199
  0
LINE
  8
ERSF.2a
  6
CONTINUOUS
 62
8
 10
3.5321171640237
 20
10.232979824611
 11
3.5415439992707
 21
10.233018335137
  0
LINE
  8
ERSF.2a
  6
CONTINUOUS
 62
8
 10
3.5228146524958
 20
10.233861669502
 11
3.5321171640237
 21
10.232979824611
  0
LINE
  8
ERSF.2a
  6
CONTINUOUS
 62
8
 10
3.5139040810068
 20
10.235638500735
 11
3.5228146524958
 21
10.233861669502
  0
LINE
  8
ERSF.2a
  6
CONTINUOUS
 62
8
 10
3.5056417904748
 20
10.238259202112
 11
3.5139040810068
 21
10.235638500735
  0
LINE
  8
ERSF.2a
  6
CONTINUOUS
 62
8
 10
3.4982654719554
 20
10.241648380825
 11
3.5056417904748
 21
10.238259202112
  0
LINE
  8
ERSF.2a
  6
CONTINUOUS
 62
8
 10
3.4919873287024
 20
10.245708536374
 11
3.4982654719554
 21
10.241648380825
  0
LINE
  8
ERSF.2a
  6
CONTINUOUS
 62
8
 10
3.4869879714665
 20
10.250322865476
 11
3.4919873287024
 21
10.245708536374
  0
LINE
  8
ERSF.2a
  6
CONTINUOUS
 62
8
 10
3.4834112226532
 20
10.255358622284
 11
3.4869879714665
 21
10.250322865476
  0
LINE
  8
ERSF.2a
  6
CONTINUOUS
 62
8
 10
3.4813599788136
 20
10.260670937243
 11
3.4834112226532
 21
10.255358622284
  0
LINE
  8
ERSF.2a
  6
CONTINUOUS
 62
8
 10
3.4808932504983
 20
10.266106984724
 11
3.4813599788136
 21
10.260670937243
  0
LINE
  8
ERSF.2a
  6
CONTINUOUS
 62
8
 10
3.4820244646311
 20
10.271510379538
 11
3.4808932504983
 21
10.266106984724
  0
LINE
  8
ERSF.2a
  6
CONTINUOUS
 62
8
 10
3.5919508376671
 20
10.266560677387
 11
3.5906872996796
 21
10.271954289155
  0
LINE
  8
ERSF.2a
  6
CONTINUOUS
 62
8
 10
3.591617393522
 20
10.261121361041
 11
3.5919508376671
 21
10.266560677387
  0
LINE
  8
ERSF.2a
  6
CONTINUOUS
 62
8
 10
3.5896965598252
 20
10.255792819343
 11
3.591617393522
 21
10.261121361041
  0
LINE
  8
ERSF.2a
  6
CONTINUOUS
 62
8
 10
3.5862435954649
 20
10.250728344738
 11
3.5896965598252
 21
10.255792819343
  0
LINE
  8
ERSF.2a
  6
CONTINUOUS
 62
8
 10
3.581357835939
 20
10.246073632938
 11
3.5862435954649
 21
10.250728344738
  0
LINE
  8
ERSF.2a
  6
CONTINUOUS
 62
8
 10
3.5751798356535
 20
10.241962591528
 11
3.581357835939
 21
10.246073632938
  0
LINE
  8
ERSF.2a
  6
CONTINUOUS
 62
8
 10
3.5678873244283
 20
10.238513487684
 11
3.5751798356535
 21
10.241962591528
  0
LINE
  8
ERSF.2a
  6
CONTINUOUS
 62
8
 10
3.5596900945341
 20
10.235825545843
 11
3.5678873244283
 21
10.238513487684
  0
LINE
  8
ERSF.2a
  6
CONTINUOUS
 62
8
 10
3.5508239653502
 20
10.233976093199
 11
3.5596900945341
 21
10.235825545843
  0
LINE
  8
ERSF.2a
  6
CONTINUOUS
 62
8
 10
3.5874585169716
 20
10.283410226229
 11
3.5906872996796
 21
10.271954289155
  0
LINE
  8
ERSF.2a
  6
CONTINUOUS
 62
8
 10
3.4852611206085
 20
10.282992729234
 11
3.4820244646311
 21
10.271510379538
  0
POLYLINE
  8
ERSF.2a
  6
CONTINUOUS
 62
8
 70
1
 66
1
  0
VERTEX
  8
ERSF.2a
  6
CONTINUOUS
 62
8
 10
3.5499670510348
 20
10.247691732932
  0
VERTEX
  8
ERSF.2a
  6
CONTINUOUS
 62
8
 10
3.5583056455323
 20
10.249431143144
  0
VERTEX
  8
ERSF.2a
  6
CONTINUOUS
 62
8
 10
3.5660151402478
 20
10.251959152445
  0
VERTEX
  8
ERSF.2a
  6
CONTINUOUS
 62
8
 10
3.572873747055
 20
10.255203034611
  0
VERTEX
  8
ERSF.2a
  6
CONTINUOUS
 62
8
 10
3.5786841563235
 20
10.259069469057
  0
VERTEX
  8
ERSF.2a
  6
CONTINUOUS
 62
8
 10
3.5832792131577
 20
10.263447225505
  0
VERTEX
  8
ERSF.2a
  6
CONTINUOUS
 62
8
 10
3.5865267261386
 20
10.268210363871
  0
VERTEX
  8
ERSF.2a
  6
CONTINUOUS
 62
8
 10
3.5883332702304
 20
10.273221857337
  0
VERTEX
  8
ERSF.2a
  6
CONTINUOUS
 62
8
 10
3.5886468744489
 20
10.278337534361
  0
VERTEX
  8
ERSF.2a
  6
CONTINUOUS
 62
8
 10
3.5874585169716
 20
10.283410226229
  0
VERTEX
  8
ERSF.2a
  6
CONTINUOUS
 62
8
 10
3.5848023846795
 20
10.288294000831
  0
VERTEX
  8
ERSF.2a
  6
CONTINUOUS
 62
8
 10
3.5807548896627
 20
10.292848360865
  0
VERTEX
  8
ERSF.2a
  6
CONTINUOUS
 62
8
 10
3.5754324709835
 20
10.296942285683
  0
VERTEX
  8
ERSF.2a
  6
CONTINUOUS
 62
8
 10
3.5689882449369
 20
10.300458000523
  0
VERTEX
  8
ERSF.2a
  6
CONTINUOUS
 62
8
 10
3.5616076001732
 20
10.30329436467
  0
VERTEX
  8
ERSF.2a
  6
CONTINUOUS
 62
8
 10
3.5535028644044
 20
10.305369781091
  0
VERTEX
  8
ERSF.2a
  6
CONTINUOUS
 62
8
 10
3.5449071961222
 20
10.306624543835
  0
VERTEX
  8
ERSF.2a
  6
CONTINUOUS
 62
8
 10
3.5360678770531
 20
10.307022555663
  0
VERTEX
  8
ERSF.2a
  6
CONTINUOUS
 62
8
 10
3.527239198313
 20
10.306552366498
  0
VERTEX
  8
ERSF.2a
  6
CONTINUOUS
 62
8
 10
3.5186751449148
 20
10.305227502826
  0
VERTEX
  8
ERSF.2a
  6
CONTINUOUS
 62
8
 10
3.5106220890824
 20
10.303086078564
  0
VERTEX
  8
ERSF.2a
  6
CONTINUOUS
 62
8
 10
3.5033117025699
 20
10.300189698589
  0
VERTEX
  8
ERSF.2a
  6
CONTINUOUS
 62
8
 10
3.4969542918872
 20
10.296621686478
  0
VERTEX
  8
ERSF.2a
  6
CONTINUOUS
 62
8
 10
3.4917327481648
 20
10.292484687445
  0
VERTEX
  8
ERSF.2a
  6
CONTINUOUS
 62
8
 10
3.4877972857087
 20
10.287897715419
  0
VERTEX
  8
ERSF.2a
  6
CONTINUOUS
 62
8
 10
3.4852611206085
 20
10.282992729234
  0
VERTEX
  8
ERSF.2a
  6
CONTINUOUS
 62
8
 10
3.4841972137166
 20
10.277910836411
  0
VERTEX
  8
ERSF.2a
  6
CONTINUOUS
 62
8
 10
3.4846361716971
 20
10.272798233756
  0
VERTEX
  8
ERSF.2a
  6
CONTINUOUS
 62
8
 10
3.4865653665283
 20
10.267802001537
  0
VERTEX
  8
ERSF.2a
  6
CONTINUOUS
 62
8
 10
3.4899292987872
 20
10.263065872259
  0
VERTEX
  8
ERSF.2a
  6
CONTINUOUS
 62
8
 10
3.4946311942675
 20
10.258726095739
  0
VERTEX
  8
ERSF.2a
  6
CONTINUOUS
 62
8
 10
3.500535787997
 20
10.254907519445
  0
VERTEX
  8
ERSF.2a
  6
CONTINUOUS
 62
8
 10
3.5074732155645
 20
10.251719996865
  0
VERTEX
  8
ERSF.2a
  6
CONTINUOUS
 62
8
 10
3.5152438998098
 20
10.24925522722
  0
VERTEX
  8
ERSF.2a
  6
CONTINUOUS
 62
8
 10
3.5236242922952
 20
10.247584117445
  0
VERTEX
  8
ERSF.2a
  6
CONTINUOUS
 62
8
 10
3.5323733043872
 20
10.246754742326
  0
VERTEX
  8
ERSF.2a
  6
CONTINUOUS
 62
8
 10
3.541239242937
 20
10.246790961474
  0
VERTEX
  8
ERSF.2a
  6
CONTINUOUS
 62
8
 10
3.5499670510348
 20
10.247691732932
  0
SEQEND
  0
LINE
  8
ERSF.2a
  6
CONTINUOUS
 62
8
 10
3.7000277033513
 20
10.323042105835
 11
3.7093076694308
 21
10.323999863897
  0
LINE
  8
ERSF.2a
  6
CONTINUOUS
 62
8
 10
3.6906008681043
 20
10.32300359531
 11
3.7000277033513
 21
10.323042105835
  0
LINE
  8
ERSF.2a
  6
CONTINUOUS
 62
8
 10
3.6812983565764
 20
10.3238854402
 11
3.6906008681043
 21
10.32300359531
  0
LINE
  8
ERSF.2a
  6
CONTINUOUS
 62
8
 10
3.6723877850874
 20
10.325662271433
 11
3.6812983565764
 21
10.3238854402
  0
LINE
  8
ERSF.2a
  6
CONTINUOUS
 62
8
 10
3.6641254945554
 20
10.32828297281
 11
3.6723877850874
 21
10.325662271433
  0
LINE
  8
ERSF.2a
  6
CONTINUOUS
 62
8
 10
3.656749176036
 20
10.331672151523
 11
3.6641254945554
 21
10.32828297281
  0
LINE
  8
ERSF.2a
  6
CONTINUOUS
 62
8
 10
3.650471032783
 20
10.335732307073
 11
3.656749176036
 21
10.331672151523
  0
LINE
  8
ERSF.2a
  6
CONTINUOUS
 62
8
 10
3.6454716755472
 20
10.340346636175
 11
3.650471032783
 21
10.335732307073
  0
LINE
  8
ERSF.2a
  6
CONTINUOUS
 62
8
 10
3.6418949267338
 20
10.345382392982
 11
3.6454716755472
 21
10.340346636175
  0
LINE
  8
ERSF.2a
  6
CONTINUOUS
 62
8
 10
3.6398436828942
 20
10.350694707941
 11
3.6418949267338
 21
10.345382392982
  0
LINE
  8
ERSF.2a
  6
CONTINUOUS
 62
8
 10
3.6393769545789
 20
10.356130755422
 11
3.6398436828942
 21
10.350694707941
  0
LINE
  8
ERSF.2a
  6
CONTINUOUS
 62
8
 10
3.6405081687117
 20
10.361534150236
 11
3.6393769545789
 21
10.356130755422
  0
LINE
  8
ERSF.2a
  6
CONTINUOUS
 62
8
 10
3.7504345417478
 20
10.356584448086
 11
3.7491710037602
 21
10.361978059854
  0
LINE
  8
ERSF.2a
  6
CONTINUOUS
 62
8
 10
3.7501010976027
 20
10.351145131739
 11
3.7504345417478
 21
10.356584448086
  0
LINE
  8
ERSF.2a
  6
CONTINUOUS
 62
8
 10
3.7481802639058
 20
10.345816590042
 11
3.7501010976027
 21
10.351145131739
  0
LINE
  8
ERSF.2a
  6
CONTINUOUS
 62
8
 10
3.7447272995455
 20
10.340752115436
 11
3.7481802639058
 21
10.345816590042
  0
LINE
  8
ERSF.2a
  6
CONTINUOUS
 62
8
 10
3.7398415400196
 20
10.336097403637
 11
3.7447272995455
 21
10.340752115436
  0
LINE
  8
ERSF.2a
  6
CONTINUOUS
 62
8
 10
3.7336635397341
 20
10.331986362227
 11
3.7398415400196
 21
10.336097403637
  0
LINE
  8
ERSF.2a
  6
CONTINUOUS
 62
8
 10
3.726371028509
 20
10.328537258382
 11
3.7336635397341
 21
10.331986362227
  0
LINE
  8
ERSF.2a
  6
CONTINUOUS
 62
8
 10
3.7181737986147
 20
10.325849316541
 11
3.726371028509
 21
10.328537258382
  0
LINE
  8
ERSF.2a
  6
CONTINUOUS
 62
8
 10
3.7093076694308
 20
10.323999863897
 11
3.7181737986147
 21
10.325849316541
  0
LINE
  8
ERSF.2a
  6
CONTINUOUS
 62
8
 10
3.7459422210522
 20
10.373433996927
 11
3.7491710037602
 21
10.361978059854
  0
LINE
  8
ERSF.2a
  6
CONTINUOUS
 62
8
 10
3.6437448246891
 20
10.373016499932
 11
3.6405081687117
 21
10.361534150236
  0
POLYLINE
  8
ERSF.2a
  6
CONTINUOUS
 62
8
 70
1
 66
1
  0
VERTEX
  8
ERSF.2a
  6
CONTINUOUS
 62
8
 10
3.7084507551154
 20
10.33771550363
  0
VERTEX
  8
ERSF.2a
  6
CONTINUOUS
 62
8
 10
3.7167893496129
 20
10.339454913842
  0
VERTEX
  8
ERSF.2a
  6
CONTINUOUS
 62
8
 10
3.7244988443284
 20
10.341982923144
  0
VERTEX
  8
ERSF.2a
  6
CONTINUOUS
 62
8
 10
3.7313574511356
 20
10.345226805309
  0
VERTEX
  8
ERSF.2a
  6
CONTINUOUS
 62
8
 10
3.7371678604041
 20
10.349093239755
  0
VERTEX
  8
ERSF.2a
  6
CONTINUOUS
 62
8
 10
3.7417629172383
 20
10.353470996203
  0
VERTEX
  8
ERSF.2a
  6
CONTINUOUS
 62
8
 10
3.7450104302192
 20
10.358234134569
  0
VERTEX
  8
ERSF.2a
  6
CONTINUOUS
 62
8
 10
3.746816974311
 20
10.363245628036
  0
VERTEX
  8
ERSF.2a
  6
CONTINUOUS
 62
8
 10
3.7471305785295
 20
10.36836130506
  0
VERTEX
  8
ERSF.2a
  6
CONTINUOUS
 62
8
 10
3.7459422210522
 20
10.373433996927
  0
VERTEX
  8
ERSF.2a
  6
CONTINUOUS
 62
8
 10
3.7432860887601
 20
10.37831777153
  0
VERTEX
  8
ERSF.2a
  6
CONTINUOUS
 62
8
 10
3.7392385937433
 20
10.382872131563
  0
VERTEX
  8
ERSF.2a
  6
CONTINUOUS
 62
8
 10
3.7339161750642
 20
10.386966056381
  0
VERTEX
  8
ERSF.2a
  6
CONTINUOUS
 62
8
 10
3.7274719490175
 20
10.390481771221
  0
VERTEX
  8
ERSF.2a
  6
CONTINUOUS
 62
8
 10
3.7200913042538
 20
10.393318135368
  0
VERTEX
  8
ERSF.2a
  6
CONTINUOUS
 62
8
 10
3.711986568485
 20
10.39539355179
  0
VERTEX
  8
ERSF.2a
  6
CONTINUOUS
 62
8
 10
3.7033909002028
 20
10.396648314534
  0
VERTEX
  8
ERSF.2a
  6
CONTINUOUS
 62
8
 10
3.6945515811337
 20
10.397046326361
  0
VERTEX
  8
ERSF.2a
  6
CONTINUOUS
 62
8
 10
3.6857229023936
 20
10.396576137196
  0
VERTEX
  8
ERSF.2a
  6
CONTINUOUS
 62
8
 10
3.6771588489954
 20
10.395251273524
  0
VERTEX
  8
ERSF.2a
  6
CONTINUOUS
 62
8
 10
3.669105793163
 20
10.393109849262
  0
VERTEX
  8
ERSF.2a
  6
CONTINUOUS
 62
8
 10
3.6617954066505
 20
10.390213469287
  0
VERTEX
  8
ERSF.2a
  6
CONTINUOUS
 62
8
 10
3.6554379959678
 20
10.386645457177
  0
VERTEX
  8
ERSF.2a
  6
CONTINUOUS
 62
8
 10
3.6502164522454
 20
10.382508458143
  0
VERTEX
  8
ERSF.2a
  6
CONTINUOUS
 62
8
 10
3.6462809897893
 20
10.377921486117
  0
VERTEX
  8
ERSF.2a
  6
CONTINUOUS
 62
8
 10
3.6437448246891
 20
10.373016499932
  0
VERTEX
  8
ERSF.2a
  6
CONTINUOUS
 62
8
 10
3.6426809177972
 20
10.367934607109
  0
VERTEX
  8
ERSF.2a
  6
CONTINUOUS
 62
8
 10
3.6431198757777
 20
10.362822004454
  0
VERTEX
  8
ERSF.2a
  6
CONTINUOUS
 62
8
 10
3.6450490706089
 20
10.357825772235
  0
VERTEX
  8
ERSF.2a
  6
CONTINUOUS
 62
8
 10
3.6484130028678
 20
10.353089642957
  0
VERTEX
  8
ERSF.2a
  6
CONTINUOUS
 62
8
 10
3.6531148983482
 20
10.348749866437
  0
VERTEX
  8
ERSF.2a
  6
CONTINUOUS
 62
8
 10
3.6590194920776
 20
10.344931290143
  0
VERTEX
  8
ERSF.2a
  6
CONTINUOUS
 62
8
 10
3.6659569196451
 20
10.341743767563
  0
VERTEX
  8
ERSF.2a
  6
CONTINUOUS
 62
8
 10
3.6737276038904
 20
10.339278997918
  0
VERTEX
  8
ERSF.2a
  6
CONTINUOUS
 62
8
 10
3.6821079963758
 20
10.337607888143
  0
VERTEX
  8
ERSF.2a
  6
CONTINUOUS
 62
8
 10
3.6908570084678
 20
10.336778513024
  0
VERTEX
  8
ERSF.2a
  6
CONTINUOUS
 62
8
 10
3.6997229470176
 20
10.336814732173
  0
VERTEX
  8
ERSF.2a
  6
CONTINUOUS
 62
8
 10
3.7084507551154
 20
10.33771550363
  0
SEQEND
  0
LINE
  8
ERSF.2a
  6
CONTINUOUS
 62
8
 10
3.8585114074319
 20
10.413065876533
 11
3.8677913735114
 21
10.414023634595
  0
LINE
  8
ERSF.2a
  6
CONTINUOUS
 62
8
 10
3.8490845721849
 20
10.413027366008
 11
3.8585114074319
 21
10.413065876533
  0
LINE
  8
ERSF.2a
  6
CONTINUOUS
 62
8
 10
3.839782060657
 20
10.413909210898
 11
3.8490845721849
 21
10.413027366008
  0
LINE
  8
ERSF.2a
  6
CONTINUOUS
 62
8
 10
3.830871489168
 20
10.415686042131
 11
3.839782060657
 21
10.413909210898
  0
LINE
  8
ERSF.2a
  6
CONTINUOUS
 62
8
 10
3.822609198636
 20
10.418306743508
 11
3.830871489168
 21
10.415686042131
  0
LINE
  8
ERSF.2a
  6
CONTINUOUS
 62
8
 10
3.8152328801167
 20
10.421695922222
 11
3.822609198636
 21
10.418306743508
  0
LINE
  8
ERSF.2a
  6
CONTINUOUS
 62
8
 10
3.8089547368636
 20
10.425756077771
 11
3.8152328801167
 21
10.421695922222
  0
LINE
  8
ERSF.2a
  6
CONTINUOUS
 62
8
 10
3.8039553796278
 20
10.430370406873
 11
3.8089547368636
 21
10.425756077771
  0
LINE
  8
ERSF.2a
  6
CONTINUOUS
 62
8
 10
3.8003786308144
 20
10.435406163681
 11
3.8039553796278
 21
10.430370406873
  0
LINE
  8
ERSF.2a
  6
CONTINUOUS
 62
8
 10
3.7983273869748
 20
10.44071847864
 11
3.8003786308144
 21
10.435406163681
  0
LINE
  8
ERSF.2a
  6
CONTINUOUS
 62
8
 10
3.7978606586595
 20
10.44615452612
 11
3.7983273869748
 21
10.44071847864
  0
LINE
  8
ERSF.2a
  6
CONTINUOUS
 62
8
 10
3.7989918727923
 20
10.451557920934
 11
3.7978606586595
 21
10.44615452612
  0
LINE
  8
ERSF.2a
  6
CONTINUOUS
 62
8
 10
3.9089182458284
 20
10.446608218784
 11
3.9076547078408
 21
10.452001830552
  0
LINE
  8
ERSF.2a
  6
CONTINUOUS
 62
8
 10
3.9085848016833
 20
10.441168902437
 11
3.9089182458284
 21
10.446608218784
  0
LINE
  8
ERSF.2a
  6
CONTINUOUS
 62
8
 10
3.9066639679865
 20
10.43584036074
 11
3.9085848016833
 21
10.441168902437
  0
LINE
  8
ERSF.2a
  6
CONTINUOUS
 62
8
 10
3.9032110036262
 20
10.430775886135
 11
3.9066639679865
 21
10.43584036074
  0
LINE
  8
ERSF.2a
  6
CONTINUOUS
 62
8
 10
3.8983252441002
 20
10.426121174335
 11
3.9032110036262
 21
10.430775886135
  0
LINE
  8
ERSF.2a
  6
CONTINUOUS
 62
8
 10
3.8921472438147
 20
10.422010132925
 11
3.8983252441002
 21
10.426121174335
  0
LINE
  8
ERSF.2a
  6
CONTINUOUS
 62
8
 10
3.8848547325896
 20
10.41856102908
 11
3.8921472438147
 21
10.422010132925
  0
LINE
  8
ERSF.2a
  6
CONTINUOUS
 62
8
 10
3.8766575026954
 20
10.41587308724
 11
3.8848547325896
 21
10.41856102908
  0
LINE
  8
ERSF.2a
  6
CONTINUOUS
 62
8
 10
3.8677913735114
 20
10.414023634595
 11
3.8766575026954
 21
10.41587308724
  0
LINE
  8
ERSF.2a
  6
CONTINUOUS
 62
8
 10
3.9044259251328
 20
10.463457767626
 11
3.9076547078408
 21
10.452001830552
  0
LINE
  8
ERSF.2a
  6
CONTINUOUS
 62
8
 10
3.8022285287697
 20
10.46304027063
 11
3.7989918727923
 21
10.451557920934
  0
POLYLINE
  8
ERSF.2a
  6
CONTINUOUS
 62
8
 70
1
 66
1
  0
VERTEX
  8
ERSF.2a
  6
CONTINUOUS
 62
8
 10
3.866934459196
 20
10.427739274329
  0
VERTEX
  8
ERSF.2a
  6
CONTINUOUS
 62
8
 10
3.8752730536935
 20
10.429478684541
  0
VERTEX
  8
ERSF.2a
  6
CONTINUOUS
 62
8
 10
3.882982548409
 20
10.432006693842
  0
VERTEX
  8
ERSF.2a
  6
CONTINUOUS
 62
8
 10
3.8898411552162
 20
10.435250576007
  0
VERTEX
  8
ERSF.2a
  6
CONTINUOUS
 62
8
 10
3.8956515644848
 20
10.439117010454
  0
VERTEX
  8
ERSF.2a
  6
CONTINUOUS
 62
8
 10
3.9002466213189
 20
10.443494766901
  0
VERTEX
  8
ERSF.2a
  6
CONTINUOUS
 62
8
 10
3.9034941342998
 20
10.448257905267
  0
VERTEX
  8
ERSF.2a
  6
CONTINUOUS
 62
8
 10
3.9053006783916
 20
10.453269398734
  0
VERTEX
  8
ERSF.2a
  6
CONTINUOUS
 62
8
 10
3.9056142826101
 20
10.458385075758
  0
VERTEX
  8
ERSF.2a
  6
CONTINUOUS
 62
8
 10
3.9044259251328
 20
10.463457767626
  0
VERTEX
  8
ERSF.2a
  6
CONTINUOUS
 62
8
 10
3.9017697928408
 20
10.468341542228
  0
VERTEX
  8
ERSF.2a
  6
CONTINUOUS
 62
8
 10
3.8977222978239
 20
10.472895902261
  0
VERTEX
  8
ERSF.2a
  6
CONTINUOUS
 62
8
 10
3.8923998791448
 20
10.476989827079
  0
VERTEX
  8
ERSF.2a
  6
CONTINUOUS
 62
8
 10
3.8859556530981
 20
10.48050554192
  0
VERTEX
  8
ERSF.2a
  6
CONTINUOUS
 62
8
 10
3.8785750083344
 20
10.483341906066
  0
VERTEX
  8
ERSF.2a
  6
CONTINUOUS
 62
8
 10
3.8704702725656
 20
10.485417322488
  0
VERTEX
  8
ERSF.2a
  6
CONTINUOUS
 62
8
 10
3.8618746042834
 20
10.486672085232
  0
VERTEX
  8
ERSF.2a
  6
CONTINUOUS
 62
8
 10
3.8530352852143
 20
10.487070097059
  0
VERTEX
  8
ERSF.2a
  6
CONTINUOUS
 62
8
 10
3.8442066064742
 20
10.486599907894
  0
VERTEX
  8
ERSF.2a
  6
CONTINUOUS
 62
8
 10
3.8356425530761
 20
10.485275044223
  0
VERTEX
  8
ERSF.2a
  6
CONTINUOUS
 62
8
 10
3.8275894972437
 20
10.483133619961
  0
VERTEX
  8
ERSF.2a
  6
CONTINUOUS
 62
8
 10
3.8202791107311
 20
10.480237239985
  0
VERTEX
  8
ERSF.2a
  6
CONTINUOUS
 62
8
 10
3.8139217000484
 20
10.476669227875
  0
VERTEX
  8
ERSF.2a
  6
CONTINUOUS
 62
8
 10
3.808700156326
 20
10.472532228842
  0
VERTEX
  8
ERSF.2a
  6
CONTINUOUS
 62
8
 10
3.8047646938699
 20
10.467945256815
  0
VERTEX
  8
ERSF.2a
  6
CONTINUOUS
 62
8
 10
3.8022285287697
 20
10.46304027063
  0
VERTEX
  8
ERSF.2a
  6
CONTINUOUS
 62
8
 10
3.8011646218778
 20
10.457958377808
  0
VERTEX
  8
ERSF.2a
  6
CONTINUOUS
 62
8
 10
3.8016035798583
 20
10.452845775152
  0
VERTEX
  8
ERSF.2a
  6
CONTINUOUS
 62
8
 10
3.8035327746895
 20
10.447849542933
  0
VERTEX
  8
ERSF.2a
  6
CONTINUOUS
 62
8
 10
3.8068967069484
 20
10.443113413656
  0
VERTEX
  8
ERSF.2a
  6
CONTINUOUS
 62
8
 10
3.8115986024288
 20
10.438773637135
  0
VERTEX
  8
ERSF.2a
  6
CONTINUOUS
 62
8
 10
3.8175031961582
 20
10.434955060841
  0
VERTEX
  8
ERSF.2a
  6
CONTINUOUS
 62
8
 10
3.8244406237257
 20
10.431767538261
  0
VERTEX
  8
ERSF.2a
  6
CONTINUOUS
 62
8
 10
3.832211307971
 20
10.429302768616
  0
VERTEX
  8
ERSF.2a
  6
CONTINUOUS
 62
8
 10
3.8405917004565
 20
10.427631658841
  0
VERTEX
  8
ERSF.2a
  6
CONTINUOUS
 62
8
 10
3.8493407125484
 20
10.426802283722
  0
VERTEX
  8
ERSF.2a
  6
CONTINUOUS
 62
8
 10
3.8582066510982
 20
10.426838502871
  0
VERTEX
  8
ERSF.2a
  6
CONTINUOUS
 62
8
 10
3.866934459196
 20
10.427739274329
  0
SEQEND
  0
LINE
  8
ERSF.2a
  6
CONTINUOUS
 62
8
 10
3.0667284906699
 20
10.14410443702
 11
3.0760084567494
 21
10.145062195082
  0
LINE
  8
ERSF.2a
  6
CONTINUOUS
 62
8
 10
3.0573016554229
 20
10.144065926495
 11
3.0667284906699
 21
10.14410443702
  0
LINE
  8
ERSF.2a
  6
CONTINUOUS
 62
8
 10
3.047999143895
 20
10.144947771385
 11
3.0573016554229
 21
10.144065926495
  0
LINE
  8
ERSF.2a
  6
CONTINUOUS
 62
8
 10
3.039088572406
 20
10.146724602618
 11
3.047999143895
 21
10.144947771385
  0
LINE
  8
ERSF.2a
  6
CONTINUOUS
 62
8
 10
3.030826281874
 20
10.149345303995
 11
3.039088572406
 21
10.146724602618
  0
LINE
  8
ERSF.2a
  6
CONTINUOUS
 62
8
 10
3.0234499633546
 20
10.152734482709
 11
3.030826281874
 21
10.149345303995
  0
LINE
  8
ERSF.2a
  6
CONTINUOUS
 62
8
 10
3.0171718201016
 20
10.156794638258
 11
3.0234499633546
 21
10.152734482709
  0
LINE
  8
ERSF.2a
  6
CONTINUOUS
 62
8
 10
3.0121724628657
 20
10.16140896736
 11
3.0171718201016
 21
10.156794638258
  0
LINE
  8
ERSF.2a
  6
CONTINUOUS
 62
8
 10
3.0085957140524
 20
10.166444724168
 11
3.0121724628657
 21
10.16140896736
  0
LINE
  8
ERSF.2a
  6
CONTINUOUS
 62
8
 10
3.0065444702128
 20
10.171757039126
 11
3.0085957140524
 21
10.166444724168
  0
LINE
  8
ERSF.2a
  6
CONTINUOUS
 62
8
 10
3.0060777418975
 20
10.177193086607
 11
3.0065444702128
 21
10.171757039126
  0
LINE
  8
ERSF.2a
  6
CONTINUOUS
 62
8
 10
3.0072089560303
 20
10.182596481421
 11
3.0060777418975
 21
10.177193086607
  0
LINE
  8
ERSF.2a
  6
CONTINUOUS
 62
8
 10
3.1171353290663
 20
10.177646779271
 11
3.1158717910788
 21
10.183040391039
  0
LINE
  8
ERSF.2a
  6
CONTINUOUS
 62
8
 10
3.1168018849212
 20
10.172207462924
 11
3.1171353290663
 21
10.177646779271
  0
LINE
  8
ERSF.2a
  6
CONTINUOUS
 62
8
 10
3.1148810512244
 20
10.166878921227
 11
3.1168018849212
 21
10.172207462924
  0
LINE
  8
ERSF.2a
  6
CONTINUOUS
 62
8
 10
3.1114280868641
 20
10.161814446621
 11
3.1148810512244
 21
10.166878921227
  0
LINE
  8
ERSF.2a
  6
CONTINUOUS
 62
8
 10
3.1065423273382
 20
10.157159734822
 11
3.1114280868641
 21
10.161814446621
  0
LINE
  8
ERSF.2a
  6
CONTINUOUS
 62
8
 10
3.1003643270527
 20
10.153048693412
 11
3.1065423273382
 21
10.157159734822
  0
LINE
  8
ERSF.2a
  6
CONTINUOUS
 62
8
 10
3.0930718158275
 20
10.149599589567
 11
3.1003643270527
 21
10.153048693412
  0
LINE
  8
ERSF.2a
  6
CONTINUOUS
 62
8
 10
3.0848745859333
 20
10.146911647727
 11
3.0930718158275
 21
10.149599589567
  0
LINE
  8
ERSF.2a
  6
CONTINUOUS
 62
8
 10
3.0760084567494
 20
10.145062195082
 11
3.0848745859333
 21
10.146911647727
  0
LINE
  8
ERSF.2a
  6
CONTINUOUS
 62
8
 10
3.1126430083708
 20
10.194496328113
 11
3.1158717910788
 21
10.183040391039
  0
LINE
  8
ERSF.2a
  6
CONTINUOUS
 62
8
 10
3.0104456120077
 20
10.194078831117
 11
3.0072089560303
 21
10.182596481421
  0
POLYLINE
  8
ERSF.2a
  6
CONTINUOUS
 62
8
 70
1
 66
1
  0
VERTEX
  8
ERSF.2a
  6
CONTINUOUS
 62
8
 10
3.075151542434
 20
10.158777834816
  0
VERTEX
  8
ERSF.2a
  6
CONTINUOUS
 62
8
 10
3.0834901369315
 20
10.160517245027
  0
VERTEX
  8
ERSF.2a
  6
CONTINUOUS
 62
8
 10
3.091199631647
 20
10.163045254329
  0
VERTEX
  8
ERSF.2a
  6
CONTINUOUS
 62
8
 10
3.0980582384542
 20
10.166289136494
  0
VERTEX
  8
ERSF.2a
  6
CONTINUOUS
 62
8
 10
3.1038686477227
 20
10.170155570941
  0
VERTEX
  8
ERSF.2a
  6
CONTINUOUS
 62
8
 10
3.1084637045569
 20
10.174533327388
  0
VERTEX
  8
ERSF.2a
  6
CONTINUOUS
 62
8
 10
3.1117112175378
 20
10.179296465754
  0
VERTEX
  8
ERSF.2a
  6
CONTINUOUS
 62
8
 10
3.1135177616296
 20
10.184307959221
  0
VERTEX
  8
ERSF.2a
  6
CONTINUOUS
 62
8
 10
3.1138313658481
 20
10.189423636245
  0
VERTEX
  8
ERSF.2a
  6
CONTINUOUS
 62
8
 10
3.1126430083708
 20
10.194496328113
  0
VERTEX
  8
ERSF.2a
  6
CONTINUOUS
 62
8
 10
3.1099868760787
 20
10.199380102715
  0
VERTEX
  8
ERSF.2a
  6
CONTINUOUS
 62
8
 10
3.1059393810619
 20
10.203934462748
  0
VERTEX
  8
ERSF.2a
  6
CONTINUOUS
 62
8
 10
3.1006169623827
 20
10.208028387566
  0
VERTEX
  8
ERSF.2a
  6
CONTINUOUS
 62
8
 10
3.0941727363361
 20
10.211544102406
  0
VERTEX
  8
ERSF.2a
  6
CONTINUOUS
 62
8
 10
3.0867920915724
 20
10.214380466553
  0
VERTEX
  8
ERSF.2a
  6
CONTINUOUS
 62
8
 10
3.0786873558036
 20
10.216455882975
  0
VERTEX
  8
ERSF.2a
  6
CONTINUOUS
 62
8
 10
3.0700916875214
 20
10.217710645719
  0
VERTEX
  8
ERSF.2a
  6
CONTINUOUS
 62
8
 10
3.0612523684523
 20
10.218108657546
  0
VERTEX
  8
ERSF.2a
  6
CONTINUOUS
 62
8
 10
3.0524236897122
 20
10.217638468381
  0
VERTEX
  8
ERSF.2a
  6
CONTINUOUS
 62
8
 10
3.043859636314
 20
10.21631360471
  0
VERTEX
  8
ERSF.2a
  6
CONTINUOUS
 62
8
 10
3.0358065804816
 20
10.214172180448
  0
VERTEX
  8
ERSF.2a
  6
CONTINUOUS
 62
8
 10
3.0284961939691
 20
10.211275800472
  0
VERTEX
  8
ERSF.2a
  6
CONTINUOUS
 62
8
 10
3.0221387832864
 20
10.207707788362
  0
VERTEX
  8
ERSF.2a
  6
CONTINUOUS
 62
8
 10
3.016917239564
 20
10.203570789328
  0
VERTEX
  8
ERSF.2a
  6
CONTINUOUS
 62
8
 10
3.0129817771079
 20
10.198983817302
  0
VERTEX
  8
ERSF.2a
  6
CONTINUOUS
 62
8
 10
3.0104456120077
 20
10.194078831117
  0
VERTEX
  8
ERSF.2a
  6
CONTINUOUS
 62
8
 10
3.0093817051158
 20
10.188996938295
  0
VERTEX
  8
ERSF.2a
  6
CONTINUOUS
 62
8
 10
3.0098206630963
 20
10.183884335639
  0
VERTEX
  8
ERSF.2a
  6
CONTINUOUS
 62
8
 10
3.0117498579275
 20
10.17888810342
  0
VERTEX
  8
ERSF.2a
  6
CONTINUOUS
 62
8
 10
3.0151137901864
 20
10.174151974142
  0
VERTEX
  8
ERSF.2a
  6
CONTINUOUS
 62
8
 10
3.0198156856667
 20
10.169812197622
  0
VERTEX
  8
ERSF.2a
  6
CONTINUOUS
 62
8
 10
3.0257202793962
 20
10.165993621328
  0
VERTEX
  8
ERSF.2a
  6
CONTINUOUS
 62
8
 10
3.0326577069637
 20
10.162806098748
  0
VERTEX
  8
ERSF.2a
  6
CONTINUOUS
 62
8
 10
3.040428391209
 20
10.160341329103
  0
VERTEX
  8
ERSF.2a
  6
CONTINUOUS
 62
8
 10
3.0488087836944
 20
10.158670219328
  0
VERTEX
  8
ERSF.2a
  6
CONTINUOUS
 62
8
 10
3.0575577957864
 20
10.157840844209
  0
VERTEX
  8
ERSF.2a
  6
CONTINUOUS
 62
8
 10
3.0664237343362
 20
10.157877063358
  0
VERTEX
  8
ERSF.2a
  6
CONTINUOUS
 62
8
 10
3.075151542434
 20
10.158777834816
  0
SEQEND
  0
LINE
  8
ERSF.2a
  6
CONTINUOUS
 62
8
 10
3.2252121947505
 20
10.234128207718
 11
3.23449216083
 21
10.235085965781
  0
LINE
  8
ERSF.2a
  6
CONTINUOUS
 62
8
 10
3.2157853595035
 20
10.234089697193
 11
3.2252121947505
 21
10.234128207718
  0
LINE
  8
ERSF.2a
  6
CONTINUOUS
 62
8
 10
3.2064828479756
 20
10.234971542083
 11
3.2157853595035
 21
10.234089697193
  0
LINE
  8
ERSF.2a
  6
CONTINUOUS
 62
8
 10
3.1975722764866
 20
10.236748373316
 11
3.2064828479756
 21
10.234971542083
  0
LINE
  8
ERSF.2a
  6
CONTINUOUS
 62
8
 10
3.1893099859546
 20
10.239369074693
 11
3.1975722764866
 21
10.236748373316
  0
LINE
  8
ERSF.2a
  6
CONTINUOUS
 62
8
 10
3.1819336674352
 20
10.242758253407
 11
3.1893099859546
 21
10.239369074693
  0
LINE
  8
ERSF.2a
  6
CONTINUOUS
 62
8
 10
3.1756555241822
 20
10.246818408956
 11
3.1819336674352
 21
10.242758253407
  0
LINE
  8
ERSF.2a
  6
CONTINUOUS
 62
8
 10
3.1706561669464
 20
10.251432738058
 11
3.1756555241822
 21
10.246818408956
  0
LINE
  8
ERSF.2a
  6
CONTINUOUS
 62
8
 10
3.167079418133
 20
10.256468494866
 11
3.1706561669464
 21
10.251432738058
  0
LINE
  8
ERSF.2a
  6
CONTINUOUS
 62
8
 10
3.1650281742934
 20
10.261780809825
 11
3.167079418133
 21
10.256468494866
  0
LINE
  8
ERSF.2a
  6
CONTINUOUS
 62
8
 10
3.1645614459781
 20
10.267216857305
 11
3.1650281742934
 21
10.261780809825
  0
LINE
  8
ERSF.2a
  6
CONTINUOUS
 62
8
 10
3.1656926601109
 20
10.272620252119
 11
3.1645614459781
 21
10.267216857305
  0
LINE
  8
ERSF.2a
  6
CONTINUOUS
 62
8
 10
3.275619033147
 20
10.267670549969
 11
3.2743554951594
 21
10.273064161737
  0
LINE
  8
ERSF.2a
  6
CONTINUOUS
 62
8
 10
3.2752855890019
 20
10.262231233622
 11
3.275619033147
 21
10.267670549969
  0
LINE
  8
ERSF.2a
  6
CONTINUOUS
 62
8
 10
3.273364755305
 20
10.256902691925
 11
3.2752855890019
 21
10.262231233622
  0
LINE
  8
ERSF.2a
  6
CONTINUOUS
 62
8
 10
3.2699117909447
 20
10.25183821732
 11
3.273364755305
 21
10.256902691925
  0
LINE
  8
ERSF.2a
  6
CONTINUOUS
 62
8
 10
3.2650260314188
 20
10.24718350552
 11
3.2699117909447
 21
10.25183821732
  0
LINE
  8
ERSF.2a
  6
CONTINUOUS
 62
8
 10
3.2588480311333
 20
10.24307246411
 11
3.2650260314188
 21
10.24718350552
  0
LINE
  8
ERSF.2a
  6
CONTINUOUS
 62
8
 10
3.2515555199082
 20
10.239623360266
 11
3.2588480311333
 21
10.24307246411
  0
LINE
  8
ERSF.2a
  6
CONTINUOUS
 62
8
 10
3.2433582900139
 20
10.236935418425
 11
3.2515555199082
 21
10.239623360266
  0
LINE
  8
ERSF.2a
  6
CONTINUOUS
 62
8
 10
3.23449216083
 20
10.235085965781
 11
3.2433582900139
 21
10.236935418425
  0
LINE
  8
ERSF.2a
  6
CONTINUOUS
 62
8
 10
3.2711267124514
 20
10.284520098811
 11
3.2743554951594
 21
10.273064161737
  0
LINE
  8
ERSF.2a
  6
CONTINUOUS
 62
8
 10
3.1689293160883
 20
10.284102601815
 11
3.1656926601109
 21
10.272620252119
  0
POLYLINE
  8
ERSF.2a
  6
CONTINUOUS
 62
8
 70
1
 66
1
  0
VERTEX
  8
ERSF.2a
  6
CONTINUOUS
 62
8
 10
3.2336352465146
 20
10.248801605514
  0
VERTEX
  8
ERSF.2a
  6
CONTINUOUS
 62
8
 10
3.2419738410121
 20
10.250541015726
  0
VERTEX
  8
ERSF.2a
  6
CONTINUOUS
 62
8
 10
3.2496833357276
 20
10.253069025027
  0
VERTEX
  8
ERSF.2a
  6
CONTINUOUS
 62
8
 10
3.2565419425348
 20
10.256312907193
  0
VERTEX
  8
ERSF.2a
  6
CONTINUOUS
 62
8
 10
3.2623523518033
 20
10.260179341639
  0
VERTEX
  8
ERSF.2a
  6
CONTINUOUS
 62
8
 10
3.2669474086375
 20
10.264557098086
  0
VERTEX
  8
ERSF.2a
  6
CONTINUOUS
 62
8
 10
3.2701949216184
 20
10.269320236453
  0
VERTEX
  8
ERSF.2a
  6
CONTINUOUS
 62
8
 10
3.2720014657102
 20
10.274331729919
  0
VERTEX
  8
ERSF.2a
  6
CONTINUOUS
 62
8
 10
3.2723150699287
 20
10.279447406943
  0
VERTEX
  8
ERSF.2a
  6
CONTINUOUS
 62
8
 10
3.2711267124514
 20
10.284520098811
  0
VERTEX
  8
ERSF.2a
  6
CONTINUOUS
 62
8
 10
3.2684705801593
 20
10.289403873413
  0
VERTEX
  8
ERSF.2a
  6
CONTINUOUS
 62
8
 10
3.2644230851425
 20
10.293958233446
  0
VERTEX
  8
ERSF.2a
  6
CONTINUOUS
 62
8
 10
3.2591006664634
 20
10.298052158265
  0
VERTEX
  8
ERSF.2a
  6
CONTINUOUS
 62
8
 10
3.2526564404167
 20
10.301567873105
  0
VERTEX
  8
ERSF.2a
  6
CONTINUOUS
 62
8
 10
3.245275795653
 20
10.304404237252
  0
VERTEX
  8
ERSF.2a
  6
CONTINUOUS
 62
8
 10
3.2371710598842
 20
10.306479653673
  0
VERTEX
  8
ERSF.2a
  6
CONTINUOUS
 62
8
 10
3.228575391602
 20
10.307734416417
  0
VERTEX
  8
ERSF.2a
  6
CONTINUOUS
 62
8
 10
3.2197360725329
 20
10.308132428244
  0
VERTEX
  8
ERSF.2a
  6
CONTINUOUS
 62
8
 10
3.2109073937928
 20
10.307662239079
  0
VERTEX
  8
ERSF.2a
  6
CONTINUOUS
 62
8
 10
3.2023433403946
 20
10.306337375408
  0
VERTEX
  8
ERSF.2a
  6
CONTINUOUS
 62
8
 10
3.1942902845622
 20
10.304195951146
  0
VERTEX
  8
ERSF.2a
  6
CONTINUOUS
 62
8
 10
3.1869798980497
 20
10.30129957117
  0
VERTEX
  8
ERSF.2a
  6
CONTINUOUS
 62
8
 10
3.180622487367
 20
10.29773155906
  0
VERTEX
  8
ERSF.2a
  6
CONTINUOUS
 62
8
 10
3.1754009436446
 20
10.293594560027
  0
VERTEX
  8
ERSF.2a
  6
CONTINUOUS
 62
8
 10
3.1714654811885
 20
10.289007588
  0
VERTEX
  8
ERSF.2a
  6
CONTINUOUS
 62
8
 10
3.1689293160883
 20
10.284102601815
  0
VERTEX
  8
ERSF.2a
  6
CONTINUOUS
 62
8
 10
3.1678654091964
 20
10.279020708993
  0
VERTEX
  8
ERSF.2a
  6
CONTINUOUS
 62
8
 10
3.1683043671769
 20
10.273908106337
  0
VERTEX
  8
ERSF.2a
  6
CONTINUOUS
 62
8
 10
3.1702335620081
 20
10.268911874118
  0
VERTEX
  8
ERSF.2a
  6
CONTINUOUS
 62
8
 10
3.173597494267
 20
10.264175744841
  0
VERTEX
  8
ERSF.2a
  6
CONTINUOUS
 62
8
 10
3.1782993897474
 20
10.25983596832
  0
VERTEX
  8
ERSF.2a
  6
CONTINUOUS
 62
8
 10
3.1842039834768
 20
10.256017392026
  0
VERTEX
  8
ERSF.2a
  6
CONTINUOUS
 62
8
 10
3.1911414110443
 20
10.252829869446
  0
VERTEX
  8
ERSF.2a
  6
CONTINUOUS
 62
8
 10
3.1989120952896
 20
10.250365099801
  0
VERTEX
  8
ERSF.2a
  6
CONTINUOUS
 62
8
 10
3.207292487775
 20
10.248693990026
  0
VERTEX
  8
ERSF.2a
  6
CONTINUOUS
 62
8
 10
3.216041499867
 20
10.247864614907
  0
VERTEX
  8
ERSF.2a
  6
CONTINUOUS
 62
8
 10
3.2249074384168
 20
10.247900834056
  0
VERTEX
  8
ERSF.2a
  6
CONTINUOUS
 62
8
 10
3.2336352465146
 20
10.248801605514
  0
SEQEND
  0
LINE
  8
ERSF.2a
  6
CONTINUOUS
 62
8
 10
3.3836958988311
 20
10.324151978416
 11
3.3929758649106
 21
10.325109736479
  0
LINE
  8
ERSF.2a
  6
CONTINUOUS
 62
8
 10
3.3742690635841
 20
10.324113467891
 11
3.3836958988311
 21
10.324151978416
  0
LINE
  8
ERSF.2a
  6
CONTINUOUS
 62
8
 10
3.3649665520562
 20
10.324995312781
 11
3.3742690635841
 21
10.324113467891
  0
LINE
  8
ERSF.2a
  6
CONTINUOUS
 62
8
 10
3.3560559805672
 20
10.326772144015
 11
3.3649665520562
 21
10.324995312781
  0
LINE
  8
ERSF.2a
  6
CONTINUOUS
 62
8
 10
3.3477936900352
 20
10.329392845392
 11
3.3560559805672
 21
10.326772144015
  0
LINE
  8
ERSF.2a
  6
CONTINUOUS
 62
8
 10
3.3404173715159
 20
10.332782024105
 11
3.3477936900352
 21
10.329392845392
  0
LINE
  8
ERSF.2a
  6
CONTINUOUS
 62
8
 10
3.3341392282628
 20
10.336842179654
 11
3.3404173715159
 21
10.332782024105
  0
LINE
  8
ERSF.2a
  6
CONTINUOUS
 62
8
 10
3.329139871027
 20
10.341456508756
 11
3.3341392282628
 21
10.336842179654
  0
LINE
  8
ERSF.2a
  6
CONTINUOUS
 62
8
 10
3.3255631222136
 20
10.346492265564
 11
3.329139871027
 21
10.341456508756
  0
LINE
  8
ERSF.2a
  6
CONTINUOUS
 62
8
 10
3.323511878374
 20
10.351804580523
 11
3.3255631222136
 21
10.346492265564
  0
LINE
  8
ERSF.2a
  6
CONTINUOUS
 62
8
 10
3.3230451500587
 20
10.357240628004
 11
3.323511878374
 21
10.351804580523
  0
LINE
  8
ERSF.2a
  6
CONTINUOUS
 62
8
 10
3.3241763641915
 20
10.362644022817
 11
3.3230451500587
 21
10.357240628004
  0
LINE
  8
ERSF.2a
  6
CONTINUOUS
 62
8
 10
3.4341027372276
 20
10.357694320667
 11
3.43283919924
 21
10.363087932435
  0
LINE
  8
ERSF.2a
  6
CONTINUOUS
 62
8
 10
3.4337692930825
 20
10.352255004321
 11
3.4341027372276
 21
10.357694320667
  0
LINE
  8
ERSF.2a
  6
CONTINUOUS
 62
8
 10
3.4318484593857
 20
10.346926462623
 11
3.4337692930825
 21
10.352255004321
  0
LINE
  8
ERSF.2a
  6
CONTINUOUS
 62
8
 10
3.4283954950254
 20
10.341861988018
 11
3.4318484593857
 21
10.346926462623
  0
LINE
  8
ERSF.2a
  6
CONTINUOUS
 62
8
 10
3.4235097354994
 20
10.337207276218
 11
3.4283954950254
 21
10.341861988018
  0
LINE
  8
ERSF.2a
  6
CONTINUOUS
 62
8
 10
3.4173317352139
 20
10.333096234808
 11
3.4235097354994
 21
10.337207276218
  0
LINE
  8
ERSF.2a
  6
CONTINUOUS
 62
8
 10
3.4100392239888
 20
10.329647130964
 11
3.4173317352139
 21
10.333096234808
  0
LINE
  8
ERSF.2a
  6
CONTINUOUS
 62
8
 10
3.4018419940946
 20
10.326959189123
 11
3.4100392239888
 21
10.329647130964
  0
LINE
  8
ERSF.2a
  6
CONTINUOUS
 62
8
 10
3.3929758649106
 20
10.325109736479
 11
3.4018419940946
 21
10.326959189123
  0
LINE
  8
ERSF.2a
  6
CONTINUOUS
 62
8
 10
3.429610416532
 20
10.374543869509
 11
3.43283919924
 21
10.363087932435
  0
LINE
  8
ERSF.2a
  6
CONTINUOUS
 62
8
 10
3.3274130201689
 20
10.374126372513
 11
3.3241763641915
 21
10.362644022817
  0
POLYLINE
  8
ERSF.2a
  6
CONTINUOUS
 62
8
 70
1
 66
1
  0
VERTEX
  8
ERSF.2a
  6
CONTINUOUS
 62
8
 10
3.3921189505952
 20
10.338825376212
  0
VERTEX
  8
ERSF.2a
  6
CONTINUOUS
 62
8
 10
3.4004575450927
 20
10.340564786424
  0
VERTEX
  8
ERSF.2a
  6
CONTINUOUS
 62
8
 10
3.4081670398082
 20
10.343092795725
  0
VERTEX
  8
ERSF.2a
  6
CONTINUOUS
 62
8
 10
3.4150256466154
 20
10.346336677891
  0
VERTEX
  8
ERSF.2a
  6
CONTINUOUS
 62
8
 10
3.420836055884
 20
10.350203112337
  0
VERTEX
  8
ERSF.2a
  6
CONTINUOUS
 62
8
 10
3.4254311127181
 20
10.354580868784
  0
VERTEX
  8
ERSF.2a
  6
CONTINUOUS
 62
8
 10
3.428678625699
 20
10.359344007151
  0
VERTEX
  8
ERSF.2a
  6
CONTINUOUS
 62
8
 10
3.4304851697908
 20
10.364355500617
  0
VERTEX
  8
ERSF.2a
  6
CONTINUOUS
 62
8
 10
3.4307987740093
 20
10.369471177641
  0
VERTEX
  8
ERSF.2a
  6
CONTINUOUS
 62
8
 10
3.429610416532
 20
10.374543869509
  0
VERTEX
  8
ERSF.2a
  6
CONTINUOUS
 62
8
 10
3.42695428424
 20
10.379427644111
  0
VERTEX
  8
ERSF.2a
  6
CONTINUOUS
 62
8
 10
3.4229067892231
 20
10.383982004145
  0
VERTEX
  8
ERSF.2a
  6
CONTINUOUS
 62
8
 10
3.417584370544
 20
10.388075928963
  0
VERTEX
  8
ERSF.2a
  6
CONTINUOUS
 62
8
 10
3.4111401444973
 20
10.391591643803
  0
VERTEX
  8
ERSF.2a
  6
CONTINUOUS
 62
8
 10
3.4037594997336
 20
10.39442800795
  0
VERTEX
  8
ERSF.2a
  6
CONTINUOUS
 62
8
 10
3.3956547639648
 20
10.396503424371
  0
VERTEX
  8
ERSF.2a
  6
CONTINUOUS
 62
8
 10
3.3870590956826
 20
10.397758187115
  0
VERTEX
  8
ERSF.2a
  6
CONTINUOUS
 62
8
 10
3.3782197766135
 20
10.398156198943
  0
VERTEX
  8
ERSF.2a
  6
CONTINUOUS
 62
8
 10
3.3693910978734
 20
10.397686009777
  0
VERTEX
  8
ERSF.2a
  6
CONTINUOUS
 62
8
 10
3.3608270444753
 20
10.396361146106
  0
VERTEX
  8
ERSF.2a
  6
CONTINUOUS
 62
8
 10
3.3527739886429
 20
10.394219721844
  0
VERTEX
  8
ERSF.2a
  6
CONTINUOUS
 62
8
 10
3.3454636021303
 20
10.391323341869
  0
VERTEX
  8
ERSF.2a
  6
CONTINUOUS
 62
8
 10
3.3391061914476
 20
10.387755329758
  0
VERTEX
  8
ERSF.2a
  6
CONTINUOUS
 62
8
 10
3.3338846477252
 20
10.383618330725
  0
VERTEX
  8
ERSF.2a
  6
CONTINUOUS
 62
8
 10
3.3299491852691
 20
10.379031358699
  0
VERTEX
  8
ERSF.2a
  6
CONTINUOUS
 62
8
 10
3.3274130201689
 20
10.374126372513
  0
VERTEX
  8
ERSF.2a
  6
CONTINUOUS
 62
8
 10
3.326349113277
 20
10.369044479691
  0
VERTEX
  8
ERSF.2a
  6
CONTINUOUS
 62
8
 10
3.3267880712575
 20
10.363931877036
  0
VERTEX
  8
ERSF.2a
  6
CONTINUOUS
 62
8
 10
3.3287172660887
 20
10.358935644817
  0
VERTEX
  8
ERSF.2a
  6
CONTINUOUS
 62
8
 10
3.3320811983476
 20
10.354199515539
  0
VERTEX
  8
ERSF.2a
  6
CONTINUOUS
 62
8
 10
3.336783093828
 20
10.349859739019
  0
VERTEX
  8
ERSF.2a
  6
CONTINUOUS
 62
8
 10
3.3426876875574
 20
10.346041162725
  0
VERTEX
  8
ERSF.2a
  6
CONTINUOUS
 62
8
 10
3.3496251151249
 20
10.342853640144
  0
VERTEX
  8
ERSF.2a
  6
CONTINUOUS
 62
8
 10
3.3573957993702
 20
10.340388870499
  0
VERTEX
  8
ERSF.2a
  6
CONTINUOUS
 62
8
 10
3.3657761918557
 20
10.338717760725
  0
VERTEX
  8
ERSF.2a
  6
CONTINUOUS
 62
8
 10
3.3745252039476
 20
10.337888385605
  0
VERTEX
  8
ERSF.2a
  6
CONTINUOUS
 62
8
 10
3.3833911424974
 20
10.337924604754
  0
VERTEX
  8
ERSF.2a
  6
CONTINUOUS
 62
8
 10
3.3921189505952
 20
10.338825376212
  0
SEQEND
  0
LINE
  8
ERSF.2a
  6
CONTINUOUS
 62
8
 10
3.5421796029117
 20
10.414175749115
 11
3.5514595689912
 21
10.415133507177
  0
LINE
  8
ERSF.2a
  6
CONTINUOUS
 62
8
 10
3.5327527676647
 20
10.41413723859
 11
3.5421796029117
 21
10.414175749115
  0
LINE
  8
ERSF.2a
  6
CONTINUOUS
 62
8
 10
3.5234502561369
 20
10.41501908348
 11
3.5327527676647
 21
10.41413723859
  0
LINE
  8
ERSF.2a
  6
CONTINUOUS
 62
8
 10
3.5145396846478
 20
10.416795914713
 11
3.5234502561369
 21
10.41501908348
  0
LINE
  8
ERSF.2a
  6
CONTINUOUS
 62
8
 10
3.5062773941158
 20
10.41941661609
 11
3.5145396846478
 21
10.416795914713
  0
LINE
  8
ERSF.2a
  6
CONTINUOUS
 62
8
 10
3.4989010755965
 20
10.422805794803
 11
3.5062773941158
 21
10.41941661609
  0
LINE
  8
ERSF.2a
  6
CONTINUOUS
 62
8
 10
3.4926229323435
 20
10.426865950353
 11
3.4989010755965
 21
10.422805794803
  0
LINE
  8
ERSF.2a
  6
CONTINUOUS
 62
8
 10
3.4876235751076
 20
10.431480279455
 11
3.4926229323435
 21
10.426865950353
  0
LINE
  8
ERSF.2a
  6
CONTINUOUS
 62
8
 10
3.4840468262943
 20
10.436516036262
 11
3.4876235751076
 21
10.431480279455
  0
LINE
  8
ERSF.2a
  6
CONTINUOUS
 62
8
 10
3.4819955824546
 20
10.441828351221
 11
3.4840468262943
 21
10.436516036262
  0
LINE
  8
ERSF.2a
  6
CONTINUOUS
 62
8
 10
3.4815288541393
 20
10.447264398702
 11
3.4819955824546
 21
10.441828351221
  0
LINE
  8
ERSF.2a
  6
CONTINUOUS
 62
8
 10
3.4826600682722
 20
10.452667793516
 11
3.4815288541393
 21
10.447264398702
  0
LINE
  8
ERSF.2a
  6
CONTINUOUS
 62
8
 10
3.5925864413082
 20
10.447718091366
 11
3.5913229033206
 21
10.453111703134
  0
LINE
  8
ERSF.2a
  6
CONTINUOUS
 62
8
 10
3.5922529971631
 20
10.442278775019
 11
3.5925864413082
 21
10.447718091366
  0
LINE
  8
ERSF.2a
  6
CONTINUOUS
 62
8
 10
3.5903321634663
 20
10.436950233321
 11
3.5922529971631
 21
10.442278775019
  0
LINE
  8
ERSF.2a
  6
CONTINUOUS
 62
8
 10
3.586879199106
 20
10.431885758716
 11
3.5903321634663
 21
10.436950233321
  0
LINE
  8
ERSF.2a
  6
CONTINUOUS
 62
8
 10
3.58199343958
 20
10.427231046917
 11
3.586879199106
 21
10.431885758716
  0
LINE
  8
ERSF.2a
  6
CONTINUOUS
 62
8
 10
3.5758154392945
 20
10.423120005506
 11
3.58199343958
 21
10.427231046917
  0
LINE
  8
ERSF.2a
  6
CONTINUOUS
 62
8
 10
3.5685229280694
 20
10.419670901662
 11
3.5758154392945
 21
10.423120005506
  0
LINE
  8
ERSF.2a
  6
CONTINUOUS
 62
8
 10
3.5603256981752
 20
10.416982959821
 11
3.5685229280694
 21
10.419670901662
  0
LINE
  8
ERSF.2a
  6
CONTINUOUS
 62
8
 10
3.5514595689912
 20
10.415133507177
 11
3.5603256981752
 21
10.416982959821
  0
LINE
  8
ERSF.2a
  6
CONTINUOUS
 62
8
 10
3.5880941206126
 20
10.464567640207
 11
3.5913229033206
 21
10.453111703134
  0
LINE
  8
ERSF.2a
  6
CONTINUOUS
 62
8
 10
3.4858967242495
 20
10.464150143212
 11
3.4826600682722
 21
10.452667793516
  0
POLYLINE
  8
ERSF.2a
  6
CONTINUOUS
 62
8
 70
1
 66
1
  0
VERTEX
  8
ERSF.2a
  6
CONTINUOUS
 62
8
 10
3.5506026546758
 20
10.42884914691
  0
VERTEX
  8
ERSF.2a
  6
CONTINUOUS
 62
8
 10
3.5589412491733
 20
10.430588557122
  0
VERTEX
  8
ERSF.2a
  6
CONTINUOUS
 62
8
 10
3.5666507438888
 20
10.433116566423
  0
VERTEX
  8
ERSF.2a
  6
CONTINUOUS
 62
8
 10
3.5735093506961
 20
10.436360448589
  0
VERTEX
  8
ERSF.2a
  6
CONTINUOUS
 62
8
 10
3.5793197599646
 20
10.440226883035
  0
VERTEX
  8
ERSF.2a
  6
CONTINUOUS
 62
8
 10
3.5839148167987
 20
10.444604639483
  0
VERTEX
  8
ERSF.2a
  6
CONTINUOUS
 62
8
 10
3.5871623297796
 20
10.449367777849
  0
VERTEX
  8
ERSF.2a
  6
CONTINUOUS
 62
8
 10
3.5889688738714
 20
10.454379271315
  0
VERTEX
  8
ERSF.2a
  6
CONTINUOUS
 62
8
 10
3.5892824780899
 20
10.45949494834
  0
VERTEX
  8
ERSF.2a
  6
CONTINUOUS
 62
8
 10
3.5880941206126
 20
10.464567640207
  0
VERTEX
  8
ERSF.2a
  6
CONTINUOUS
 62
8
 10
3.5854379883206
 20
10.46945141481
  0
VERTEX
  8
ERSF.2a
  6
CONTINUOUS
 62
8
 10
3.5813904933038
 20
10.474005774843
  0
VERTEX
  8
ERSF.2a
  6
CONTINUOUS
 62
8
 10
3.5760680746246
 20
10.478099699661
  0
VERTEX
  8
ERSF.2a
  6
CONTINUOUS
 62
8
 10
3.569623848578
 20
10.481615414501
  0
VERTEX
  8
ERSF.2a
  6
CONTINUOUS
 62
8
 10
3.5622432038142
 20
10.484451778648
  0
VERTEX
  8
ERSF.2a
  6
CONTINUOUS
 62
8
 10
3.5541384680454
 20
10.486527195069
  0
VERTEX
  8
ERSF.2a
  6
CONTINUOUS
 62
8
 10
3.5455427997632
 20
10.487781957814
  0
VERTEX
  8
ERSF.2a
  6
CONTINUOUS
 62
8
 10
3.5367034806941
 20
10.488179969641
  0
VERTEX
  8
ERSF.2a
  6
CONTINUOUS
 62
8
 10
3.527874801954
 20
10.487709780476
  0
VERTEX
  8
ERSF.2a
  6
CONTINUOUS
 62
8
 10
3.5193107485559
 20
10.486384916804
  0
VERTEX
  8
ERSF.2a
  6
CONTINUOUS
 62
8
 10
3.5112576927235
 20
10.484243492542
  0
VERTEX
  8
ERSF.2a
  6
CONTINUOUS
 62
8
 10
3.5039473062109
 20
10.481347112567
  0
VERTEX
  8
ERSF.2a
  6
CONTINUOUS
 62
8
 10
3.4975898955282
 20
10.477779100456
  0
VERTEX
  8
ERSF.2a
  6
CONTINUOUS
 62
8
 10
3.4923683518058
 20
10.473642101423
  0
VERTEX
  8
ERSF.2a
  6
CONTINUOUS
 62
8
 10
3.4884328893497
 20
10.469055129397
  0
VERTEX
  8
ERSF.2a
  6
CONTINUOUS
 62
8
 10
3.4858967242495
 20
10.464150143212
  0
VERTEX
  8
ERSF.2a
  6
CONTINUOUS
 62
8
 10
3.4848328173576
 20
10.459068250389
  0
VERTEX
  8
ERSF.2a
  6
CONTINUOUS
 62
8
 10
3.4852717753382
 20
10.453955647734
  0
VERTEX
  8
ERSF.2a
  6
CONTINUOUS
 62
8
 10
3.4872009701693
 20
10.448959415515
  0
VERTEX
  8
ERSF.2a
  6
CONTINUOUS
 62
8
 10
3.4905649024283
 20
10.444223286237
  0
VERTEX
  8
ERSF.2a
  6
CONTINUOUS
 62
8
 10
3.4952667979086
 20
10.439883509717
  0
VERTEX
  8
ERSF.2a
  6
CONTINUOUS
 62
8
 10
3.501171391638
 20
10.436064933423
  0
VERTEX
  8
ERSF.2a
  6
CONTINUOUS
 62
8
 10
3.5081088192055
 20
10.432877410843
  0
VERTEX
  8
ERSF.2a
  6
CONTINUOUS
 62
8
 10
3.5158795034508
 20
10.430412641198
  0
VERTEX
  8
ERSF.2a
  6
CONTINUOUS
 62
8
 10
3.5242598959363
 20
10.428741531423
  0
VERTEX
  8
ERSF.2a
  6
CONTINUOUS
 62
8
 10
3.5330089080282
 20
10.427912156304
  0
VERTEX
  8
ERSF.2a
  6
CONTINUOUS
 62
8
 10
3.541874846578
 20
10.427948375453
  0
VERTEX
  8
ERSF.2a
  6
CONTINUOUS
 62
8
 10
3.5506026546758
 20
10.42884914691
  0
SEQEND
  0
LINE
  8
ERSF.2a
  6
CONTINUOUS
 62
8
 10
3.7006633069923
 20
10.504199519813
 11
3.7099432730719
 21
10.505157277875
  0
LINE
  8
ERSF.2a
  6
CONTINUOUS
 62
8
 10
3.6912364717453
 20
10.504161009288
 11
3.7006633069923
 21
10.504199519813
  0
LINE
  8
ERSF.2a
  6
CONTINUOUS
 62
8
 10
3.6819339602175
 20
10.505042854178
 11
3.6912364717453
 21
10.504161009288
  0
LINE
  8
ERSF.2a
  6
CONTINUOUS
 62
8
 10
3.6730233887284
 20
10.506819685411
 11
3.6819339602175
 21
10.505042854178
  0
LINE
  8
ERSF.2a
  6
CONTINUOUS
 62
8
 10
3.6647610981965
 20
10.509440386788
 11
3.6730233887284
 21
10.506819685411
  0
LINE
  8
ERSF.2a
  6
CONTINUOUS
 62
8
 10
3.6573847796771
 20
10.512829565502
 11
3.6647610981965
 21
10.509440386788
  0
LINE
  8
ERSF.2a
  6
CONTINUOUS
 62
8
 10
3.6511066364241
 20
10.516889721051
 11
3.6573847796771
 21
10.512829565502
  0
LINE
  8
ERSF.2a
  6
CONTINUOUS
 62
8
 10
3.6461072791882
 20
10.521504050153
 11
3.6511066364241
 21
10.516889721051
  0
LINE
  8
ERSF.2a
  6
CONTINUOUS
 62
8
 10
3.6425305303749
 20
10.526539806961
 11
3.6461072791882
 21
10.521504050153
  0
LINE
  8
ERSF.2a
  6
CONTINUOUS
 62
8
 10
3.6404792865353
 20
10.531852121919
 11
3.6425305303749
 21
10.526539806961
  0
LINE
  8
ERSF.2a
  6
CONTINUOUS
 62
8
 10
3.6400125582199
 20
10.5372881694
 11
3.6404792865353
 21
10.531852121919
  0
LINE
  8
ERSF.2a
  6
CONTINUOUS
 62
8
 10
3.6411437723528
 20
10.542691564214
 11
3.6400125582199
 21
10.5372881694
  0
LINE
  8
ERSF.2a
  6
CONTINUOUS
 62
8
 10
3.7510701453888
 20
10.537741862064
 11
3.7498066074013
 21
10.543135473832
  0
LINE
  8
ERSF.2a
  6
CONTINUOUS
 62
8
 10
3.7507367012437
 20
10.532302545717
 11
3.7510701453888
 21
10.537741862064
  0
LINE
  8
ERSF.2a
  6
CONTINUOUS
 62
8
 10
3.7488158675469
 20
10.52697400402
 11
3.7507367012437
 21
10.532302545717
  0
LINE
  8
ERSF.2a
  6
CONTINUOUS
 62
8
 10
3.7453629031866
 20
10.521909529414
 11
3.7488158675469
 21
10.52697400402
  0
LINE
  8
ERSF.2a
  6
CONTINUOUS
 62
8
 10
3.7404771436606
 20
10.517254817615
 11
3.7453629031866
 21
10.521909529414
  0
LINE
  8
ERSF.2a
  6
CONTINUOUS
 62
8
 10
3.7342991433751
 20
10.513143776205
 11
3.7404771436606
 21
10.517254817615
  0
LINE
  8
ERSF.2a
  6
CONTINUOUS
 62
8
 10
3.72700663215
 20
10.50969467236
 11
3.7342991433751
 21
10.513143776205
  0
LINE
  8
ERSF.2a
  6
CONTINUOUS
 62
8
 10
3.7188094022558
 20
10.50700673052
 11
3.72700663215
 21
10.50969467236
  0
LINE
  8
ERSF.2a
  6
CONTINUOUS
 62
8
 10
3.7099432730719
 20
10.505157277875
 11
3.7188094022558
 21
10.50700673052
  0
LINE
  8
ERSF.2a
  6
CONTINUOUS
 62
8
 10
3.7465778246932
 20
10.554591410906
 11
3.7498066074013
 21
10.543135473832
  0
LINE
  8
ERSF.2a
  6
CONTINUOUS
 62
8
 10
3.6443804283301
 20
10.55417391391
 11
3.6411437723528
 21
10.542691564214
  0
POLYLINE
  8
ERSF.2a
  6
CONTINUOUS
 62
8
 70
1
 66
1
  0
VERTEX
  8
ERSF.2a
  6
CONTINUOUS
 62
8
 10
3.7090863587564
 20
10.518872917609
  0
VERTEX
  8
ERSF.2a
  6
CONTINUOUS
 62
8
 10
3.7174249532539
 20
10.52061232782
  0
VERTEX
  8
ERSF.2a
  6
CONTINUOUS
 62
8
 10
3.7251344479694
 20
10.523140337122
  0
VERTEX
  8
ERSF.2a
  6
CONTINUOUS
 62
8
 10
3.7319930547767
 20
10.526384219287
  0
VERTEX
  8
ERSF.2a
  6
CONTINUOUS
 62
8
 10
3.7378034640452
 20
10.530250653734
  0
VERTEX
  8
ERSF.2a
  6
CONTINUOUS
 62
8
 10
3.7423985208793
 20
10.534628410181
  0
VERTEX
  8
ERSF.2a
  6
CONTINUOUS
 62
8
 10
3.7456460338602
 20
10.539391548547
  0
VERTEX
  8
ERSF.2a
  6
CONTINUOUS
 62
8
 10
3.7474525779521
 20
10.544403042014
  0
VERTEX
  8
ERSF.2a
  6
CONTINUOUS
 62
8
 10
3.7477661821705
 20
10.549518719038
  0
VERTEX
  8
ERSF.2a
  6
CONTINUOUS
 62
8
 10
3.7465778246932
 20
10.554591410906
  0
VERTEX
  8
ERSF.2a
  6
CONTINUOUS
 62
8
 10
3.7439216924012
 20
10.559475185508
  0
VERTEX
  8
ERSF.2a
  6
CONTINUOUS
 62
8
 10
3.7398741973844
 20
10.564029545541
  0
VERTEX
  8
ERSF.2a
  6
CONTINUOUS
 62
8
 10
3.7345517787052
 20
10.568123470359
  0
VERTEX
  8
ERSF.2a
  6
CONTINUOUS
 62
8
 10
3.7281075526586
 20
10.571639185199
  0
VERTEX
  8
ERSF.2a
  6
CONTINUOUS
 62
8
 10
3.7207269078949
 20
10.574475549346
  0
VERTEX
  8
ERSF.2a
  6
CONTINUOUS
 62
8
 10
3.712622172126
 20
10.576550965768
  0
VERTEX
  8
ERSF.2a
  6
CONTINUOUS
 62
8
 10
3.7040265038438
 20
10.577805728512
  0
VERTEX
  8
ERSF.2a
  6
CONTINUOUS
 62
8
 10
3.6951871847747
 20
10.578203740339
  0
VERTEX
  8
ERSF.2a
  6
CONTINUOUS
 62
8
 10
3.6863585060346
 20
10.577733551174
  0
VERTEX
  8
ERSF.2a
  6
CONTINUOUS
 62
8
 10
3.6777944526365
 20
10.576408687503
  0
VERTEX
  8
ERSF.2a
  6
CONTINUOUS
 62
8
 10
3.6697413968041
 20
10.574267263241
  0
VERTEX
  8
ERSF.2a
  6
CONTINUOUS
 62
8
 10
3.6624310102916
 20
10.571370883265
  0
VERTEX
  8
ERSF.2a
  6
CONTINUOUS
 62
8
 10
3.6560735996089
 20
10.567802871155
  0
VERTEX
  8
ERSF.2a
  6
CONTINUOUS
 62
8
 10
3.6508520558864
 20
10.563665872121
  0
VERTEX
  8
ERSF.2a
  6
CONTINUOUS
 62
8
 10
3.6469165934303
 20
10.559078900095
  0
VERTEX
  8
ERSF.2a
  6
CONTINUOUS
 62
8
 10
3.6443804283301
 20
10.55417391391
  0
VERTEX
  8
ERSF.2a
  6
CONTINUOUS
 62
8
 10
3.6433165214382
 20
10.549092021088
  0
VERTEX
  8
ERSF.2a
  6
CONTINUOUS
 62
8
 10
3.6437554794188
 20
10.543979418432
  0
VERTEX
  8
ERSF.2a
  6
CONTINUOUS
 62
8
 10
3.6456846742499
 20
10.538983186213
  0
VERTEX
  8
ERSF.2a
  6
CONTINUOUS
 62
8
 10
3.6490486065089
 20
10.534247056935
  0
VERTEX
  8
ERSF.2a
  6
CONTINUOUS
 62
8
 10
3.6537505019892
 20
10.529907280415
  0
VERTEX
  8
ERSF.2a
  6
CONTINUOUS
 62
8
 10
3.6596550957187
 20
10.526088704121
  0
VERTEX
  8
ERSF.2a
  6
CONTINUOUS
 62
8
 10
3.6665925232861
 20
10.522901181541
  0
VERTEX
  8
ERSF.2a
  6
CONTINUOUS
 62
8
 10
3.6743632075314
 20
10.520436411896
  0
VERTEX
  8
ERSF.2a
  6
CONTINUOUS
 62
8
 10
3.6827436000169
 20
10.518765302121
  0
VERTEX
  8
ERSF.2a
  6
CONTINUOUS
 62
8
 10
3.6914926121088
 20
10.517935927002
  0
VERTEX
  8
ERSF.2a
  6
CONTINUOUS
 62
8
 10
3.7003585506586
 20
10.517972146151
  0
VERTEX
  8
ERSF.2a
  6
CONTINUOUS
 62
8
 10
3.7090863587564
 20
10.518872917609
  0
SEQEND
  0
LINE
  8
ERSF.2a
  6
CONTINUOUS
 62
8
 10
2.9088803902303
 20
10.2352380803
 11
2.9181603563098
 21
10.236195838362
  0
LINE
  8
ERSF.2a
  6
CONTINUOUS
 62
8
 10
2.8994535549833
 20
10.235199569775
 11
2.9088803902303
 21
10.2352380803
  0
LINE
  8
ERSF.2a
  6
CONTINUOUS
 62
8
 10
2.8901510434554
 20
10.236081414665
 11
2.8994535549833
 21
10.235199569775
  0
LINE
  8
ERSF.2a
  6
CONTINUOUS
 62
8
 10
2.8812404719664
 20
10.237858245898
 11
2.8901510434554
 21
10.236081414665
  0
LINE
  8
ERSF.2a
  6
CONTINUOUS
 62
8
 10
2.8729781814344
 20
10.240478947275
 11
2.8812404719664
 21
10.237858245898
  0
LINE
  8
ERSF.2a
  6
CONTINUOUS
 62
8
 10
2.8656018629151
 20
10.243868125988
 11
2.8729781814344
 21
10.240478947275
  0
LINE
  8
ERSF.2a
  6
CONTINUOUS
 62
8
 10
2.859323719662
 20
10.247928281538
 11
2.8656018629151
 21
10.243868125988
  0
LINE
  8
ERSF.2a
  6
CONTINUOUS
 62
8
 10
2.8543243624262
 20
10.25254261064
 11
2.859323719662
 21
10.247928281538
  0
LINE
  8
ERSF.2a
  6
CONTINUOUS
 62
8
 10
2.8507476136128
 20
10.257578367447
 11
2.8543243624262
 21
10.25254261064
  0
LINE
  8
ERSF.2a
  6
CONTINUOUS
 62
8
 10
2.8486963697732
 20
10.262890682406
 11
2.8507476136128
 21
10.257578367447
  0
LINE
  8
ERSF.2a
  6
CONTINUOUS
 62
8
 10
2.8482296414579
 20
10.268326729887
 11
2.8486963697732
 21
10.262890682406
  0
LINE
  8
ERSF.2a
  6
CONTINUOUS
 62
8
 10
2.8493608555907
 20
10.273730124701
 11
2.8482296414579
 21
10.268326729887
  0
LINE
  8
ERSF.2a
  6
CONTINUOUS
 62
8
 10
2.9592872286268
 20
10.268780422551
 11
2.9580236906392
 21
10.274174034319
  0
LINE
  8
ERSF.2a
  6
CONTINUOUS
 62
8
 10
2.9589537844817
 20
10.263341106204
 11
2.9592872286268
 21
10.268780422551
  0
LINE
  8
ERSF.2a
  6
CONTINUOUS
 62
8
 10
2.9570329507849
 20
10.258012564507
 11
2.9589537844817
 21
10.263341106204
  0
LINE
  8
ERSF.2a
  6
CONTINUOUS
 62
8
 10
2.9535799864246
 20
10.252948089901
 11
2.9570329507849
 21
10.258012564507
  0
LINE
  8
ERSF.2a
  6
CONTINUOUS
 62
8
 10
2.9486942268986
 20
10.248293378102
 11
2.9535799864246
 21
10.252948089901
  0
LINE
  8
ERSF.2a
  6
CONTINUOUS
 62
8
 10
2.9425162266131
 20
10.244182336692
 11
2.9486942268986
 21
10.248293378102
  0
LINE
  8
ERSF.2a
  6
CONTINUOUS
 62
8
 10
2.935223715388
 20
10.240733232847
 11
2.9425162266131
 21
10.244182336692
  0
LINE
  8
ERSF.2a
  6
CONTINUOUS
 62
8
 10
2.9270264854938
 20
10.238045291006
 11
2.935223715388
 21
10.240733232847
  0
LINE
  8
ERSF.2a
  6
CONTINUOUS
 62
8
 10
2.9181603563098
 20
10.236195838362
 11
2.9270264854938
 21
10.238045291006
  0
LINE
  8
ERSF.2a
  6
CONTINUOUS
 62
8
 10
2.9547949079312
 20
10.285629971392
 11
2.9580236906392
 21
10.274174034319
  0
LINE
  8
ERSF.2a
  6
CONTINUOUS
 62
8
 10
2.8525975115681
 20
10.285212474397
 11
2.8493608555907
 21
10.273730124701
  0
POLYLINE
  8
ERSF.2a
  6
CONTINUOUS
 62
8
 70
1
 66
1
  0
VERTEX
  8
ERSF.2a
  6
CONTINUOUS
 62
8
 10
2.9173034419944
 20
10.249911478095
  0
VERTEX
  8
ERSF.2a
  6
CONTINUOUS
 62
8
 10
2.9256420364919
 20
10.251650888307
  0
VERTEX
  8
ERSF.2a
  6
CONTINUOUS
 62
8
 10
2.9333515312074
 20
10.254178897609
  0
VERTEX
  8
ERSF.2a
  6
CONTINUOUS
 62
8
 10
2.9402101380146
 20
10.257422779774
  0
VERTEX
  8
ERSF.2a
  6
CONTINUOUS
 62
8
 10
2.9460205472832
 20
10.26128921422
  0
VERTEX
  8
ERSF.2a
  6
CONTINUOUS
 62
8
 10
2.9506156041173
 20
10.265666970668
  0
VERTEX
  8
ERSF.2a
  6
CONTINUOUS
 62
8
 10
2.9538631170982
 20
10.270430109034
  0
VERTEX
  8
ERSF.2a
  6
CONTINUOUS
 62
8
 10
2.95566966119
 20
10.275441602501
  0
VERTEX
  8
ERSF.2a
  6
CONTINUOUS
 62
8
 10
2.9559832654085
 20
10.280557279525
  0
VERTEX
  8
ERSF.2a
  6
CONTINUOUS
 62
8
 10
2.9547949079312
 20
10.285629971392
  0
VERTEX
  8
ERSF.2a
  6
CONTINUOUS
 62
8
 10
2.9521387756392
 20
10.290513745995
  0
VERTEX
  8
ERSF.2a
  6
CONTINUOUS
 62
8
 10
2.9480912806223
 20
10.295068106028
  0
VERTEX
  8
ERSF.2a
  6
CONTINUOUS
 62
8
 10
2.9427688619432
 20
10.299162030846
  0
VERTEX
  8
ERSF.2a
  6
CONTINUOUS
 62
8
 10
2.9363246358965
 20
10.302677745686
  0
VERTEX
  8
ERSF.2a
  6
CONTINUOUS
 62
8
 10
2.9289439911328
 20
10.305514109833
  0
VERTEX
  8
ERSF.2a
  6
CONTINUOUS
 62
8
 10
2.920839255364
 20
10.307589526255
  0
VERTEX
  8
ERSF.2a
  6
CONTINUOUS
 62
8
 10
2.9122435870818
 20
10.308844288999
  0
VERTEX
  8
ERSF.2a
  6
CONTINUOUS
 62
8
 10
2.9034042680127
 20
10.309242300826
  0
VERTEX
  8
ERSF.2a
  6
CONTINUOUS
 62
8
 10
2.8945755892726
 20
10.308772111661
  0
VERTEX
  8
ERSF.2a
  6
CONTINUOUS
 62
8
 10
2.8860115358745
 20
10.307447247989
  0
VERTEX
  8
ERSF.2a
  6
CONTINUOUS
 62
8
 10
2.8779584800421
 20
10.305305823727
  0
VERTEX
  8
ERSF.2a
  6
CONTINUOUS
 62
8
 10
2.8706480935295
 20
10.302409443752
  0
VERTEX
  8
ERSF.2a
  6
CONTINUOUS
 62
8
 10
2.8642906828468
 20
10.298841431642
  0
VERTEX
  8
ERSF.2a
  6
CONTINUOUS
 62
8
 10
2.8590691391244
 20
10.294704432608
  0
VERTEX
  8
ERSF.2a
  6
CONTINUOUS
 62
8
 10
2.8551336766683
 20
10.290117460582
  0
VERTEX
  8
ERSF.2a
  6
CONTINUOUS
 62
8
 10
2.8525975115681
 20
10.285212474397
  0
VERTEX
  8
ERSF.2a
  6
CONTINUOUS
 62
8
 10
2.8515336046762
 20
10.280130581574
  0
VERTEX
  8
ERSF.2a
  6
CONTINUOUS
 62
8
 10
2.8519725626567
 20
10.275017978919
  0
VERTEX
  8
ERSF.2a
  6
CONTINUOUS
 62
8
 10
2.8539017574879
 20
10.2700217467
  0
VERTEX
  8
ERSF.2a
  6
CONTINUOUS
 62
8
 10
2.8572656897468
 20
10.265285617422
  0
VERTEX
  8
ERSF.2a
  6
CONTINUOUS
 62
8
 10
2.8619675852272
 20
10.260945840902
  0
VERTEX
  8
ERSF.2a
  6
CONTINUOUS
 62
8
 10
2.8678721789566
 20
10.257127264608
  0
VERTEX
  8
ERSF.2a
  6
CONTINUOUS
 62
8
 10
2.8748096065241
 20
10.253939742028
  0
VERTEX
  8
ERSF.2a
  6
CONTINUOUS
 62
8
 10
2.8825802907694
 20
10.251474972383
  0
VERTEX
  8
ERSF.2a
  6
CONTINUOUS
 62
8
 10
2.8909606832549
 20
10.249803862608
  0
VERTEX
  8
ERSF.2a
  6
CONTINUOUS
 62
8
 10
2.8997096953468
 20
10.248974487489
  0
VERTEX
  8
ERSF.2a
  6
CONTINUOUS
 62
8
 10
2.9085756338966
 20
10.249010706638
  0
VERTEX
  8
ERSF.2a
  6
CONTINUOUS
 62
8
 10
2.9173034419944
 20
10.249911478095
  0
SEQEND
  0
LINE
  8
ERSF.2a
  6
CONTINUOUS
 62
8
 10
3.0673640943109
 20
10.325261850998
 11
3.0766440603904
 21
10.32621960906
  0
LINE
  8
ERSF.2a
  6
CONTINUOUS
 62
8
 10
3.0579372590639
 20
10.325223340473
 11
3.0673640943109
 21
10.325261850998
  0
LINE
  8
ERSF.2a
  6
CONTINUOUS
 62
8
 10
3.0486347475361
 20
10.326105185363
 11
3.0579372590639
 21
10.325223340473
  0
LINE
  8
ERSF.2a
  6
CONTINUOUS
 62
8
 10
3.039724176047
 20
10.327882016596
 11
3.0486347475361
 21
10.326105185363
  0
LINE
  8
ERSF.2a
  6
CONTINUOUS
 62
8
 10
3.031461885515
 20
10.330502717973
 11
3.039724176047
 21
10.327882016596
  0
LINE
  8
ERSF.2a
  6
CONTINUOUS
 62
8
 10
3.0240855669957
 20
10.333891896687
 11
3.031461885515
 21
10.330502717973
  0
LINE
  8
ERSF.2a
  6
CONTINUOUS
 62
8
 10
3.0178074237427
 20
10.337952052236
 11
3.0240855669957
 21
10.333891896687
  0
LINE
  8
ERSF.2a
  6
CONTINUOUS
 62
8
 10
3.0128080665068
 20
10.342566381338
 11
3.0178074237427
 21
10.337952052236
  0
LINE
  8
ERSF.2a
  6
CONTINUOUS
 62
8
 10
3.0092313176935
 20
10.347602138146
 11
3.0128080665068
 21
10.342566381338
  0
LINE
  8
ERSF.2a
  6
CONTINUOUS
 62
8
 10
3.0071800738538
 20
10.352914453105
 11
3.0092313176935
 21
10.347602138146
  0
LINE
  8
ERSF.2a
  6
CONTINUOUS
 62
8
 10
3.0067133455385
 20
10.358350500585
 11
3.0071800738538
 21
10.352914453105
  0
LINE
  8
ERSF.2a
  6
CONTINUOUS
 62
8
 10
3.0078445596714
 20
10.363753895399
 11
3.0067133455385
 21
10.358350500585
  0
LINE
  8
ERSF.2a
  6
CONTINUOUS
 62
8
 10
3.1177709327074
 20
10.358804193249
 11
3.1165073947198
 21
10.364197805017
  0
LINE
  8
ERSF.2a
  6
CONTINUOUS
 62
8
 10
3.1174374885623
 20
10.353364876902
 11
3.1177709327074
 21
10.358804193249
  0
LINE
  8
ERSF.2a
  6
CONTINUOUS
 62
8
 10
3.1155166548655
 20
10.348036335205
 11
3.1174374885623
 21
10.353364876902
  0
LINE
  8
ERSF.2a
  6
CONTINUOUS
 62
8
 10
3.1120636905052
 20
10.3429718606
 11
3.1155166548655
 21
10.348036335205
  0
LINE
  8
ERSF.2a
  6
CONTINUOUS
 62
8
 10
3.1071779309792
 20
10.3383171488
 11
3.1120636905052
 21
10.3429718606
  0
LINE
  8
ERSF.2a
  6
CONTINUOUS
 62
8
 10
3.1009999306937
 20
10.33420610739
 11
3.1071779309792
 21
10.3383171488
  0
LINE
  8
ERSF.2a
  6
CONTINUOUS
 62
8
 10
3.0937074194686
 20
10.330757003545
 11
3.1009999306937
 21
10.33420610739
  0
LINE
  8
ERSF.2a
  6
CONTINUOUS
 62
8
 10
3.0855101895744
 20
10.328069061705
 11
3.0937074194686
 21
10.330757003545
  0
LINE
  8
ERSF.2a
  6
CONTINUOUS
 62
8
 10
3.0766440603904
 20
10.32621960906
 11
3.0855101895744
 21
10.328069061705
  0
LINE
  8
ERSF.2a
  6
CONTINUOUS
 62
8
 10
3.1132786120118
 20
10.375653742091
 11
3.1165073947198
 21
10.364197805017
  0
LINE
  8
ERSF.2a
  6
CONTINUOUS
 62
8
 10
3.0110812156487
 20
10.375236245095
 11
3.0078445596714
 21
10.363753895399
  0
POLYLINE
  8
ERSF.2a
  6
CONTINUOUS
 62
8
 70
1
 66
1
  0
VERTEX
  8
ERSF.2a
  6
CONTINUOUS
 62
8
 10
3.075787146075
 20
10.339935248794
  0
VERTEX
  8
ERSF.2a
  6
CONTINUOUS
 62
8
 10
3.0841257405725
 20
10.341674659006
  0
VERTEX
  8
ERSF.2a
  6
CONTINUOUS
 62
8
 10
3.091835235288
 20
10.344202668307
  0
VERTEX
  8
ERSF.2a
  6
CONTINUOUS
 62
8
 10
3.0986938420953
 20
10.347446550472
  0
VERTEX
  8
ERSF.2a
  6
CONTINUOUS
 62
8
 10
3.1045042513638
 20
10.351312984919
  0
VERTEX
  8
ERSF.2a
  6
CONTINUOUS
 62
8
 10
3.1090993081979
 20
10.355690741366
  0
VERTEX
  8
ERSF.2a
  6
CONTINUOUS
 62
8
 10
3.1123468211788
 20
10.360453879732
  0
VERTEX
  8
ERSF.2a
  6
CONTINUOUS
 62
8
 10
3.1141533652706
 20
10.365465373199
  0
VERTEX
  8
ERSF.2a
  6
CONTINUOUS
 62
8
 10
3.1144669694891
 20
10.370581050223
  0
VERTEX
  8
ERSF.2a
  6
CONTINUOUS
 62
8
 10
3.1132786120118
 20
10.375653742091
  0
VERTEX
  8
ERSF.2a
  6
CONTINUOUS
 62
8
 10
3.1106224797198
 20
10.380537516693
  0
VERTEX
  8
ERSF.2a
  6
CONTINUOUS
 62
8
 10
3.106574984703
 20
10.385091876726
  0
VERTEX
  8
ERSF.2a
  6
CONTINUOUS
 62
8
 10
3.1012525660238
 20
10.389185801544
  0
VERTEX
  8
ERSF.2a
  6
CONTINUOUS
 62
8
 10
3.0948083399772
 20
10.392701516384
  0
VERTEX
  8
ERSF.2a
  6
CONTINUOUS
 62
8
 10
3.0874276952134
 20
10.395537880531
  0
VERTEX
  8
ERSF.2a
  6
CONTINUOUS
 62
8
 10
3.0793229594446
 20
10.397613296953
  0
VERTEX
  8
ERSF.2a
  6
CONTINUOUS
 62
8
 10
3.0707272911624
 20
10.398868059697
  0
VERTEX
  8
ERSF.2a
  6
CONTINUOUS
 62
8
 10
3.0618879720933
 20
10.399266071524
  0
VERTEX
  8
ERSF.2a
  6
CONTINUOUS
 62
8
 10
3.0530592933532
 20
10.398795882359
  0
VERTEX
  8
ERSF.2a
  6
CONTINUOUS
 62
8
 10
3.0444952399551
 20
10.397471018688
  0
VERTEX
  8
ERSF.2a
  6
CONTINUOUS
 62
8
 10
3.0364421841227
 20
10.395329594426
  0
VERTEX
  8
ERSF.2a
  6
CONTINUOUS
 62
8
 10
3.0291317976101
 20
10.39243321445
  0
VERTEX
  8
ERSF.2a
  6
CONTINUOUS
 62
8
 10
3.0227743869274
 20
10.38886520234
  0
VERTEX
  8
ERSF.2a
  6
CONTINUOUS
 62
8
 10
3.017552843205
 20
10.384728203307
  0
VERTEX
  8
ERSF.2a
  6
CONTINUOUS
 62
8
 10
3.0136173807489
 20
10.38014123128
  0
VERTEX
  8
ERSF.2a
  6
CONTINUOUS
 62
8
 10
3.0110812156487
 20
10.375236245095
  0
VERTEX
  8
ERSF.2a
  6
CONTINUOUS
 62
8
 10
3.0100173087568
 20
10.370154352273
  0
VERTEX
  8
ERSF.2a
  6
CONTINUOUS
 62
8
 10
3.0104562667374
 20
10.365041749617
  0
VERTEX
  8
ERSF.2a
  6
CONTINUOUS
 62
8
 10
3.0123854615685
 20
10.360045517398
  0
VERTEX
  8
ERSF.2a
  6
CONTINUOUS
 62
8
 10
3.0157493938275
 20
10.355309388121
  0
VERTEX
  8
ERSF.2a
  6
CONTINUOUS
 62
8
 10
3.0204512893078
 20
10.3509696116
  0
VERTEX
  8
ERSF.2a
  6
CONTINUOUS
 62
8
 10
3.0263558830372
 20
10.347151035306
  0
VERTEX
  8
ERSF.2a
  6
CONTINUOUS
 62
8
 10
3.0332933106047
 20
10.343963512726
  0
VERTEX
  8
ERSF.2a
  6
CONTINUOUS
 62
8
 10
3.04106399485
 20
10.341498743081
  0
VERTEX
  8
ERSF.2a
  6
CONTINUOUS
 62
8
 10
3.0494443873355
 20
10.339827633306
  0
VERTEX
  8
ERSF.2a
  6
CONTINUOUS
 62
8
 10
3.0581933994274
 20
10.338998258187
  0
VERTEX
  8
ERSF.2a
  6
CONTINUOUS
 62
8
 10
3.0670593379772
 20
10.339034477336
  0
VERTEX
  8
ERSF.2a
  6
CONTINUOUS
 62
8
 10
3.075787146075
 20
10.339935248794
  0
SEQEND
  0
LINE
  8
ERSF.2a
  6
CONTINUOUS
 62
8
 10
3.2258477983915
 20
10.415285621696
 11
3.2351277644711
 21
10.416243379759
  0
LINE
  8
ERSF.2a
  6
CONTINUOUS
 62
8
 10
3.2164209631445
 20
10.415247111171
 11
3.2258477983915
 21
10.415285621696
  0
LINE
  8
ERSF.2a
  6
CONTINUOUS
 62
8
 10
3.2071184516167
 20
10.416128956061
 11
3.2164209631445
 21
10.415247111171
  0
LINE
  8
ERSF.2a
  6
CONTINUOUS
 62
8
 10
3.1982078801276
 20
10.417905787294
 11
3.2071184516167
 21
10.416128956061
  0
LINE
  8
ERSF.2a
  6
CONTINUOUS
 62
8
 10
3.1899455895957
 20
10.420526488671
 11
3.1982078801276
 21
10.417905787294
  0
LINE
  8
ERSF.2a
  6
CONTINUOUS
 62
8
 10
3.1825692710763
 20
10.423915667385
 11
3.1899455895957
 21
10.420526488671
  0
LINE
  8
ERSF.2a
  6
CONTINUOUS
 62
8
 10
3.1762911278233
 20
10.427975822934
 11
3.1825692710763
 21
10.423915667385
  0
LINE
  8
ERSF.2a
  6
CONTINUOUS
 62
8
 10
3.1712917705874
 20
10.432590152036
 11
3.1762911278233
 21
10.427975822934
  0
LINE
  8
ERSF.2a
  6
CONTINUOUS
 62
8
 10
3.1677150217741
 20
10.437625908844
 11
3.1712917705874
 21
10.432590152036
  0
LINE
  8
ERSF.2a
  6
CONTINUOUS
 62
8
 10
3.1656637779345
 20
10.442938223803
 11
3.1677150217741
 21
10.437625908844
  0
LINE
  8
ERSF.2a
  6
CONTINUOUS
 62
8
 10
3.1651970496191
 20
10.448374271283
 11
3.1656637779345
 21
10.442938223803
  0
LINE
  8
ERSF.2a
  6
CONTINUOUS
 62
8
 10
3.166328263752
 20
10.453777666097
 11
3.1651970496191
 21
10.448374271283
  0
LINE
  8
ERSF.2a
  6
CONTINUOUS
 62
8
 10
3.276254636788
 20
10.448827963947
 11
3.2749910988005
 21
10.454221575715
  0
LINE
  8
ERSF.2a
  6
CONTINUOUS
 62
8
 10
3.2759211926429
 20
10.443388647601
 11
3.276254636788
 21
10.448827963947
  0
LINE
  8
ERSF.2a
  6
CONTINUOUS
 62
8
 10
3.2740003589461
 20
10.438060105903
 11
3.2759211926429
 21
10.443388647601
  0
LINE
  8
ERSF.2a
  6
CONTINUOUS
 62
8
 10
3.2705473945858
 20
10.432995631298
 11
3.2740003589461
 21
10.438060105903
  0
LINE
  8
ERSF.2a
  6
CONTINUOUS
 62
8
 10
3.2656616350598
 20
10.428340919498
 11
3.2705473945858
 21
10.432995631298
  0
LINE
  8
ERSF.2a
  6
CONTINUOUS
 62
8
 10
3.2594836347743
 20
10.424229878088
 11
3.2656616350598
 21
10.428340919498
  0
LINE
  8
ERSF.2a
  6
CONTINUOUS
 62
8
 10
3.2521911235492
 20
10.420780774244
 11
3.2594836347743
 21
10.424229878088
  0
LINE
  8
ERSF.2a
  6
CONTINUOUS
 62
8
 10
3.243993893655
 20
10.418092832403
 11
3.2521911235492
 21
10.420780774244
  0
LINE
  8
ERSF.2a
  6
CONTINUOUS
 62
8
 10
3.2351277644711
 20
10.416243379759
 11
3.243993893655
 21
10.418092832403
  0
LINE
  8
ERSF.2a
  6
CONTINUOUS
 62
8
 10
3.2717623160924
 20
10.465677512789
 11
3.2749910988005
 21
10.454221575715
  0
LINE
  8
ERSF.2a
  6
CONTINUOUS
 62
8
 10
3.1695649197293
 20
10.465260015793
 11
3.166328263752
 21
10.453777666097
  0
POLYLINE
  8
ERSF.2a
  6
CONTINUOUS
 62
8
 70
1
 66
1
  0
VERTEX
  8
ERSF.2a
  6
CONTINUOUS
 62
8
 10
3.2342708501556
 20
10.429959019492
  0
VERTEX
  8
ERSF.2a
  6
CONTINUOUS
 62
8
 10
3.2426094446531
 20
10.431698429704
  0
VERTEX
  8
ERSF.2a
  6
CONTINUOUS
 62
8
 10
3.2503189393686
 20
10.434226439005
  0
VERTEX
  8
ERSF.2a
  6
CONTINUOUS
 62
8
 10
3.2571775461759
 20
10.437470321171
  0
VERTEX
  8
ERSF.2a
  6
CONTINUOUS
 62
8
 10
3.2629879554444
 20
10.441336755617
  0
VERTEX
  8
ERSF.2a
  6
CONTINUOUS
 62
8
 10
3.2675830122785
 20
10.445714512064
  0
VERTEX
  8
ERSF.2a
  6
CONTINUOUS
 62
8
 10
3.2708305252594
 20
10.450477650431
  0
VERTEX
  8
ERSF.2a
  6
CONTINUOUS
 62
8
 10
3.2726370693513
 20
10.455489143897
  0
VERTEX
  8
ERSF.2a
  6
CONTINUOUS
 62
8
 10
3.2729506735697
 20
10.460604820921
  0
VERTEX
  8
ERSF.2a
  6
CONTINUOUS
 62
8
 10
3.2717623160924
 20
10.465677512789
  0
VERTEX
  8
ERSF.2a
  6
CONTINUOUS
 62
8
 10
3.2691061838004
 20
10.470561287391
  0
VERTEX
  8
ERSF.2a
  6
CONTINUOUS
 62
8
 10
3.2650586887836
 20
10.475115647424
  0
VERTEX
  8
ERSF.2a
  6
CONTINUOUS
 62
8
 10
3.2597362701044
 20
10.479209572243
  0
VERTEX
  8
ERSF.2a
  6
CONTINUOUS
 62
8
 10
3.2532920440578
 20
10.482725287083
  0
VERTEX
  8
ERSF.2a
  6
CONTINUOUS
 62
8
 10
3.2459113992941
 20
10.48556165123
  0
VERTEX
  8
ERSF.2a
  6
CONTINUOUS
 62
8
 10
3.2378066635252
 20
10.487637067651
  0
VERTEX
  8
ERSF.2a
  6
CONTINUOUS
 62
8
 10
3.229210995243
 20
10.488891830395
  0
VERTEX
  8
ERSF.2a
  6
CONTINUOUS
 62
8
 10
3.2203716761739
 20
10.489289842222
  0
VERTEX
  8
ERSF.2a
  6
CONTINUOUS
 62
8
 10
3.2115429974338
 20
10.488819653057
  0
VERTEX
  8
ERSF.2a
  6
CONTINUOUS
 62
8
 10
3.2029789440357
 20
10.487494789386
  0
VERTEX
  8
ERSF.2a
  6
CONTINUOUS
 62
8
 10
3.1949258882033
 20
10.485353365124
  0
VERTEX
  8
ERSF.2a
  6
CONTINUOUS
 62
8
 10
3.1876155016908
 20
10.482456985148
  0
VERTEX
  8
ERSF.2a
  6
CONTINUOUS
 62
8
 10
3.1812580910081
 20
10.478888973038
  0
VERTEX
  8
ERSF.2a
  6
CONTINUOUS
 62
8
 10
3.1760365472856
 20
10.474751974005
  0
VERTEX
  8
ERSF.2a
  6
CONTINUOUS
 62
8
 10
3.1721010848295
 20
10.470165001979
  0
VERTEX
  8
ERSF.2a
  6
CONTINUOUS
 62
8
 10
3.1695649197293
 20
10.465260015793
  0
VERTEX
  8
ERSF.2a
  6
CONTINUOUS
 62
8
 10
3.1685010128374
 20
10.460178122971
  0
VERTEX
  8
ERSF.2a
  6
CONTINUOUS
 62
8
 10
3.168939970818
 20
10.455065520315
  0
VERTEX
  8
ERSF.2a
  6
CONTINUOUS
 62
8
 10
3.1708691656491
 20
10.450069288097
  0
VERTEX
  8
ERSF.2a
  6
CONTINUOUS
 62
8
 10
3.1742330979081
 20
10.445333158819
  0
VERTEX
  8
ERSF.2a
  6
CONTINUOUS
 62
8
 10
3.1789349933884
 20
10.440993382298
  0
VERTEX
  8
ERSF.2a
  6
CONTINUOUS
 62
8
 10
3.1848395871179
 20
10.437174806004
  0
VERTEX
  8
ERSF.2a
  6
CONTINUOUS
 62
8
 10
3.1917770146853
 20
10.433987283424
  0
VERTEX
  8
ERSF.2a
  6
CONTINUOUS
 62
8
 10
3.1995476989306
 20
10.431522513779
  0
VERTEX
  8
ERSF.2a
  6
CONTINUOUS
 62
8
 10
3.2079280914161
 20
10.429851404004
  0
VERTEX
  8
ERSF.2a
  6
CONTINUOUS
 62
8
 10
3.216677103508
 20
10.429022028885
  0
VERTEX
  8
ERSF.2a
  6
CONTINUOUS
 62
8
 10
3.2255430420578
 20
10.429058248034
  0
VERTEX
  8
ERSF.2a
  6
CONTINUOUS
 62
8
 10
3.2342708501556
 20
10.429959019492
  0
SEQEND
  0
LINE
  8
ERSF.2a
  6
CONTINUOUS
 62
8
 10
3.3843315024721
 20
10.505309392394
 11
3.3936114685517
 21
10.506267150457
  0
LINE
  8
ERSF.2a
  6
CONTINUOUS
 62
8
 10
3.3749046672251
 20
10.505270881869
 11
3.3843315024721
 21
10.505309392394
  0
LINE
  8
ERSF.2a
  6
CONTINUOUS
 62
8
 10
3.3656021556973
 20
10.506152726759
 11
3.3749046672251
 21
10.505270881869
  0
LINE
  8
ERSF.2a
  6
CONTINUOUS
 62
8
 10
3.3566915842082
 20
10.507929557993
 11
3.3656021556973
 21
10.506152726759
  0
LINE
  8
ERSF.2a
  6
CONTINUOUS
 62
8
 10
3.3484292936763
 20
10.51055025937
 11
3.3566915842082
 21
10.507929557993
  0
LINE
  8
ERSF.2a
  6
CONTINUOUS
 62
8
 10
3.3410529751569
 20
10.513939438083
 11
3.3484292936763
 21
10.51055025937
  0
LINE
  8
ERSF.2a
  6
CONTINUOUS
 62
8
 10
3.3347748319039
 20
10.517999593632
 11
3.3410529751569
 21
10.513939438083
  0
LINE
  8
ERSF.2a
  6
CONTINUOUS
 62
8
 10
3.329775474668
 20
10.522613922734
 11
3.3347748319039
 21
10.517999593632
  0
LINE
  8
ERSF.2a
  6
CONTINUOUS
 62
8
 10
3.3261987258547
 20
10.527649679542
 11
3.329775474668
 21
10.522613922734
  0
LINE
  8
ERSF.2a
  6
CONTINUOUS
 62
8
 10
3.3241474820151
 20
10.532961994501
 11
3.3261987258547
 21
10.527649679542
  0
LINE
  8
ERSF.2a
  6
CONTINUOUS
 62
8
 10
3.3236807536998
 20
10.538398041982
 11
3.3241474820151
 21
10.532961994501
  0
LINE
  8
ERSF.2a
  6
CONTINUOUS
 62
8
 10
3.3248119678326
 20
10.543801436796
 11
3.3236807536998
 21
10.538398041982
  0
LINE
  8
ERSF.2a
  6
CONTINUOUS
 62
8
 10
3.4347383408686
 20
10.538851734645
 11
3.4334748028811
 21
10.544245346413
  0
LINE
  8
ERSF.2a
  6
CONTINUOUS
 62
8
 10
3.4344048967235
 20
10.533412418299
 11
3.4347383408686
 21
10.538851734645
  0
LINE
  8
ERSF.2a
  6
CONTINUOUS
 62
8
 10
3.4324840630267
 20
10.528083876601
 11
3.4344048967235
 21
10.533412418299
  0
LINE
  8
ERSF.2a
  6
CONTINUOUS
 62
8
 10
3.4290310986664
 20
10.523019401996
 11
3.4324840630267
 21
10.528083876601
  0
LINE
  8
ERSF.2a
  6
CONTINUOUS
 62
8
 10
3.4241453391405
 20
10.518364690196
 11
3.4290310986664
 21
10.523019401996
  0
LINE
  8
ERSF.2a
  6
CONTINUOUS
 62
8
 10
3.4179673388549
 20
10.514253648786
 11
3.4241453391405
 21
10.518364690196
  0
LINE
  8
ERSF.2a
  6
CONTINUOUS
 62
8
 10
3.4106748276298
 20
10.510804544942
 11
3.4179673388549
 21
10.514253648786
  0
LINE
  8
ERSF.2a
  6
CONTINUOUS
 62
8
 10
3.4024775977356
 20
10.508116603101
 11
3.4106748276298
 21
10.510804544942
  0
LINE
  8
ERSF.2a
  6
CONTINUOUS
 62
8
 10
3.3936114685517
 20
10.506267150457
 11
3.4024775977356
 21
10.508116603101
  0
LINE
  8
ERSF.2a
  6
CONTINUOUS
 62
8
 10
3.4302460201731
 20
10.555701283487
 11
3.4334748028811
 21
10.544245346413
  0
LINE
  8
ERSF.2a
  6
CONTINUOUS
 62
8
 10
3.32804862381
 20
10.555283786492
 11
3.3248119678326
 21
10.543801436796
  0
POLYLINE
  8
ERSF.2a
  6
CONTINUOUS
 62
8
 70
1
 66
1
  0
VERTEX
  8
ERSF.2a
  6
CONTINUOUS
 62
8
 10
3.3927545542363
 20
10.51998279019
  0
VERTEX
  8
ERSF.2a
  6
CONTINUOUS
 62
8
 10
3.4010931487337
 20
10.521722200402
  0
VERTEX
  8
ERSF.2a
  6
CONTINUOUS
 62
8
 10
3.4088026434493
 20
10.524250209703
  0
VERTEX
  8
ERSF.2a
  6
CONTINUOUS
 62
8
 10
3.4156612502565
 20
10.527494091869
  0
VERTEX
  8
ERSF.2a
  6
CONTINUOUS
 62
8
 10
3.421471659525
 20
10.531360526315
  0
VERTEX
  8
ERSF.2a
  6
CONTINUOUS
 62
8
 10
3.4260667163592
 20
10.535738282763
  0
VERTEX
  8
ERSF.2a
  6
CONTINUOUS
 62
8
 10
3.42931422934
 20
10.540501421129
  0
VERTEX
  8
ERSF.2a
  6
CONTINUOUS
 62
8
 10
3.4311207734319
 20
10.545512914595
  0
VERTEX
  8
ERSF.2a
  6
CONTINUOUS
 62
8
 10
3.4314343776503
 20
10.550628591619
  0
VERTEX
  8
ERSF.2a
  6
CONTINUOUS
 62
8
 10
3.4302460201731
 20
10.555701283487
  0
VERTEX
  8
ERSF.2a
  6
CONTINUOUS
 62
8
 10
3.427589887881
 20
10.560585058089
  0
VERTEX
  8
ERSF.2a
  6
CONTINUOUS
 62
8
 10
3.4235423928642
 20
10.565139418123
  0
VERTEX
  8
ERSF.2a
  6
CONTINUOUS
 62
8
 10
3.418219974185
 20
10.569233342941
  0
VERTEX
  8
ERSF.2a
  6
CONTINUOUS
 62
8
 10
3.4117757481384
 20
10.572749057781
  0
VERTEX
  8
ERSF.2a
  6
CONTINUOUS
 62
8
 10
3.4043951033747
 20
10.575585421928
  0
VERTEX
  8
ERSF.2a
  6
CONTINUOUS
 62
8
 10
3.3962903676058
 20
10.577660838349
  0
VERTEX
  8
ERSF.2a
  6
CONTINUOUS
 62
8
 10
3.3876946993237
 20
10.578915601093
  0
VERTEX
  8
ERSF.2a
  6
CONTINUOUS
 62
8
 10
3.3788553802546
 20
10.579313612921
  0
VERTEX
  8
ERSF.2a
  6
CONTINUOUS
 62
8
 10
3.3700267015144
 20
10.578843423756
  0
VERTEX
  8
ERSF.2a
  6
CONTINUOUS
 62
8
 10
3.3614626481163
 20
10.577518560084
  0
VERTEX
  8
ERSF.2a
  6
CONTINUOUS
 62
8
 10
3.3534095922839
 20
10.575377135822
  0
VERTEX
  8
ERSF.2a
  6
CONTINUOUS
 62
8
 10
3.3460992057714
 20
10.572480755847
  0
VERTEX
  8
ERSF.2a
  6
CONTINUOUS
 62
8
 10
3.3397417950887
 20
10.568912743736
  0
VERTEX
  8
ERSF.2a
  6
CONTINUOUS
 62
8
 10
3.3345202513662
 20
10.564775744703
  0
VERTEX
  8
ERSF.2a
  6
CONTINUOUS
 62
8
 10
3.3305847889101
 20
10.560188772677
  0
VERTEX
  8
ERSF.2a
  6
CONTINUOUS
 62
8
 10
3.32804862381
 20
10.555283786492
  0
VERTEX
  8
ERSF.2a
  6
CONTINUOUS
 62
8
 10
3.326984716918
 20
10.550201893669
  0
VERTEX
  8
ERSF.2a
  6
CONTINUOUS
 62
8
 10
3.3274236748986
 20
10.545089291014
  0
VERTEX
  8
ERSF.2a
  6
CONTINUOUS
 62
8
 10
3.3293528697297
 20
10.540093058795
  0
VERTEX
  8
ERSF.2a
  6
CONTINUOUS
 62
8
 10
3.3327168019887
 20
10.535356929517
  0
VERTEX
  8
ERSF.2a
  6
CONTINUOUS
 62
8
 10
3.337418697469
 20
10.531017152997
  0
VERTEX
  8
ERSF.2a
  6
CONTINUOUS
 62
8
 10
3.3433232911985
 20
10.527198576703
  0
VERTEX
  8
ERSF.2a
  6
CONTINUOUS
 62
8
 10
3.3502607187659
 20
10.524011054123
  0
VERTEX
  8
ERSF.2a
  6
CONTINUOUS
 62
8
 10
3.3580314030113
 20
10.521546284478
  0
VERTEX
  8
ERSF.2a
  6
CONTINUOUS
 62
8
 10
3.3664117954967
 20
10.519875174703
  0
VERTEX
  8
ERSF.2a
  6
CONTINUOUS
 62
8
 10
3.3751608075886
 20
10.519045799584
  0
VERTEX
  8
ERSF.2a
  6
CONTINUOUS
 62
8
 10
3.3840267461385
 20
10.519082018732
  0
VERTEX
  8
ERSF.2a
  6
CONTINUOUS
 62
8
 10
3.3927545542363
 20
10.51998279019
  0
SEQEND
  0
LINE
  8
ERSF.2a
  6
CONTINUOUS
 62
8
 10
3.5428152065528
 20
10.595333163093
 11
3.5520951726323
 21
10.596290921155
  0
LINE
  8
ERSF.2a
  6
CONTINUOUS
 62
8
 10
3.5333883713057
 20
10.595294652568
 11
3.5428152065528
 21
10.595333163093
  0
LINE
  8
ERSF.2a
  6
CONTINUOUS
 62
8
 10
3.5240858597779
 20
10.596176497458
 11
3.5333883713057
 21
10.595294652568
  0
LINE
  8
ERSF.2a
  6
CONTINUOUS
 62
8
 10
3.5151752882889
 20
10.597953328691
 11
3.5240858597779
 21
10.596176497458
  0
LINE
  8
ERSF.2a
  6
CONTINUOUS
 62
8
 10
3.5069129977569
 20
10.600574030068
 11
3.5151752882889
 21
10.597953328691
  0
LINE
  8
ERSF.2a
  6
CONTINUOUS
 62
8
 10
3.4995366792375
 20
10.603963208781
 11
3.5069129977569
 21
10.600574030068
  0
LINE
  8
ERSF.2a
  6
CONTINUOUS
 62
8
 10
3.4932585359845
 20
10.608023364331
 11
3.4995366792375
 21
10.603963208781
  0
LINE
  8
ERSF.2a
  6
CONTINUOUS
 62
8
 10
3.4882591787486
 20
10.612637693433
 11
3.4932585359845
 21
10.608023364331
  0
LINE
  8
ERSF.2a
  6
CONTINUOUS
 62
8
 10
3.4846824299353
 20
10.61767345024
 11
3.4882591787486
 21
10.612637693433
  0
LINE
  8
ERSF.2a
  6
CONTINUOUS
 62
8
 10
3.4826311860957
 20
10.622985765199
 11
3.4846824299353
 21
10.61767345024
  0
LINE
  8
ERSF.2a
  6
CONTINUOUS
 62
8
 10
3.4821644577804
 20
10.62842181268
 11
3.4826311860957
 21
10.622985765199
  0
LINE
  8
ERSF.2a
  6
CONTINUOUS
 62
8
 10
3.4832956719132
 20
10.633825207494
 11
3.4821644577804
 21
10.62842181268
  0
LINE
  8
ERSF.2a
  6
CONTINUOUS
 62
8
 10
3.5932220449492
 20
10.628875505344
 11
3.5919585069617
 21
10.634269117112
  0
LINE
  8
ERSF.2a
  6
CONTINUOUS
 62
8
 10
3.5928886008041
 20
10.623436188997
 11
3.5932220449492
 21
10.628875505344
  0
LINE
  8
ERSF.2a
  6
CONTINUOUS
 62
8
 10
3.5909677671073
 20
10.6181076473
 11
3.5928886008041
 21
10.623436188997
  0
LINE
  8
ERSF.2a
  6
CONTINUOUS
 62
8
 10
3.587514802747
 20
10.613043172694
 11
3.5909677671073
 21
10.6181076473
  0
LINE
  8
ERSF.2a
  6
CONTINUOUS
 62
8
 10
3.5826290432211
 20
10.608388460895
 11
3.587514802747
 21
10.613043172694
  0
LINE
  8
ERSF.2a
  6
CONTINUOUS
 62
8
 10
3.5764510429356
 20
10.604277419485
 11
3.5826290432211
 21
10.608388460895
  0
LINE
  8
ERSF.2a
  6
CONTINUOUS
 62
8
 10
3.5691585317104
 20
10.60082831564
 11
3.5764510429356
 21
10.604277419485
  0
LINE
  8
ERSF.2a
  6
CONTINUOUS
 62
8
 10
3.5609613018162
 20
10.598140373799
 11
3.5691585317104
 21
10.60082831564
  0
LINE
  8
ERSF.2a
  6
CONTINUOUS
 62
8
 10
3.5520951726323
 20
10.596290921155
 11
3.5609613018162
 21
10.598140373799
  0
LINE
  8
ERSF.2a
  6
CONTINUOUS
 62
8
 10
3.5887297242537
 20
10.645725054185
 11
3.5919585069617
 21
10.634269117112
  0
LINE
  8
ERSF.2a
  6
CONTINUOUS
 62
8
 10
3.4865323278906
 20
10.64530755719
 11
3.4832956719132
 21
10.633825207494
  0
POLYLINE
  8
ERSF.2a
  6
CONTINUOUS
 62
8
 70
1
 66
1
  0
VERTEX
  8
ERSF.2a
  6
CONTINUOUS
 62
8
 10
3.5512382583169
 20
10.610006560888
  0
VERTEX
  8
ERSF.2a
  6
CONTINUOUS
 62
8
 10
3.5595768528144
 20
10.6117459711
  0
VERTEX
  8
ERSF.2a
  6
CONTINUOUS
 62
8
 10
3.5672863475299
 20
10.614273980401
  0
VERTEX
  8
ERSF.2a
  6
CONTINUOUS
 62
8
 10
3.5741449543371
 20
10.617517862567
  0
VERTEX
  8
ERSF.2a
  6
CONTINUOUS
 62
8
 10
3.5799553636056
 20
10.621384297013
  0
VERTEX
  8
ERSF.2a
  6
CONTINUOUS
 62
8
 10
3.5845504204398
 20
10.625762053461
  0
VERTEX
  8
ERSF.2a
  6
CONTINUOUS
 62
8
 10
3.5877979334206
 20
10.630525191827
  0
VERTEX
  8
ERSF.2a
  6
CONTINUOUS
 62
8
 10
3.5896044775125
 20
10.635536685294
  0
VERTEX
  8
ERSF.2a
  6
CONTINUOUS
 62
8
 10
3.589918081731
 20
10.640652362318
  0
VERTEX
  8
ERSF.2a
  6
CONTINUOUS
 62
8
 10
3.5887297242537
 20
10.645725054185
  0
VERTEX
  8
ERSF.2a
  6
CONTINUOUS
 62
8
 10
3.5860735919616
 20
10.650608828788
  0
VERTEX
  8
ERSF.2a
  6
CONTINUOUS
 62
8
 10
3.5820260969448
 20
10.655163188821
  0
VERTEX
  8
ERSF.2a
  6
CONTINUOUS
 62
8
 10
3.5767036782656
 20
10.659257113639
  0
VERTEX
  8
ERSF.2a
  6
CONTINUOUS
 62
8
 10
3.570259452219
 20
10.662772828479
  0
VERTEX
  8
ERSF.2a
  6
CONTINUOUS
 62
8
 10
3.5628788074553
 20
10.665609192626
  0
VERTEX
  8
ERSF.2a
  6
CONTINUOUS
 62
8
 10
3.5547740716864
 20
10.667684609047
  0
VERTEX
  8
ERSF.2a
  6
CONTINUOUS
 62
8
 10
3.5461784034043
 20
10.668939371792
  0
VERTEX
  8
ERSF.2a
  6
CONTINUOUS
 62
8
 10
3.5373390843352
 20
10.669337383619
  0
VERTEX
  8
ERSF.2a
  6
CONTINUOUS
 62
8
 10
3.5285104055951
 20
10.668867194454
  0
VERTEX
  8
ERSF.2a
  6
CONTINUOUS
 62
8
 10
3.5199463521969
 20
10.667542330782
  0
VERTEX
  8
ERSF.2a
  6
CONTINUOUS
 62
8
 10
3.5118932963645
 20
10.66540090652
  0
VERTEX
  8
ERSF.2a
  6
CONTINUOUS
 62
8
 10
3.504582909852
 20
10.662504526545
  0
VERTEX
  8
ERSF.2a
  6
CONTINUOUS
 62
8
 10
3.4982254991693
 20
10.658936514435
  0
VERTEX
  8
ERSF.2a
  6
CONTINUOUS
 62
8
 10
3.4930039554469
 20
10.654799515401
  0
VERTEX
  8
ERSF.2a
  6
CONTINUOUS
 62
8
 10
3.4890684929908
 20
10.650212543375
  0
VERTEX
  8
ERSF.2a
  6
CONTINUOUS
 62
8
 10
3.4865323278906
 20
10.64530755719
  0
VERTEX
  8
ERSF.2a
  6
CONTINUOUS
 62
8
 10
3.4854684209986
 20
10.640225664367
  0
VERTEX
  8
ERSF.2a
  6
CONTINUOUS
 62
8
 10
3.4859073789792
 20
10.635113061712
  0
VERTEX
  8
ERSF.2a
  6
CONTINUOUS
 62
8
 10
3.4878365738104
 20
10.630116829493
  0
VERTEX
  8
ERSF.2a
  6
CONTINUOUS
 62
8
 10
3.4912005060693
 20
10.625380700215
  0
VERTEX
  8
ERSF.2a
  6
CONTINUOUS
 62
8
 10
3.4959024015496
 20
10.621040923695
  0
VERTEX
  8
ERSF.2a
  6
CONTINUOUS
 62
8
 10
3.5018069952791
 20
10.617222347401
  0
VERTEX
  8
ERSF.2a
  6
CONTINUOUS
 62
8
 10
3.5087444228466
 20
10.614034824821
  0
VERTEX
  8
ERSF.2a
  6
CONTINUOUS
 62
8
 10
3.5165151070919
 20
10.611570055176
  0
VERTEX
  8
ERSF.2a
  6
CONTINUOUS
 62
8
 10
3.5248954995773
 20
10.609898945401
  0
VERTEX
  8
ERSF.2a
  6
CONTINUOUS
 62
8
 10
3.5336445116693
 20
10.609069570282
  0
VERTEX
  8
ERSF.2a
  6
CONTINUOUS
 62
8
 10
3.5425104502191
 20
10.609105789431
  0
VERTEX
  8
ERSF.2a
  6
CONTINUOUS
 62
8
 10
3.5512382583169
 20
10.610006560888
  0
SEQEND
  0
LINE
  8
ERSF.2a
  6
CONTINUOUS
 62
8
 10
4.1748432119521
 20
10.411956003951
 11
4.1829293192178
 21
10.41279054735
  0
LINE
  8
ERSF.2a
  6
CONTINUOUS
 62
8
 10
4.1654163767051
 20
10.411917493426
 11
4.1748432119521
 21
10.411956003951
  0
LINE
  8
ERSF.2a
  6
CONTINUOUS
 62
8
 10
4.1561138651772
 20
10.412799338316
 11
4.1654163767051
 21
10.411917493426
  0
LINE
  8
ERSF.2a
  6
CONTINUOUS
 62
8
 10
4.1472032936882
 20
10.41457616955
 11
4.1561138651772
 21
10.412799338316
  0
LINE
  8
ERSF.2a
  6
CONTINUOUS
 62
8
 10
4.1389410031562
 20
10.417196870927
 11
4.1472032936882
 21
10.41457616955
  0
LINE
  8
ERSF.2a
  6
CONTINUOUS
 62
8
 10
4.1315646846368
 20
10.42058604964
 11
4.1389410031562
 21
10.417196870927
  0
LINE
  8
ERSF.2a
  6
CONTINUOUS
 62
8
 10
4.1252865413838
 20
10.424646205189
 11
4.1315646846368
 21
10.42058604964
  0
LINE
  8
ERSF.2a
  6
CONTINUOUS
 62
8
 10
4.120287184148
 20
10.429260534291
 11
4.1252865413838
 21
10.424646205189
  0
LINE
  8
ERSF.2a
  6
CONTINUOUS
 62
8
 10
4.1167104353346
 20
10.434296291099
 11
4.120287184148
 21
10.429260534291
  0
LINE
  8
ERSF.2a
  6
CONTINUOUS
 62
8
 10
4.114659191495
 20
10.439608606058
 11
4.1167104353346
 21
10.434296291099
  0
LINE
  8
ERSF.2a
  6
CONTINUOUS
 62
8
 10
4.1141924631797
 20
10.445044653539
 11
4.114659191495
 21
10.439608606058
  0
LINE
  8
ERSF.2a
  6
CONTINUOUS
 62
8
 10
4.1153236773125
 20
10.450448048352
 11
4.1141924631797
 21
10.445044653539
  0
LINE
  8
ERSF.2a
  6
CONTINUOUS
 62
8
 10
4.1185603332899
 20
10.461930398048
 11
4.1153236773125
 21
10.450448048352
  0
LINE
  8
ERSF.2a
  6
CONTINUOUS
 62
8
 10
4.0169951115125
 20
10.503089647231
 11
4.026275077592
 21
10.504047405294
  0
LINE
  8
ERSF.2a
  6
CONTINUOUS
 62
8
 10
4.0075682762655
 20
10.503051136706
 11
4.0169951115125
 21
10.503089647231
  0
LINE
  8
ERSF.2a
  6
CONTINUOUS
 62
8
 10
3.9982657647377
 20
10.503932981596
 11
4.0075682762655
 21
10.503051136706
  0
LINE
  8
ERSF.2a
  6
CONTINUOUS
 62
8
 10
3.9893551932486
 20
10.505709812829
 11
3.9982657647377
 21
10.503932981596
  0
LINE
  8
ERSF.2a
  6
CONTINUOUS
 62
8
 10
3.9810929027167
 20
10.508330514206
 11
3.9893551932486
 21
10.505709812829
  0
LINE
  8
ERSF.2a
  6
CONTINUOUS
 62
8
 10
3.9737165841973
 20
10.51171969292
 11
3.9810929027167
 21
10.508330514206
  0
LINE
  8
ERSF.2a
  6
CONTINUOUS
 62
8
 10
3.9674384409443
 20
10.515779848469
 11
3.9737165841973
 21
10.51171969292
  0
LINE
  8
ERSF.2a
  6
CONTINUOUS
 62
8
 10
3.9624390837084
 20
10.520394177571
 11
3.9674384409443
 21
10.515779848469
  0
LINE
  8
ERSF.2a
  6
CONTINUOUS
 62
8
 10
3.9588623348951
 20
10.525429934379
 11
3.9624390837084
 21
10.520394177571
  0
LINE
  8
ERSF.2a
  6
CONTINUOUS
 62
8
 10
3.9568110910554
 20
10.530742249338
 11
3.9588623348951
 21
10.525429934379
  0
LINE
  8
ERSF.2a
  6
CONTINUOUS
 62
8
 10
3.9563443627401
 20
10.536178296818
 11
3.9568110910554
 21
10.530742249338
  0
LINE
  8
ERSF.2a
  6
CONTINUOUS
 62
8
 10
3.957475576873
 20
10.541581691632
 11
3.9563443627401
 21
10.536178296818
  0
LINE
  8
ERSF.2a
  6
CONTINUOUS
 62
8
 10
4.067401949909
 20
10.536631989482
 11
4.0661384119214
 21
10.54202560125
  0
LINE
  8
ERSF.2a
  6
CONTINUOUS
 62
8
 10
4.0670685057639
 20
10.531192673136
 11
4.067401949909
 21
10.536631989482
  0
LINE
  8
ERSF.2a
  6
CONTINUOUS
 62
8
 10
4.0651476720671
 20
10.525864131438
 11
4.0670685057639
 21
10.531192673136
  0
LINE
  8
ERSF.2a
  6
CONTINUOUS
 62
8
 10
4.0616947077068
 20
10.520799656833
 11
4.0651476720671
 21
10.525864131438
  0
LINE
  8
ERSF.2a
  6
CONTINUOUS
 62
8
 10
4.0568089481808
 20
10.516144945033
 11
4.0616947077068
 21
10.520799656833
  0
LINE
  8
ERSF.2a
  6
CONTINUOUS
 62
8
 10
4.0506309478953
 20
10.512033903623
 11
4.0568089481808
 21
10.516144945033
  0
LINE
  8
ERSF.2a
  6
CONTINUOUS
 62
8
 10
4.0433384366702
 20
10.508584799779
 11
4.0506309478953
 21
10.512033903623
  0
LINE
  8
ERSF.2a
  6
CONTINUOUS
 62
8
 10
4.035141206776
 20
10.505896857938
 11
4.0433384366702
 21
10.508584799779
  0
LINE
  8
ERSF.2a
  6
CONTINUOUS
 62
8
 10
4.026275077592
 20
10.504047405294
 11
4.035141206776
 21
10.505896857938
  0
LINE
  8
ERSF.2a
  6
CONTINUOUS
 62
8
 10
4.0629096292134
 20
10.553481538324
 11
4.0661384119214
 21
10.54202560125
  0
LINE
  8
ERSF.2a
  6
CONTINUOUS
 62
8
 10
3.9607122328503
 20
10.553064041328
 11
3.957475576873
 21
10.541581691632
  0
POLYLINE
  8
ERSF.2a
  6
CONTINUOUS
 62
8
 70
1
 66
1
  0
VERTEX
  8
ERSF.2a
  6
CONTINUOUS
 62
8
 10
4.0254181632766
 20
10.517763045027
  0
VERTEX
  8
ERSF.2a
  6
CONTINUOUS
 62
8
 10
4.0337567577741
 20
10.519502455239
  0
VERTEX
  8
ERSF.2a
  6
CONTINUOUS
 62
8
 10
4.0414662524896
 20
10.52203046454
  0
VERTEX
  8
ERSF.2a
  6
CONTINUOUS
 62
8
 10
4.0483248592969
 20
10.525274346706
  0
VERTEX
  8
ERSF.2a
  6
CONTINUOUS
 62
8
 10
4.0541352685654
 20
10.529140781152
  0
VERTEX
  8
ERSF.2a
  6
CONTINUOUS
 62
8
 10
4.0587303253995
 20
10.533518537599
  0
VERTEX
  8
ERSF.2a
  6
CONTINUOUS
 62
8
 10
4.0619778383804
 20
10.538281675966
  0
VERTEX
  8
ERSF.2a
  6
CONTINUOUS
 62
8
 10
4.0637843824722
 20
10.543293169432
  0
VERTEX
  8
ERSF.2a
  6
CONTINUOUS
 62
8
 10
4.0640979866907
 20
10.548408846456
  0
VERTEX
  8
ERSF.2a
  6
CONTINUOUS
 62
8
 10
4.0629096292134
 20
10.553481538324
  0
VERTEX
  8
ERSF.2a
  6
CONTINUOUS
 62
8
 10
4.0602534969214
 20
10.558365312926
  0
VERTEX
  8
ERSF.2a
  6
CONTINUOUS
 62
8
 10
4.0562060019046
 20
10.562919672959
  0
VERTEX
  8
ERSF.2a
  6
CONTINUOUS
 62
8
 10
4.0508835832254
 20
10.567013597778
  0
VERTEX
  8
ERSF.2a
  6
CONTINUOUS
 62
8
 10
4.0444393571788
 20
10.570529312618
  0
VERTEX
  8
ERSF.2a
  6
CONTINUOUS
 62
8
 10
4.037058712415
 20
10.573365676765
  0
VERTEX
  8
ERSF.2a
  6
CONTINUOUS
 62
8
 10
4.0289539766462
 20
10.575441093186
  0
VERTEX
  8
ERSF.2a
  6
CONTINUOUS
 62
8
 10
4.020358308364
 20
10.57669585593
  0
VERTEX
  8
ERSF.2a
  6
CONTINUOUS
 62
8
 10
4.0115189892949
 20
10.577093867757
  0
VERTEX
  8
ERSF.2a
  6
CONTINUOUS
 62
8
 10
4.0026903105548
 20
10.576623678592
  0
VERTEX
  8
ERSF.2a
  6
CONTINUOUS
 62
8
 10
3.9941262571567
 20
10.575298814921
  0
VERTEX
  8
ERSF.2a
  6
CONTINUOUS
 62
8
 10
3.9860732013243
 20
10.573157390659
  0
VERTEX
  8
ERSF.2a
  6
CONTINUOUS
 62
8
 10
3.9787628148117
 20
10.570261010683
  0
VERTEX
  8
ERSF.2a
  6
CONTINUOUS
 62
8
 10
3.972405404129
 20
10.566692998573
  0
VERTEX
  8
ERSF.2a
  6
CONTINUOUS
 62
8
 10
3.9671838604066
 20
10.56255599954
  0
VERTEX
  8
ERSF.2a
  6
CONTINUOUS
 62
8
 10
3.9632483979505
 20
10.557969027514
  0
VERTEX
  8
ERSF.2a
  6
CONTINUOUS
 62
8
 10
3.9607122328503
 20
10.553064041328
  0
VERTEX
  8
ERSF.2a
  6
CONTINUOUS
 62
8
 10
3.9596483259584
 20
10.547982148506
  0
VERTEX
  8
ERSF.2a
  6
CONTINUOUS
 62
8
 10
3.960087283939
 20
10.54286954585
  0
VERTEX
  8
ERSF.2a
  6
CONTINUOUS
 62
8
 10
3.9620164787701
 20
10.537873313632
  0
VERTEX
  8
ERSF.2a
  6
CONTINUOUS
 62
8
 10
3.9653804110291
 20
10.533137184354
  0
VERTEX
  8
ERSF.2a
  6
CONTINUOUS
 62
8
 10
3.9700823065094
 20
10.528797407833
  0
VERTEX
  8
ERSF.2a
  6
CONTINUOUS
 62
8
 10
3.9759869002388
 20
10.524978831539
  0
VERTEX
  8
ERSF.2a
  6
CONTINUOUS
 62
8
 10
3.9829243278063
 20
10.521791308959
  0
VERTEX
  8
ERSF.2a
  6
CONTINUOUS
 62
8
 10
3.9906950120516
 20
10.519326539314
  0
VERTEX
  8
ERSF.2a
  6
CONTINUOUS
 62
8
 10
3.9990754045371
 20
10.517655429539
  0
VERTEX
  8
ERSF.2a
  6
CONTINUOUS
 62
8
 10
4.007824416629
 20
10.51682605442
  0
VERTEX
  8
ERSF.2a
  6
CONTINUOUS
 62
8
 10
4.0166903551788
 20
10.516862273569
  0
VERTEX
  8
ERSF.2a
  6
CONTINUOUS
 62
8
 10
4.0254181632766
 20
10.517763045027
  0
SEQEND
  0
LINE
  8
ERSF.2a
  6
CONTINUOUS
 62
8
 10
4.1754788155931
 20
10.593113417929
 11
4.1829293192178
 21
10.593882362541
  0
LINE
  8
ERSF.2a
  6
CONTINUOUS
 62
8
 10
4.1660519803461
 20
10.593074907404
 11
4.1754788155931
 21
10.593113417929
  0
LINE
  8
ERSF.2a
  6
CONTINUOUS
 62
8
 10
4.1567494688183
 20
10.593956752294
 11
4.1660519803461
 21
10.593074907404
  0
LINE
  8
ERSF.2a
  6
CONTINUOUS
 62
8
 10
4.1478388973292
 20
10.595733583528
 11
4.1567494688183
 21
10.593956752294
  0
LINE
  8
ERSF.2a
  6
CONTINUOUS
 62
8
 10
4.1395766067973
 20
10.598354284905
 11
4.1478388973292
 21
10.595733583528
  0
LINE
  8
ERSF.2a
  6
CONTINUOUS
 62
8
 10
4.1322002882779
 20
10.601743463618
 11
4.1395766067973
 21
10.598354284905
  0
LINE
  8
ERSF.2a
  6
CONTINUOUS
 62
8
 10
4.1259221450249
 20
10.605803619167
 11
4.1322002882779
 21
10.601743463618
  0
LINE
  8
ERSF.2a
  6
CONTINUOUS
 62
8
 10
4.120922787789
 20
10.610417948269
 11
4.1259221450249
 21
10.605803619167
  0
LINE
  8
ERSF.2a
  6
CONTINUOUS
 62
8
 10
4.1173460389757
 20
10.615453705077
 11
4.120922787789
 21
10.610417948269
  0
LINE
  8
ERSF.2a
  6
CONTINUOUS
 62
8
 10
4.1152947951361
 20
10.620766020036
 11
4.1173460389757
 21
10.615453705077
  0
LINE
  8
ERSF.2a
  6
CONTINUOUS
 62
8
 10
4.1148280668207
 20
10.626202067517
 11
4.1152947951361
 21
10.620766020036
  0
LINE
  8
ERSF.2a
  6
CONTINUOUS
 62
8
 10
4.1159592809536
 20
10.631605462331
 11
4.1148280668207
 21
10.626202067517
  0
LINE
  8
ERSF.2a
  6
CONTINUOUS
 62
8
 10
4.1191959369309
 20
10.643087812027
 11
4.1159592809536
 21
10.631605462331
  0
LINE
  8
ERSF.2a
  6
CONTINUOUS
 62
8
 10
3.8591470110729
 20
10.594223290511
 11
3.8684269771525
 21
10.595181048574
  0
LINE
  8
ERSF.2a
  6
CONTINUOUS
 62
8
 10
3.8497201758259
 20
10.594184779986
 11
3.8591470110729
 21
10.594223290511
  0
LINE
  8
ERSF.2a
  6
CONTINUOUS
 62
8
 10
3.8404176642981
 20
10.595066624876
 11
3.8497201758259
 21
10.594184779986
  0
LINE
  8
ERSF.2a
  6
CONTINUOUS
 62
8
 10
3.831507092809
 20
10.596843456109
 11
3.8404176642981
 21
10.595066624876
  0
LINE
  8
ERSF.2a
  6
CONTINUOUS
 62
8
 10
3.8232448022771
 20
10.599464157486
 11
3.831507092809
 21
10.596843456109
  0
LINE
  8
ERSF.2a
  6
CONTINUOUS
 62
8
 10
3.8158684837577
 20
10.6028533362
 11
3.8232448022771
 21
10.599464157486
  0
LINE
  8
ERSF.2a
  6
CONTINUOUS
 62
8
 10
3.8095903405047
 20
10.606913491749
 11
3.8158684837577
 21
10.6028533362
  0
LINE
  8
ERSF.2a
  6
CONTINUOUS
 62
8
 10
3.8045909832688
 20
10.611527820851
 11
3.8095903405047
 21
10.606913491749
  0
LINE
  8
ERSF.2a
  6
CONTINUOUS
 62
8
 10
3.8010142344555
 20
10.616563577659
 11
3.8045909832688
 21
10.611527820851
  0
LINE
  8
ERSF.2a
  6
CONTINUOUS
 62
8
 10
3.7989629906159
 20
10.621875892618
 11
3.8010142344555
 21
10.616563577659
  0
LINE
  8
ERSF.2a
  6
CONTINUOUS
 62
8
 10
3.7984962623006
 20
10.627311940098
 11
3.7989629906159
 21
10.621875892618
  0
LINE
  8
ERSF.2a
  6
CONTINUOUS
 62
8
 10
3.7996274764334
 20
10.632715334912
 11
3.7984962623006
 21
10.627311940098
  0
LINE
  8
ERSF.2a
  6
CONTINUOUS
 62
8
 10
3.9095538494694
 20
10.627765632762
 11
3.9082903114819
 21
10.63315924453
  0
LINE
  8
ERSF.2a
  6
CONTINUOUS
 62
8
 10
3.9092204053243
 20
10.622326316415
 11
3.9095538494694
 21
10.627765632762
  0
LINE
  8
ERSF.2a
  6
CONTINUOUS
 62
8
 10
3.9072995716275
 20
10.616997774718
 11
3.9092204053243
 21
10.622326316415
  0
LINE
  8
ERSF.2a
  6
CONTINUOUS
 62
8
 10
3.9038466072672
 20
10.611933300113
 11
3.9072995716275
 21
10.616997774718
  0
LINE
  8
ERSF.2a
  6
CONTINUOUS
 62
8
 10
3.8989608477413
 20
10.607278588313
 11
3.9038466072672
 21
10.611933300113
  0
LINE
  8
ERSF.2a
  6
CONTINUOUS
 62
8
 10
3.8927828474557
 20
10.603167546903
 11
3.8989608477413
 21
10.607278588313
  0
LINE
  8
ERSF.2a
  6
CONTINUOUS
 62
8
 10
3.8854903362306
 20
10.599718443059
 11
3.8927828474557
 21
10.603167546903
  0
LINE
  8
ERSF.2a
  6
CONTINUOUS
 62
8
 10
3.8772931063364
 20
10.597030501218
 11
3.8854903362306
 21
10.599718443059
  0
LINE
  8
ERSF.2a
  6
CONTINUOUS
 62
8
 10
3.8684269771525
 20
10.595181048574
 11
3.8772931063364
 21
10.597030501218
  0
LINE
  8
ERSF.2a
  6
CONTINUOUS
 62
8
 10
3.9050615287739
 20
10.644615181604
 11
3.9082903114819
 21
10.63315924453
  0
LINE
  8
ERSF.2a
  6
CONTINUOUS
 62
8
 10
3.8028641324108
 20
10.644197684608
 11
3.7996274764334
 21
10.632715334912
  0
POLYLINE
  8
ERSF.2a
  6
CONTINUOUS
 62
8
 70
1
 66
1
  0
VERTEX
  8
ERSF.2a
  6
CONTINUOUS
 62
8
 10
3.8675700628371
 20
10.608896688307
  0
VERTEX
  8
ERSF.2a
  6
CONTINUOUS
 62
8
 10
3.8759086573345
 20
10.610636098519
  0
VERTEX
  8
ERSF.2a
  6
CONTINUOUS
 62
8
 10
3.8836181520501
 20
10.61316410782
  0
VERTEX
  8
ERSF.2a
  6
CONTINUOUS
 62
8
 10
3.8904767588573
 20
10.616407989985
  0
VERTEX
  8
ERSF.2a
  6
CONTINUOUS
 62
8
 10
3.8962871681258
 20
10.620274424432
  0
VERTEX
  8
ERSF.2a
  6
CONTINUOUS
 62
8
 10
3.90088222496
 20
10.624652180879
  0
VERTEX
  8
ERSF.2a
  6
CONTINUOUS
 62
8
 10
3.9041297379408
 20
10.629415319245
  0
VERTEX
  8
ERSF.2a
  6
CONTINUOUS
 62
8
 10
3.9059362820327
 20
10.634426812712
  0
VERTEX
  8
ERSF.2a
  6
CONTINUOUS
 62
8
 10
3.9062498862511
 20
10.639542489736
  0
VERTEX
  8
ERSF.2a
  6
CONTINUOUS
 62
8
 10
3.9050615287739
 20
10.644615181604
  0
VERTEX
  8
ERSF.2a
  6
CONTINUOUS
 62
8
 10
3.9024053964818
 20
10.649498956206
  0
VERTEX
  8
ERSF.2a
  6
CONTINUOUS
 62
8
 10
3.898357901465
 20
10.654053316239
  0
VERTEX
  8
ERSF.2a
  6
CONTINUOUS
 62
8
 10
3.8930354827858
 20
10.658147241058
  0
VERTEX
  8
ERSF.2a
  6
CONTINUOUS
 62
8
 10
3.8865912567392
 20
10.661662955898
  0
VERTEX
  8
ERSF.2a
  6
CONTINUOUS
 62
8
 10
3.8792106119755
 20
10.664499320044
  0
VERTEX
  8
ERSF.2a
  6
CONTINUOUS
 62
8
 10
3.8711058762066
 20
10.666574736466
  0
VERTEX
  8
ERSF.2a
  6
CONTINUOUS
 62
8
 10
3.8625102079245
 20
10.66782949921
  0
VERTEX
  8
ERSF.2a
  6
CONTINUOUS
 62
8
 10
3.8536708888554
 20
10.668227511037
  0
VERTEX
  8
ERSF.2a
  6
CONTINUOUS
 62
8
 10
3.8448422101152
 20
10.667757321872
  0
VERTEX
  8
ERSF.2a
  6
CONTINUOUS
 62
8
 10
3.8362781567171
 20
10.666432458201
  0
VERTEX
  8
ERSF.2a
  6
CONTINUOUS
 62
8
 10
3.8282251008847
 20
10.664291033939
  0
VERTEX
  8
ERSF.2a
  6
CONTINUOUS
 62
8
 10
3.8209147143722
 20
10.661394653963
  0
VERTEX
  8
ERSF.2a
  6
CONTINUOUS
 62
8
 10
3.8145573036895
 20
10.657826641853
  0
VERTEX
  8
ERSF.2a
  6
CONTINUOUS
 62
8
 10
3.809335759967
 20
10.65368964282
  0
VERTEX
  8
ERSF.2a
  6
CONTINUOUS
 62
8
 10
3.8054002975109
 20
10.649102670793
  0
VERTEX
  8
ERSF.2a
  6
CONTINUOUS
 62
8
 10
3.8028641324108
 20
10.644197684608
  0
VERTEX
  8
ERSF.2a
  6
CONTINUOUS
 62
8
 10
3.8018002255188
 20
10.639115791786
  0
VERTEX
  8
ERSF.2a
  6
CONTINUOUS
 62
8
 10
3.8022391834994
 20
10.63400318913
  0
VERTEX
  8
ERSF.2a
  6
CONTINUOUS
 62
8
 10
3.8041683783305
 20
10.629006956911
  0
VERTEX
  8
ERSF.2a
  6
CONTINUOUS
 62
8
 10
3.8075323105895
 20
10.624270827634
  0
VERTEX
  8
ERSF.2a
  6
CONTINUOUS
 62
8
 10
3.8122342060698
 20
10.619931051113
  0
VERTEX
  8
ERSF.2a
  6
CONTINUOUS
 62
8
 10
3.8181387997993
 20
10.616112474819
  0
VERTEX
  8
ERSF.2a
  6
CONTINUOUS
 62
8
 10
3.8250762273668
 20
10.612924952239
  0
VERTEX
  8
ERSF.2a
  6
CONTINUOUS
 62
8
 10
3.8328469116121
 20
10.610460182594
  0
VERTEX
  8
ERSF.2a
  6
CONTINUOUS
 62
8
 10
3.8412273040975
 20
10.608789072819
  0
VERTEX
  8
ERSF.2a
  6
CONTINUOUS
 62
8
 10
3.8499763161894
 20
10.6079596977
  0
VERTEX
  8
ERSF.2a
  6
CONTINUOUS
 62
8
 10
3.8588422547393
 20
10.607995916849
  0
VERTEX
  8
ERSF.2a
  6
CONTINUOUS
 62
8
 10
3.8675700628371
 20
10.608896688307
  0
SEQEND
  0
LINE
  8
ERSF.2a
  6
CONTINUOUS
 62
8
 10
4.0176307151536
 20
10.684247061209
 11
4.0269106812331
 21
10.685204819272
  0
LINE
  8
ERSF.2a
  6
CONTINUOUS
 62
8
 10
4.0082038799065
 20
10.684208550684
 11
4.0176307151536
 21
10.684247061209
  0
LINE
  8
ERSF.2a
  6
CONTINUOUS
 62
8
 10
3.9989013683787
 20
10.685090395574
 11
4.0082038799065
 21
10.684208550684
  0
LINE
  8
ERSF.2a
  6
CONTINUOUS
 62
8
 10
3.9899907968897
 20
10.686867226808
 11
3.9989013683787
 21
10.685090395574
  0
LINE
  8
ERSF.2a
  6
CONTINUOUS
 62
8
 10
3.9817285063577
 20
10.689487928185
 11
3.9899907968897
 21
10.686867226808
  0
LINE
  8
ERSF.2a
  6
CONTINUOUS
 62
8
 10
3.9743521878383
 20
10.692877106898
 11
3.9817285063577
 21
10.689487928185
  0
LINE
  8
ERSF.2a
  6
CONTINUOUS
 62
8
 10
3.9680740445853
 20
10.696937262447
 11
3.9743521878383
 21
10.692877106898
  0
LINE
  8
ERSF.2a
  6
CONTINUOUS
 62
8
 10
3.9630746873494
 20
10.701551591549
 11
3.9680740445853
 21
10.696937262447
  0
LINE
  8
ERSF.2a
  6
CONTINUOUS
 62
8
 10
3.9594979385361
 20
10.706587348357
 11
3.9630746873494
 21
10.701551591549
  0
LINE
  8
ERSF.2a
  6
CONTINUOUS
 62
8
 10
3.9574466946965
 20
10.711899663316
 11
3.9594979385361
 21
10.706587348357
  0
LINE
  8
ERSF.2a
  6
CONTINUOUS
 62
8
 10
3.9569799663812
 20
10.717335710797
 11
3.9574466946965
 21
10.711899663316
  0
LINE
  8
ERSF.2a
  6
CONTINUOUS
 62
8
 10
3.958111180514
 20
10.72273910561
 11
3.9569799663812
 21
10.717335710797
  0
LINE
  8
ERSF.2a
  6
CONTINUOUS
 62
8
 10
4.06803755355
 20
10.71778940346
 11
4.0667740155625
 21
10.723183015228
  0
LINE
  8
ERSF.2a
  6
CONTINUOUS
 62
8
 10
4.0677041094049
 20
10.712350087114
 11
4.06803755355
 21
10.71778940346
  0
LINE
  8
ERSF.2a
  6
CONTINUOUS
 62
8
 10
4.0657832757081
 20
10.707021545416
 11
4.0677041094049
 21
10.712350087114
  0
LINE
  8
ERSF.2a
  6
CONTINUOUS
 62
8
 10
4.0623303113478
 20
10.701957070811
 11
4.0657832757081
 21
10.707021545416
  0
LINE
  8
ERSF.2a
  6
CONTINUOUS
 62
8
 10
4.0574445518219
 20
10.697302359011
 11
4.0623303113478
 21
10.701957070811
  0
LINE
  8
ERSF.2a
  6
CONTINUOUS
 62
8
 10
4.0512665515364
 20
10.693191317601
 11
4.0574445518219
 21
10.697302359011
  0
LINE
  8
ERSF.2a
  6
CONTINUOUS
 62
8
 10
4.0439740403112
 20
10.689742213757
 11
4.0512665515364
 21
10.693191317601
  0
LINE
  8
ERSF.2a
  6
CONTINUOUS
 62
8
 10
4.035776810417
 20
10.687054271916
 11
4.0439740403112
 21
10.689742213757
  0
LINE
  8
ERSF.2a
  6
CONTINUOUS
 62
8
 10
4.0269106812331
 20
10.685204819272
 11
4.035776810417
 21
10.687054271916
  0
LINE
  8
ERSF.2a
  6
CONTINUOUS
 62
8
 10
4.0635452328545
 20
10.734638952302
 11
4.0667740155625
 21
10.723183015228
  0
LINE
  8
ERSF.2a
  6
CONTINUOUS
 62
8
 10
3.9613478364914
 20
10.734221455306
 11
3.958111180514
 21
10.72273910561
  0
POLYLINE
  8
ERSF.2a
  6
CONTINUOUS
 62
8
 70
1
 66
1
  0
VERTEX
  8
ERSF.2a
  6
CONTINUOUS
 62
8
 10
4.0260537669177
 20
10.698920459005
  0
VERTEX
  8
ERSF.2a
  6
CONTINUOUS
 62
8
 10
4.0343923614152
 20
10.700659869217
  0
VERTEX
  8
ERSF.2a
  6
CONTINUOUS
 62
8
 10
4.0421018561307
 20
10.703187878518
  0
VERTEX
  8
ERSF.2a
  6
CONTINUOUS
 62
8
 10
4.0489604629379
 20
10.706431760684
  0
VERTEX
  8
ERSF.2a
  6
CONTINUOUS
 62
8
 10
4.0547708722064
 20
10.71029819513
  0
VERTEX
  8
ERSF.2a
  6
CONTINUOUS
 62
8
 10
4.0593659290406
 20
10.714675951577
  0
VERTEX
  8
ERSF.2a
  6
CONTINUOUS
 62
8
 10
4.0626134420214
 20
10.719439089944
  0
VERTEX
  8
ERSF.2a
  6
CONTINUOUS
 62
8
 10
4.0644199861133
 20
10.72445058341
  0
VERTEX
  8
ERSF.2a
  6
CONTINUOUS
 62
8
 10
4.0647335903318
 20
10.729566260434
  0
VERTEX
  8
ERSF.2a
  6
CONTINUOUS
 62
8
 10
4.0635452328545
 20
10.734638952302
  0
VERTEX
  8
ERSF.2a
  6
CONTINUOUS
 62
8
 10
4.0608891005624
 20
10.739522726904
  0
VERTEX
  8
ERSF.2a
  6
CONTINUOUS
 62
8
 10
4.0568416055456
 20
10.744077086938
  0
VERTEX
  8
ERSF.2a
  6
CONTINUOUS
 62
8
 10
4.0515191868664
 20
10.748171011756
  0
VERTEX
  8
ERSF.2a
  6
CONTINUOUS
 62
8
 10
4.0450749608198
 20
10.751686726596
  0
VERTEX
  8
ERSF.2a
  6
CONTINUOUS
 62
8
 10
4.0376943160561
 20
10.754523090743
  0
VERTEX
  8
ERSF.2a
  6
CONTINUOUS
 62
8
 10
4.0295895802872
 20
10.756598507164
  0
VERTEX
  8
ERSF.2a
  6
CONTINUOUS
 62
8
 10
4.0209939120051
 20
10.757853269908
  0
VERTEX
  8
ERSF.2a
  6
CONTINUOUS
 62
8
 10
4.012154592936
 20
10.758251281736
  0
VERTEX
  8
ERSF.2a
  6
CONTINUOUS
 62
8
 10
4.0033259141959
 20
10.75778109257
  0
VERTEX
  8
ERSF.2a
  6
CONTINUOUS
 62
8
 10
3.9947618607977
 20
10.756456228899
  0
VERTEX
  8
ERSF.2a
  6
CONTINUOUS
 62
8
 10
3.9867088049653
 20
10.754314804637
  0
VERTEX
  8
ERSF.2a
  6
CONTINUOUS
 62
8
 10
3.9793984184528
 20
10.751418424662
  0
VERTEX
  8
ERSF.2a
  6
CONTINUOUS
 62
8
 10
3.9730410077701
 20
10.747850412551
  0
VERTEX
  8
ERSF.2a
  6
CONTINUOUS
 62
8
 10
3.9678194640477
 20
10.743713413518
  0
VERTEX
  8
ERSF.2a
  6
CONTINUOUS
 62
8
 10
3.9638840015916
 20
10.739126441492
  0
VERTEX
  8
ERSF.2a
  6
CONTINUOUS
 62
8
 10
3.9613478364914
 20
10.734221455306
  0
VERTEX
  8
ERSF.2a
  6
CONTINUOUS
 62
8
 10
3.9602839295994
 20
10.729139562484
  0
VERTEX
  8
ERSF.2a
  6
CONTINUOUS
 62
8
 10
3.96072288758
 20
10.724026959828
  0
VERTEX
  8
ERSF.2a
  6
CONTINUOUS
 62
8
 10
3.9626520824112
 20
10.71903072761
  0
VERTEX
  8
ERSF.2a
  6
CONTINUOUS
 62
8
 10
3.9660160146701
 20
10.714294598332
  0
VERTEX
  8
ERSF.2a
  6
CONTINUOUS
 62
8
 10
3.9707179101504
 20
10.709954821811
  0
VERTEX
  8
ERSF.2a
  6
CONTINUOUS
 62
8
 10
3.9766225038799
 20
10.706136245517
  0
VERTEX
  8
ERSF.2a
  6
CONTINUOUS
 62
8
 10
3.9835599314474
 20
10.702948722937
  0
VERTEX
  8
ERSF.2a
  6
CONTINUOUS
 62
8
 10
3.9913306156927
 20
10.700483953292
  0
VERTEX
  8
ERSF.2a
  6
CONTINUOUS
 62
8
 10
3.9997110081781
 20
10.698812843518
  0
VERTEX
  8
ERSF.2a
  6
CONTINUOUS
 62
8
 10
4.0084600202701
 20
10.697983468398
  0
VERTEX
  8
ERSF.2a
  6
CONTINUOUS
 62
8
 10
4.0173259588199
 20
10.698019687547
  0
VERTEX
  8
ERSF.2a
  6
CONTINUOUS
 62
8
 10
4.0260537669177
 20
10.698920459005
  0
SEQEND
  0
LINE
  8
ERSF.2a
  6
CONTINUOUS
 62
8
 10
3.7012989106334
 20
10.685356933791
 11
3.7105788767129
 21
10.686314691853
  0
LINE
  8
ERSF.2a
  6
CONTINUOUS
 62
8
 10
3.6918720753864
 20
10.685318423266
 11
3.7012989106334
 21
10.685356933791
  0
LINE
  8
ERSF.2a
  6
CONTINUOUS
 62
8
 10
3.6825695638585
 20
10.686200268156
 11
3.6918720753864
 21
10.685318423266
  0
LINE
  8
ERSF.2a
  6
CONTINUOUS
 62
8
 10
3.6736589923695
 20
10.687977099389
 11
3.6825695638585
 21
10.686200268156
  0
LINE
  8
ERSF.2a
  6
CONTINUOUS
 62
8
 10
3.6653967018375
 20
10.690597800766
 11
3.6736589923695
 21
10.687977099389
  0
LINE
  8
ERSF.2a
  6
CONTINUOUS
 62
8
 10
3.6580203833181
 20
10.69398697948
 11
3.6653967018375
 21
10.690597800766
  0
LINE
  8
ERSF.2a
  6
CONTINUOUS
 62
8
 10
3.6517422400651
 20
10.698047135029
 11
3.6580203833181
 21
10.69398697948
  0
LINE
  8
ERSF.2a
  6
CONTINUOUS
 62
8
 10
3.6467428828293
 20
10.702661464131
 11
3.6517422400651
 21
10.698047135029
  0
LINE
  8
ERSF.2a
  6
CONTINUOUS
 62
8
 10
3.6431661340159
 20
10.707697220939
 11
3.6467428828293
 21
10.702661464131
  0
LINE
  8
ERSF.2a
  6
CONTINUOUS
 62
8
 10
3.6411148901763
 20
10.713009535898
 11
3.6431661340159
 21
10.707697220939
  0
LINE
  8
ERSF.2a
  6
CONTINUOUS
 62
8
 10
3.640648161861
 20
10.718445583378
 11
3.6411148901763
 21
10.713009535898
  0
LINE
  8
ERSF.2a
  6
CONTINUOUS
 62
8
 10
3.6417793759938
 20
10.723848978192
 11
3.640648161861
 21
10.718445583378
  0
LINE
  8
ERSF.2a
  6
CONTINUOUS
 62
8
 10
3.7517057490299
 20
10.718899276042
 11
3.7504422110423
 21
10.72429288781
  0
LINE
  8
ERSF.2a
  6
CONTINUOUS
 62
8
 10
3.7513723048847
 20
10.713459959695
 11
3.7517057490299
 21
10.718899276042
  0
LINE
  8
ERSF.2a
  6
CONTINUOUS
 62
8
 10
3.7494514711879
 20
10.708131417998
 11
3.7513723048847
 21
10.713459959695
  0
LINE
  8
ERSF.2a
  6
CONTINUOUS
 62
8
 10
3.7459985068276
 20
10.703066943392
 11
3.7494514711879
 21
10.708131417998
  0
LINE
  8
ERSF.2a
  6
CONTINUOUS
 62
8
 10
3.7411127473017
 20
10.698412231593
 11
3.7459985068276
 21
10.703066943392
  0
LINE
  8
ERSF.2a
  6
CONTINUOUS
 62
8
 10
3.7349347470162
 20
10.694301190183
 11
3.7411127473017
 21
10.698412231593
  0
LINE
  8
ERSF.2a
  6
CONTINUOUS
 62
8
 10
3.7276422357911
 20
10.690852086338
 11
3.7349347470162
 21
10.694301190183
  0
LINE
  8
ERSF.2a
  6
CONTINUOUS
 62
8
 10
3.7194450058968
 20
10.688164144498
 11
3.7276422357911
 21
10.690852086338
  0
LINE
  8
ERSF.2a
  6
CONTINUOUS
 62
8
 10
3.7105788767129
 20
10.686314691853
 11
3.7194450058968
 21
10.688164144498
  0
LINE
  8
ERSF.2a
  6
CONTINUOUS
 62
8
 10
3.7472134283343
 20
10.735748824884
 11
3.7504422110423
 21
10.72429288781
  0
LINE
  8
ERSF.2a
  6
CONTINUOUS
 62
8
 10
3.6450160319712
 20
10.735331327888
 11
3.6417793759938
 21
10.723848978192
  0
POLYLINE
  8
ERSF.2a
  6
CONTINUOUS
 62
8
 70
1
 66
1
  0
VERTEX
  8
ERSF.2a
  6
CONTINUOUS
 62
8
 10
3.7097219623975
 20
10.700030331587
  0
VERTEX
  8
ERSF.2a
  6
CONTINUOUS
 62
8
 10
3.718060556895
 20
10.701769741799
  0
VERTEX
  8
ERSF.2a
  6
CONTINUOUS
 62
8
 10
3.7257700516105
 20
10.7042977511
  0
VERTEX
  8
ERSF.2a
  6
CONTINUOUS
 62
8
 10
3.7326286584177
 20
10.707541633265
  0
VERTEX
  8
ERSF.2a
  6
CONTINUOUS
 62
8
 10
3.7384390676862
 20
10.711408067712
  0
VERTEX
  8
ERSF.2a
  6
CONTINUOUS
 62
8
 10
3.7430341245204
 20
10.715785824159
  0
VERTEX
  8
ERSF.2a
  6
CONTINUOUS
 62
8
 10
3.7462816375013
 20
10.720548962525
  0
VERTEX
  8
ERSF.2a
  6
CONTINUOUS
 62
8
 10
3.7480881815931
 20
10.725560455992
  0
VERTEX
  8
ERSF.2a
  6
CONTINUOUS
 62
8
 10
3.7484017858116
 20
10.730676133016
  0
VERTEX
  8
ERSF.2a
  6
CONTINUOUS
 62
8
 10
3.7472134283343
 20
10.735748824884
  0
VERTEX
  8
ERSF.2a
  6
CONTINUOUS
 62
8
 10
3.7445572960422
 20
10.740632599486
  0
VERTEX
  8
ERSF.2a
  6
CONTINUOUS
 62
8
 10
3.7405098010254
 20
10.745186959519
  0
VERTEX
  8
ERSF.2a
  6
CONTINUOUS
 62
8
 10
3.7351873823463
 20
10.749280884337
  0
VERTEX
  8
ERSF.2a
  6
CONTINUOUS
 62
8
 10
3.7287431562996
 20
10.752796599177
  0
VERTEX
  8
ERSF.2a
  6
CONTINUOUS
 62
8
 10
3.7213625115359
 20
10.755632963324
  0
VERTEX
  8
ERSF.2a
  6
CONTINUOUS
 62
8
 10
3.7132577757671
 20
10.757708379746
  0
VERTEX
  8
ERSF.2a
  6
CONTINUOUS
 62
8
 10
3.7046621074849
 20
10.75896314249
  0
VERTEX
  8
ERSF.2a
  6
CONTINUOUS
 62
8
 10
3.6958227884158
 20
10.759361154317
  0
VERTEX
  8
ERSF.2a
  6
CONTINUOUS
 62
8
 10
3.6869941096757
 20
10.758890965152
  0
VERTEX
  8
ERSF.2a
  6
CONTINUOUS
 62
8
 10
3.6784300562775
 20
10.757566101481
  0
VERTEX
  8
ERSF.2a
  6
CONTINUOUS
 62
8
 10
3.6703770004451
 20
10.755424677219
  0
VERTEX
  8
ERSF.2a
  6
CONTINUOUS
 62
8
 10
3.6630666139326
 20
10.752528297243
  0
VERTEX
  8
ERSF.2a
  6
CONTINUOUS
 62
8
 10
3.6567092032499
 20
10.748960285133
  0
VERTEX
  8
ERSF.2a
  6
CONTINUOUS
 62
8
 10
3.6514876595275
 20
10.744823286099
  0
VERTEX
  8
ERSF.2a
  6
CONTINUOUS
 62
8
 10
3.6475521970714
 20
10.740236314073
  0
VERTEX
  8
ERSF.2a
  6
CONTINUOUS
 62
8
 10
3.6450160319712
 20
10.735331327888
  0
VERTEX
  8
ERSF.2a
  6
CONTINUOUS
 62
8
 10
3.6439521250793
 20
10.730249435066
  0
VERTEX
  8
ERSF.2a
  6
CONTINUOUS
 62
8
 10
3.6443910830598
 20
10.72513683241
  0
VERTEX
  8
ERSF.2a
  6
CONTINUOUS
 62
8
 10
3.646320277891
 20
10.720140600191
  0
VERTEX
  8
ERSF.2a
  6
CONTINUOUS
 62
8
 10
3.6496842101499
 20
10.715404470914
  0
VERTEX
  8
ERSF.2a
  6
CONTINUOUS
 62
8
 10
3.6543861056302
 20
10.711064694393
  0
VERTEX
  8
ERSF.2a
  6
CONTINUOUS
 62
8
 10
3.6602906993597
 20
10.707246118099
  0
VERTEX
  8
ERSF.2a
  6
CONTINUOUS
 62
8
 10
3.6672281269272
 20
10.704058595519
  0
VERTEX
  8
ERSF.2a
  6
CONTINUOUS
 62
8
 10
3.6749988111725
 20
10.701593825874
  0
VERTEX
  8
ERSF.2a
  6
CONTINUOUS
 62
8
 10
3.6833792036579
 20
10.699922716099
  0
VERTEX
  8
ERSF.2a
  6
CONTINUOUS
 62
8
 10
3.6921282157499
 20
10.69909334098
  0
VERTEX
  8
ERSF.2a
  6
CONTINUOUS
 62
8
 10
3.7009941542997
 20
10.699129560129
  0
VERTEX
  8
ERSF.2a
  6
CONTINUOUS
 62
8
 10
3.7097219623975
 20
10.700030331587
  0
SEQEND
  0
LINE
  8
ERSF.2a
  6
CONTINUOUS
 62
8
 10
4.1829293192178
 20
10.485349552129
 11
4.1693670897345
 21
10.485960224478
  0
LINE
  8
ERSF.2a
  6
CONTINUOUS
 62
8
 10
4.1693670897345
 20
10.485960224478
 11
4.1605384109944
 21
10.485490035312
  0
LINE
  8
ERSF.2a
  6
CONTINUOUS
 62
8
 10
4.1605384109944
 20
10.485490035312
 11
4.1519743575963
 21
10.484165171641
  0
LINE
  8
ERSF.2a
  6
CONTINUOUS
 62
8
 10
4.1519743575963
 20
10.484165171641
 11
4.1439213017639
 21
10.482023747379
  0
LINE
  8
ERSF.2a
  6
CONTINUOUS
 62
8
 10
4.1439213017639
 20
10.482023747379
 11
4.1366109152513
 21
10.479127367404
  0
LINE
  8
ERSF.2a
  6
CONTINUOUS
 62
8
 10
4.1366109152513
 20
10.479127367404
 11
4.1302535045686
 21
10.475559355293
  0
LINE
  8
ERSF.2a
  6
CONTINUOUS
 62
8
 10
4.1302535045686
 20
10.475559355293
 11
4.1250319608462
 21
10.47142235626
  0
LINE
  8
ERSF.2a
  6
CONTINUOUS
 62
8
 10
4.1250319608462
 20
10.47142235626
 11
4.1210964983901
 21
10.466835384234
  0
LINE
  8
ERSF.2a
  6
CONTINUOUS
 62
8
 10
4.1210964983901
 20
10.466835384234
 11
4.1185603332899
 21
10.461930398048
  0
LINE
  8
ERSF.2a
  6
CONTINUOUS
 62
8
 10
4.1185603332899
 20
10.461930398048
 11
4.117496426398
 21
10.456848505226
  0
LINE
  8
ERSF.2a
  6
CONTINUOUS
 62
8
 10
4.117496426398
 20
10.456848505226
 11
4.1179353843785
 21
10.451735902571
  0
LINE
  8
ERSF.2a
  6
CONTINUOUS
 62
8
 10
4.1179353843785
 20
10.451735902571
 11
4.1198645792097
 21
10.446739670352
  0
LINE
  8
ERSF.2a
  6
CONTINUOUS
 62
8
 10
4.1198645792097
 20
10.446739670352
 11
4.1232285114686
 21
10.442003541074
  0
LINE
  8
ERSF.2a
  6
CONTINUOUS
 62
8
 10
4.1232285114686
 20
10.442003541074
 11
4.127930406949
 21
10.437663764554
  0
LINE
  8
ERSF.2a
  6
CONTINUOUS
 62
8
 10
4.127930406949
 20
10.437663764554
 11
4.1338350006784
 21
10.43384518826
  0
LINE
  8
ERSF.2a
  6
CONTINUOUS
 62
8
 10
4.1338350006784
 20
10.43384518826
 11
4.1407724282459
 21
10.430657665679
  0
LINE
  8
ERSF.2a
  6
CONTINUOUS
 62
8
 10
4.1407724282459
 20
10.430657665679
 11
4.1485431124912
 21
10.428192896034
  0
LINE
  8
ERSF.2a
  6
CONTINUOUS
 62
8
 10
4.1485431124912
 20
10.428192896034
 11
4.1569235049767
 21
10.42652178626
  0
LINE
  8
ERSF.2a
  6
CONTINUOUS
 62
8
 10
4.1569235049767
 20
10.42652178626
 11
4.1656725170686
 21
10.42569241114
  0
LINE
  8
ERSF.2a
  6
CONTINUOUS
 62
8
 10
4.1656725170686
 20
10.42569241114
 11
4.1745384556184
 21
10.425728630289
  0
LINE
  8
ERSF.2a
  6
CONTINUOUS
 62
8
 10
4.1745384556184
 20
10.425728630289
 11
4.1832662637162
 21
10.426629401747
  0
LINE
  8
ERSF.2a
  6
CONTINUOUS
 62
8
 10
4.1829293192178
 20
10.666535585706
 11
4.1700026933755
 21
10.667117638456
  0
LINE
  8
ERSF.2a
  6
CONTINUOUS
 62
8
 10
4.1700026933755
 20
10.667117638456
 11
4.1611740146354
 21
10.666647449291
  0
LINE
  8
ERSF.2a
  6
CONTINUOUS
 62
8
 10
4.1611740146354
 20
10.666647449291
 11
4.1526099612373
 21
10.665322585619
  0
LINE
  8
ERSF.2a
  6
CONTINUOUS
 62
8
 10
4.1526099612373
 20
10.665322585619
 11
4.1445569054049
 21
10.663181161357
  0
LINE
  8
ERSF.2a
  6
CONTINUOUS
 62
8
 10
4.1445569054049
 20
10.663181161357
 11
4.1372465188924
 21
10.660284781382
  0
LINE
  8
ERSF.2a
  6
CONTINUOUS
 62
8
 10
4.1372465188924
 20
10.660284781382
 11
4.1308891082097
 21
10.656716769271
  0
LINE
  8
ERSF.2a
  6
CONTINUOUS
 62
8
 10
4.1308891082097
 20
10.656716769271
 11
4.1256675644872
 21
10.652579770238
  0
LINE
  8
ERSF.2a
  6
CONTINUOUS
 62
8
 10
4.1256675644872
 20
10.652579770238
 11
4.1217321020311
 21
10.647992798212
  0
LINE
  8
ERSF.2a
  6
CONTINUOUS
 62
8
 10
4.1217321020311
 20
10.647992798212
 11
4.1191959369309
 21
10.643087812027
  0
LINE
  8
ERSF.2a
  6
CONTINUOUS
 62
8
 10
4.1191959369309
 20
10.643087812027
 11
4.118132030039
 21
10.638005919204
  0
LINE
  8
ERSF.2a
  6
CONTINUOUS
 62
8
 10
4.118132030039
 20
10.638005919204
 11
4.1185709880196
 21
10.632893316549
  0
LINE
  8
ERSF.2a
  6
CONTINUOUS
 62
8
 10
4.1185709880196
 20
10.632893316549
 11
4.1205001828507
 21
10.62789708433
  0
LINE
  8
ERSF.2a
  6
CONTINUOUS
 62
8
 10
4.1205001828507
 20
10.62789708433
 11
4.1238641151097
 21
10.623160955052
  0
LINE
  8
ERSF.2a
  6
CONTINUOUS
 62
8
 10
4.1238641151097
 20
10.623160955052
 11
4.12856601059
 21
10.618821178532
  0
LINE
  8
ERSF.2a
  6
CONTINUOUS
 62
8
 10
4.12856601059
 20
10.618821178532
 11
4.1344706043195
 21
10.615002602238
  0
LINE
  8
ERSF.2a
  6
CONTINUOUS
 62
8
 10
4.1344706043195
 20
10.615002602238
 11
4.1414080318869
 21
10.611815079658
  0
LINE
  8
ERSF.2a
  6
CONTINUOUS
 62
8
 10
4.1414080318869
 20
10.611815079658
 11
4.1491787161322
 21
10.609350310013
  0
LINE
  8
ERSF.2a
  6
CONTINUOUS
 62
8
 10
4.1491787161322
 20
10.609350310013
 11
4.1575591086177
 21
10.607679200238
  0
LINE
  8
ERSF.2a
  6
CONTINUOUS
 62
8
 10
4.1575591086177
 20
10.607679200238
 11
4.1663081207096
 21
10.606849825119
  0
LINE
  8
ERSF.2a
  6
CONTINUOUS
 62
8
 10
4.1663081207096
 20
10.606849825119
 11
4.1751740592594
 21
10.606886044267
  0
LINE
  8
ERSF.2a
  6
CONTINUOUS
 62
8
 10
4.1751740592594
 20
10.606886044267
 11
4.1829293192178
 21
10.607686441886
  0
LINE
  8
ERSF.2a
  6
CONTINUOUS
 62
8
 10
2.6435876019107
 20
10.311181414254
 11
2.6435876019107
 21
10.759208850212
  0
LINE
  8
ERSF.2a
  6
CONTINUOUS
 62
8
 10
3.6403138333848
 20
9.2665966566507
 11
3.6403138333848
 21
9.714624092609
  0
LINE
  8
ERSF.2a
  6
CONTINUOUS
 62
8
 10
3.5790142431774
 20
9.1844057006056
 11
2.9392909581869
 21
9.5537501114018
  0
LINE
  8
ERSF.2a
  6
CONTINUOUS
 62
8
 10
3.6577544006577
 20
9.1844057006056
 11
2.8427029227019
 21
9.6549758908068
  0
LINE
  8
ERSF.2a
  6
CONTINUOUS
 62
8
 10
3.6046517065136
 20
9.2605252064817
 11
2.7461148872169
 21
9.7562016702119
  0
LINE
  8
ERSF.2a
  6
CONTINUOUS
 62
8
 10
3.6046517065136
 20
9.305985857599
 11
2.6495268517319
 21
9.8574274496169
  0
LINE
  8
ERSF.2a
  6
CONTINUOUS
 62
8
 10
3.6046517065136
 20
9.3514465087163
 11
2.6081261696115
 21
9.9267907957011
  0
LINE
  8
ERSF.2a
  6
CONTINUOUS
 62
8
 10
3.6046517065136
 20
9.3969071598336
 11
2.6081261696115
 21
9.9722514468184
  0
LINE
  8
ERSF.2a
  6
CONTINUOUS
 62
8
 10
3.6046517065136
 20
9.4423678109509
 11
2.6081261696115
 21
10.017712097936
  0
LINE
  8
ERSF.2a
  6
CONTINUOUS
 62
8
 10
3.6046517065136
 20
9.4878284620682
 11
2.6081261696115
 21
10.063172749053
  0
LINE
  8
ERSF.2a
  6
CONTINUOUS
 62
8
 10
3.6046517065136
 20
9.5332891131855
 11
2.6081261696115
 21
10.10863340017
  0
LINE
  8
ERSF.2a
  6
CONTINUOUS
 62
8
 10
3.6046517065136
 20
9.5787497643028
 11
2.6081261696115
 21
10.154094051288
  0
LINE
  8
ERSF.2a
  6
CONTINUOUS
 62
8
 10
3.6046517065136
 20
9.6242104154201
 11
2.6081261696115
 21
10.199554702405
  0
LINE
  8
ERSF.2a
  6
CONTINUOUS
 62
8
 10
3.6046517065136
 20
9.6696710665374
 11
2.6081261696115
 21
10.245015353522
  0
LINE
  8
ERSF.2a
  6
CONTINUOUS
 62
8
 10
2.8362725701464
 20
10.158755618876
 11
2.6081261696115
 21
10.290476004639
  0
LINE
  8
ERSF.2a
  6
CONTINUOUS
 62
8
 10
3.3427937707365
 20
9.1844057006056
 11
3.2290550646418
 21
9.2500727731866
  0
LINE
  8
ERSF.2a
  6
CONTINUOUS
 62
8
 10
3.4215339282168
 20
9.1844057006056
 11
3.1324670291568
 21
9.3512985525917
  0
LINE
  8
ERSF.2a
  6
CONTINUOUS
 62
8
 10
3.5002740856971
 20
9.1844057006056
 11
3.0358789936718
 21
9.4525243319967
  0
LINE
  8
ERSF.2a
  6
CONTINUOUS
 62
8
 10
2.6081261696115
 20
9.9008160152348
 11
3.2917135452574
 21
9.1844057006056
  0
ENDSEC
  0
EOF
