  0
SECTION
  2
HEADER
  9
$EXTMIN
 10
2.6081261696115
 20
9.1844057006056
  9
$EXTMAX
 10
4.1829293192178
 20
10.759208850212
  9
$LIMMIN
 10
0
 20
0
  9
$LIMMAX
 10
8.2666666666667
 20
11.69
  0
ENDSEC
  0
SECTION
  2
TABLES
  0
TABLE
  2
LTYPE
 70
9
  0
LTYPE
  2
CONTINUOUS
  3
___________________________
 70
64
 72
65
 73
0
 40
0
  0
LTYPE
  2
HIDDEN
  3
_ _ _ _ _ _ _ _ _ _ _ _ _ _ 
 70
64
 72
65
 73
2
 49
0.25
 49
-0.125
 40
0.375
  0
LTYPE
  2
DASHED
  3
__ __ __ __ __ __ __ __ __ 
 70
64
 72
65
 73
2
 49
0.5
 49
-0.25
 40
0.75
  0
LTYPE
  2
CENTER
  3
____ _ ____ _ ____ _ ____ _ 
 70
64
 72
65
 73
4
 49
1.25
 49
-0.25
 49
0.25
 49
-0.25
 40
2
  0
LTYPE
  2
PHANTOM
  3
_____ _ _ _____ _ _ _____ _ _ 
 70
64
 72
65
 73
6
 49
1.25
 49
-0.25
 49
0.25
 49
-0.25
 49
0.25
 49
-0.25
 40
2.5
  0
LTYPE
  2
DOT
  3
...........................
 70
64
 72
65
 73
2
 49
0
 49
-0.25
 40
0.25
  0
LTYPE
  2
DASHDOT
  3
__ . __ . __ . __ . __ . __ . 
 70
64
 72
65
 73
4
 49
0.5
 49
-0.25
 49
0
 49
-0.25
 40
1
  0
LTYPE
  2
DIVIDE
  3
__ . . __ . . __ . . __ . . 
 70
64
 72
65
 73
6
 49
0.5
 49
-0.25
 49
0
 49
-0.25
 49
0
 49
-0.25
 40
1.25
  0
LTYPE
  2
BORDER
  3
__ __ . __ __ . __ __ . __ __ . 
 70
64
 72
65
 73
6
 49
0.5
 49
-0.25
 49
0.5
 49
-0.25
 49
0
 49
-0.25
 40
1.75
  0
ENDTAB
  0
TABLE
  2
LAYER
 70
1
  0
LAYER
  2
ERSF.25a
 62
7
  6
CONTINUOUS
 70
0
  0
ENDTAB
  0
TABLE
  2
STYLE
 70
5
  0
STYLE
  2
ptmarker
 70
1
 40
0
 50
0
 71
0
 41
0
 42
0
  3
ptmarks
  0
STYLE
  2
TXT
 70
0
 40
0
 50
0
 71
0
 41
0
 42
0
  3
TXT
  0
STYLE
  2
ITALIC
 70
0
 40
0
 50
0
 71
0
 41
0
 42
0
  3
ITALIC
  0
STYLE
  2
SIMPLEX
 70
0
 40
0
 50
0
 71
0
 41
0
 42
0
  3
SIMPLEX
  0
STYLE
  2
COMPLEX
 70
0
 40
0
 50
0
 71
0
 41
0
 42
0
  3
COMPLEX
  0
ENDTAB
  0
ENDSEC
  0
SECTION
  2
BLOCKS
  0
ENDSEC
  0
SECTION
  2
ENTITIES
  0
LINE
  8
ERSF.25a
  6
CONTINUOUS
 62
8
 10
3.3077724800007
 20
9.307713702985
 11
4.1829293192178
 21
9.8129857396901
  0
LINE
  8
ERSF.25a
  6
CONTINUOUS
 62
8
 10
3.3476673162097
 20
9.7953329043912
 11
4.1829293192178
 21
10.277571646672
  0
LINE
  8
ERSF.25a
  6
CONTINUOUS
 62
8
 10
3.3390291233701
 20
9.7862886612881
 11
4.1829293192178
 21
10.27351466653
  0
LINE
  8
ERSF.25a
  6
CONTINUOUS
 62
8
 10
3.3077724800007
 20
9.8027547740271
 11
3.3077724800007
 21
9.9835204668221
  0
LINE
  8
ERSF.25a
  6
CONTINUOUS
 62
8
 10
3.2874946065628
 20
10.026769109673
 11
3.2860442186674
 21
10.027606491515
  0
LINE
  8
ERSF.25a
  6
CONTINUOUS
 62
8
 10
3.2822720473304
 20
10.097483872185
 11
4.1829293192178
 21
10.617478590557
  0
LINE
  8
ERSF.25a
  6
CONTINUOUS
 62
8
 10
3.2419658602359
 20
10.11118912716
 11
4.1829293192178
 21
10.654454633501
  0
LINE
  8
ERSF.25a
  6
CONTINUOUS
 62
8
 10
3.2419863052291
 20
10.120742856232
 11
4.1829293192178
 21
10.66399655865
  0
LINE
  8
ERSF.25a
  6
CONTINUOUS
 62
8
 10
3.2058859294091
 20
10.141585417929
 11
4.1829293192178
 21
10.705681682045
  0
LINE
  8
ERSF.25a
  6
CONTINUOUS
 62
8
 10
3.1774672051612
 20
10.148596349956
 11
4.1829293192178
 21
10.729100172166
  0
LINE
  8
ERSF.25a
  6
CONTINUOUS
 62
8
 10
3.1774672051612
 20
10.158114667261
 11
4.1829293192178
 21
10.738618489471
  0
LINE
  8
ERSF.25a
  6
CONTINUOUS
 62
8
 10
3.1413668293412
 20
10.178957228958
 11
4.1463921185266
 21
10.759208850212
  0
LINE
  8
ERSF.25a
  6
CONTINUOUS
 62
8
 10
3.1129481050933
 20
10.185920891755
 11
4.1059119765079
 21
10.759208850212
  0
LINE
  8
ERSF.25a
  6
CONTINUOUS
 62
8
 10
3.1129481050933
 20
10.19548647829
 11
4.0893438946253
 21
10.759208850212
  0
LINE
  8
ERSF.25a
  6
CONTINUOUS
 62
8
 10
3.0484290050254
 20
10.223339972014
 11
3.9765811282585
 21
10.759208850212
  0
LINE
  8
ERSF.25a
  6
CONTINUOUS
 62
8
 10
3.0768477292733
 20
10.216329039988
 11
4.0171431429853
 21
10.759208850212
  0
LINE
  8
ERSF.25a
  6
CONTINUOUS
 62
8
 10
3.0484290050254
 20
10.232858289319
 11
3.9600949190839
 21
10.759208850212
  0
LINE
  8
ERSF.25a
  6
CONTINUOUS
 62
8
 10
2.9536987173684
 20
10.287550846398
 11
3.7706343437699
 21
10.759208850212
  0
LINE
  8
ERSF.25a
  6
CONTINUOUS
 62
8
 10
3.2419658602359
 20
10.11118912716
 11
3.2822720473304
 21
10.087812786692
  0
LINE
  8
ERSF.25a
  6
CONTINUOUS
 62
8
 10
3.1129481050933
 20
10.185920891755
 11
3.1413668293412
 21
10.169438911653
  0
LINE
  8
ERSF.25a
  6
CONTINUOUS
 62
8
 10
3.2419863052291
 20
10.111224538927
 11
3.2419863052291
 21
10.120742856232
  0
LINE
  8
ERSF.25a
  6
CONTINUOUS
 62
8
 10
3.2058859294091
 20
10.132067100624
 11
3.2058859294091
 21
10.141585417929
  0
LINE
  8
ERSF.25a
  6
CONTINUOUS
 62
8
 10
3.2058859294091
 20
10.141585417929
 11
3.2419863052291
 21
10.120742856232
  0
LINE
  8
ERSF.25a
  6
CONTINUOUS
 62
8
 10
3.1129481050933
 20
10.185920891755
 11
3.1129481050933
 21
10.19548647829
  0
LINE
  8
ERSF.25a
  6
CONTINUOUS
 62
8
 10
3.0768477292733
 20
10.206810722683
 11
3.0768477292733
 21
10.216329039988
  0
LINE
  8
ERSF.25a
  6
CONTINUOUS
 62
8
 10
3.0768477292733
 20
10.216329039988
 11
3.1129481050933
 21
10.19548647829
  0
LINE
  8
ERSF.25a
  6
CONTINUOUS
 62
8
 10
3.1774672051612
 20
10.148596349956
 11
3.2059063744024
 21
10.132102512391
  0
LINE
  8
ERSF.25a
  6
CONTINUOUS
 62
8
 10
3.0484290050254
 20
10.223339972014
 11
3.0768602746755
 21
10.206850715968
  0
LINE
  8
ERSF.25a
  6
CONTINUOUS
 62
8
 10
3.2822720473304
 20
10.087718248232
 11
3.2822720473304
 21
10.097483872185
  0
LINE
  8
ERSF.25a
  6
CONTINUOUS
 62
8
 10
3.1774672051612
 20
10.148596349956
 11
3.1774672051612
 21
10.158114667261
  0
LINE
  8
ERSF.25a
  6
CONTINUOUS
 62
8
 10
3.1413668293412
 20
10.169438911653
 11
3.1413668293412
 21
10.178957228958
  0
ARC
  8
ERSF.25a
  6
CONTINUOUS
 62
8
 10
3.2515131965362
 20
9.9835204668221
 40
0.056259283464567
 50
0
 51
50.240687347653
  0
LINE
  8
ERSF.25a
  6
CONTINUOUS
 62
8
 10
3.1919247832245
 20
10.081946372904
 11
3.1919247832245
 21
10.100720236944
  0
LINE
  8
ERSF.25a
  6
CONTINUOUS
 62
8
 10
3.1323682667604
 20
10.116331343716
 11
3.1323682667604
 21
10.135105207756
  0
LINE
  8
ERSF.25a
  6
CONTINUOUS
 62
8
 10
3.0728117502964
 20
10.150716314529
 11
3.0728117502964
 21
10.169490178569
  0
LINE
  8
ERSF.25a
  6
CONTINUOUS
 62
8
 10
3.0132552338324
 20
10.185101285341
 11
3.0132552338324
 21
10.203875149381
  0
LINE
  8
ERSF.25a
  6
CONTINUOUS
 62
8
 10
2.9536987173684
 20
10.219486256154
 11
2.9536987173684
 21
10.287550846398
  0
ARC
  8
ERSF.25a
  6
CONTINUOUS
 62
8
 10
3.3287772725962
 20
9.8047275529088
 40
0.021097231299213
 50
185.365504
 51
0
  0
LINE
  8
ERSF.25a
  6
CONTINUOUS
 62
8
 10
3.3498745038954
 20
10.017398508073
 11
3.3498745038954
 21
9.8047275529088
  0
ARC
  8
ERSF.25a
  6
CONTINUOUS
 62
8
 10
3.2786827885858
 20
10.017398508073
 40
0.07119171530955
 50
0
 51
61.947613650601
  0
LINE
  8
ERSF.25a
  6
CONTINUOUS
 62
8
 10
3.2822720473304
 20
10.097483872185
 11
3.3163534334119
 21
10.077806974756
  0
LINE
  8
ERSF.25a
  6
CONTINUOUS
 62
8
 10
3.1413668293412
 20
10.178957228958
 11
3.1774672051612
 21
10.158114667261
  0
LINE
  8
ERSF.25a
  6
CONTINUOUS
 62
8
 10
2.9536987173684
 20
10.287550846398
 11
3.0484290050254
 21
10.232858289319
  0
LINE
  8
ERSF.25a
  6
CONTINUOUS
 62
8
 10
3.0728117502964
 20
10.169490178569
 11
3.0132552338324
 21
10.203875149381
  0
LINE
  8
ERSF.25a
  6
CONTINUOUS
 62
8
 10
3.1919247832245
 20
10.100720236944
 11
3.1323682667604
 21
10.135105207756
  0
LINE
  8
ERSF.25a
  6
CONTINUOUS
 62
8
 10
3.0484290050254
 20
10.223339972014
 11
3.0484290050254
 21
10.232858289319
  0
LINE
  8
ERSF.25a
  6
CONTINUOUS
 62
8
 10
3.3077724800007
 20
9.307713702985
 11
3.3077724800007
 21
9.8027547740271
  0
LINE
  8
ERSF.25a
  6
CONTINUOUS
 62
8
 10
2.9536987173684
 20
10.287550846398
 11
2.6081261696115
 21
10.48706724987
  0
LINE
  8
ERSF.25a
  6
CONTINUOUS
 62
8
 10
3.3498745038954
 20
9.990754059156
 11
2.6081261696115
 21
10.419002659626
  0
LINE
  8
ERSF.25a
  6
CONTINUOUS
 62
8
 10
2.6081261696115
 20
10.759208850212
 11
4.1829293192178
 21
10.759208850212
  0
LINE
  8
ERSF.25a
  6
CONTINUOUS
 62
8
 10
4.1829293192178
 20
10.759208850212
 11
4.1829293192178
 21
9.1844057006056
  0
LINE
  8
ERSF.25a
  6
CONTINUOUS
 62
8
 10
2.6081261696115
 20
9.1844057006056
 11
2.6081261696115
 21
10.759208850212
  0
LINE
  8
ERSF.25a
  6
CONTINUOUS
 62
8
 10
2.6081261696115
 20
9.1844057006056
 11
4.1829293192178
 21
9.1844057006056
  0
LINE
  8
ERSF.25a
  6
CONTINUOUS
 62
8
 10
3.2488268157507
 20
9.2736814078627
 11
3.2488268157507
 21
10.049093969107
  0
LINE
  8
ERSF.25a
  6
CONTINUOUS
 62
8
 10
3.5213482051017
 20
9.1844057006056
 11
3.3077724800007
 21
9.307713702985
  0
LINE
  8
ERSF.25a
  6
CONTINUOUS
 62
8
 10
3.4034568766017
 20
9.1844057006056
 11
3.2488268157507
 21
9.2736814078627
  0
LINE
  8
ERSF.25a
  6
CONTINUOUS
 62
8
 10
2.9536987173684
 20
10.283004781287
 11
3.0484290050254
 21
10.228312224207
  0
LINE
  8
ERSF.25a
  6
CONTINUOUS
 62
8
 10
2.9536987173684
 20
10.278458716175
 11
3.0484290050254
 21
10.223766159096
  0
LINE
  8
ERSF.25a
  6
CONTINUOUS
 62
8
 10
2.9536987173684
 20
10.273912651063
 11
3.3421572095831
 21
10.049636036014
  0
LINE
  8
ERSF.25a
  6
CONTINUOUS
 62
8
 10
2.9536987173684
 20
10.269366585951
 11
3.3449187481301
 21
10.043495595879
  0
LINE
  8
ERSF.25a
  6
CONTINUOUS
 62
8
 10
2.9536987173684
 20
10.26482052084
 11
3.3468842335839
 21
10.037814757211
  0
LINE
  8
ERSF.25a
  6
CONTINUOUS
 62
8
 10
2.9536987173684
 20
10.260274455728
 11
3.3482599151886
 21
10.032474441955
  0
LINE
  8
ERSF.25a
  6
CONTINUOUS
 62
8
 10
2.9536987173684
 20
10.255728390616
 11
3.3491678729238
 21
10.0274041672
  0
LINE
  8
ERSF.25a
  6
CONTINUOUS
 62
8
 10
2.9536987173684
 20
10.251182325505
 11
3.3496872790966
 21
10.022558222795
  0
LINE
  8
ERSF.25a
  6
CONTINUOUS
 62
8
 10
2.9536987173684
 20
10.246636260393
 11
3.3498727014192
 21
10.017905104055
  0
LINE
  8
ERSF.25a
  6
CONTINUOUS
 62
8
 10
2.9536987173684
 20
10.242090195281
 11
3.3497633696063
 21
10.013422161695
  0
LINE
  8
ERSF.25a
  6
CONTINUOUS
 62
8
 10
2.9536987173684
 20
10.237544130169
 11
3.0132552338324
 21
10.203159159357
  0
LINE
  8
ERSF.25a
  6
CONTINUOUS
 62
8
 10
3.0728117502964
 20
10.168774188544
 11
3.1323682667604
 21
10.134389217732
  0
LINE
  8
ERSF.25a
  6
CONTINUOUS
 62
8
 10
3.1919247832245
 20
10.100004246919
 11
3.3498745038954
 21
10.008811933172
  0
LINE
  8
ERSF.25a
  6
CONTINUOUS
 62
8
 10
2.9536987173684
 20
10.232998065058
 11
3.0132552338324
 21
10.198613094245
  0
LINE
  8
ERSF.25a
  6
CONTINUOUS
 62
8
 10
3.0728117502964
 20
10.164228123433
 11
3.1323682667604
 21
10.12984315262
  0
LINE
  8
ERSF.25a
  6
CONTINUOUS
 62
8
 10
3.1919247832245
 20
10.095458181808
 11
3.3498745038954
 21
10.00426586806
  0
LINE
  8
ERSF.25a
  6
CONTINUOUS
 62
8
 10
2.9536987173684
 20
10.228451999946
 11
3.0132552338324
 21
10.194067029133
  0
LINE
  8
ERSF.25a
  6
CONTINUOUS
 62
8
 10
3.0728117502964
 20
10.159682058321
 11
3.1323682667604
 21
10.125297087508
  0
LINE
  8
ERSF.25a
  6
CONTINUOUS
 62
8
 10
3.1919247832245
 20
10.090912116696
 11
3.3498745038954
 21
9.9997198029481
  0
LINE
  8
ERSF.25a
  6
CONTINUOUS
 62
8
 10
2.9536987173684
 20
10.223905934834
 11
3.0132552338324
 21
10.189520964022
  0
LINE
  8
ERSF.25a
  6
CONTINUOUS
 62
8
 10
3.0728117502964
 20
10.155135993209
 11
3.1323682667604
 21
10.120751022397
  0
LINE
  8
ERSF.25a
  6
CONTINUOUS
 62
8
 10
3.1919247832245
 20
10.086366051584
 11
3.3498745038954
 21
9.9951737378364
  0
LINE
  8
ERSF.25a
  6
CONTINUOUS
 62
8
 10
3.0768477292733
 20
10.211782974876
 11
3.1129481050933
 21
10.190940413178
  0
LINE
  8
ERSF.25a
  6
CONTINUOUS
 62
8
 10
3.0768477292733
 20
10.207236909764
 11
3.1129481050933
 21
10.186394348067
  0
LINE
  8
ERSF.25a
  6
CONTINUOUS
 62
8
 10
3.1413668293412
 20
10.174411163847
 11
3.1774672051612
 21
10.153568602149
  0
LINE
  8
ERSF.25a
  6
CONTINUOUS
 62
8
 10
3.1413668293412
 20
10.169865098735
 11
3.1774672051612
 21
10.149022537037
  0
LINE
  8
ERSF.25a
  6
CONTINUOUS
 62
8
 10
3.2058859294091
 20
10.137039352817
 11
3.2419863052291
 21
10.11619679112
  0
LINE
  8
ERSF.25a
  6
CONTINUOUS
 62
8
 10
3.2058859294091
 20
10.132493287706
 11
3.2419863052291
 21
10.111650726008
  0
LINE
  8
ERSF.25a
  6
CONTINUOUS
 62
8
 10
3.2822720473304
 20
10.092937807073
 11
3.3326106548443
 21
10.063874798474
  0
LINE
  8
ERSF.25a
  6
CONTINUOUS
 62
8
 10
3.2822720473304
 20
10.088391741961
 11
3.3385744235736
 21
10.055885549881
  0
LINE
  8
ERSF.25a
  6
CONTINUOUS
 62
8
 10
3.3498745038954
 20
9.9863343804756
 11
3.2967010895586
 21
10.017034065557
  0
LINE
  8
ERSF.25a
  6
CONTINUOUS
 62
8
 10
3.3498745038954
 20
9.9819147017952
 11
3.3011164874214
 21
10.010065155732
  0
LINE
  8
ERSF.25a
  6
CONTINUOUS
 62
8
 10
3.3498745038954
 20
9.9774950231148
 11
3.3038968374435
 21
10.004040241218
  0
LINE
  8
ERSF.25a
  6
CONTINUOUS
 62
8
 10
3.3498745038954
 20
9.9730753444344
 11
3.3057233216176
 21
9.9985660414076
  0
LINE
  8
ERSF.25a
  6
CONTINUOUS
 62
8
 10
3.3498745038954
 20
9.968655665754
 11
3.306884640683
 21
9.9934758748521
  0
LINE
  8
ERSF.25a
  6
CONTINUOUS
 62
8
 10
3.3498745038954
 20
9.9642359870736
 11
3.3075353430456
 21
9.9886805129876
  0
LINE
  8
ERSF.25a
  6
CONTINUOUS
 62
8
 10
3.3498745038954
 20
9.9598163083933
 11
3.3077692232663
 21
9.9841258034988
  0
LINE
  8
ERSF.25a
  6
CONTINUOUS
 62
8
 10
3.3498745038954
 20
9.9553966297129
 11
3.3077724800007
 21
9.9797042445419
  0
LINE
  8
ERSF.25a
  6
CONTINUOUS
 62
8
 10
3.3498745038954
 20
9.9509769510325
 11
3.3077724800007
 21
9.9752845658615
  0
LINE
  8
ERSF.25a
  6
CONTINUOUS
 62
8
 10
3.3498745038954
 20
9.9465572723521
 11
3.3077724800007
 21
9.9708648871811
  0
LINE
  8
ERSF.25a
  6
CONTINUOUS
 62
8
 10
3.3498745038954
 20
9.9421375936717
 11
3.3077724800007
 21
9.9664452085007
  0
LINE
  8
ERSF.25a
  6
CONTINUOUS
 62
8
 10
3.3498745038954
 20
9.9377179149913
 11
3.3077724800007
 21
9.9620255298203
  0
LINE
  8
ERSF.25a
  6
CONTINUOUS
 62
8
 10
3.3498745038954
 20
9.9332982363109
 11
3.3077724800007
 21
9.9576058511399
  0
LINE
  8
ERSF.25a
  6
CONTINUOUS
 62
8
 10
3.3498745038954
 20
9.9288785576305
 11
3.3077724800007
 21
9.9531861724595
  0
LINE
  8
ERSF.25a
  6
CONTINUOUS
 62
8
 10
3.3498745038954
 20
9.9244588789501
 11
3.3077724800007
 21
9.9487664937791
  0
LINE
  8
ERSF.25a
  6
CONTINUOUS
 62
8
 10
3.3498745038954
 20
9.9200392002697
 11
3.3077724800007
 21
9.9443468150987
  0
LINE
  8
ERSF.25a
  6
CONTINUOUS
 62
8
 10
3.3498745038954
 20
9.9156195215893
 11
3.3077724800007
 21
9.9399271364183
  0
LINE
  8
ERSF.25a
  6
CONTINUOUS
 62
8
 10
3.3498745038954
 20
9.9111998429089
 11
3.3077724800007
 21
9.9355074577379
  0
LINE
  8
ERSF.25a
  6
CONTINUOUS
 62
8
 10
3.3498745038954
 20
9.9067801642285
 11
3.3077724800007
 21
9.9310877790575
  0
LINE
  8
ERSF.25a
  6
CONTINUOUS
 62
8
 10
3.3498745038954
 20
9.9023604855482
 11
3.3077724800007
 21
9.9266681003771
  0
LINE
  8
ERSF.25a
  6
CONTINUOUS
 62
8
 10
3.3498745038954
 20
9.8979408068678
 11
3.3077724800007
 21
9.9222484216968
  0
LINE
  8
ERSF.25a
  6
CONTINUOUS
 62
8
 10
3.3498745038954
 20
9.8935211281874
 11
3.3077724800007
 21
9.9178287430164
  0
LINE
  8
ERSF.25a
  6
CONTINUOUS
 62
8
 10
3.3498745038954
 20
9.8537440200638
 11
3.3077724800007
 21
9.8780516348928
  0
LINE
  8
ERSF.25a
  6
CONTINUOUS
 62
8
 10
3.3498745038954
 20
9.8581636987442
 11
3.3077724800007
 21
9.8824713135732
  0
LINE
  8
ERSF.25a
  6
CONTINUOUS
 62
8
 10
3.3498745038954
 20
9.8625833774246
 11
3.3077724800007
 21
9.8868909922536
  0
LINE
  8
ERSF.25a
  6
CONTINUOUS
 62
8
 10
3.3498745038954
 20
9.867003056105
 11
3.3077724800007
 21
9.891310670934
  0
LINE
  8
ERSF.25a
  6
CONTINUOUS
 62
8
 10
3.3498745038954
 20
9.8714227347854
 11
3.3077724800007
 21
9.8957303496144
  0
LINE
  8
ERSF.25a
  6
CONTINUOUS
 62
8
 10
3.3498745038954
 20
9.8758424134658
 11
3.3077724800007
 21
9.9001500282948
  0
LINE
  8
ERSF.25a
  6
CONTINUOUS
 62
8
 10
3.3498745038954
 20
9.8802620921462
 11
3.3077724800007
 21
9.9045697069752
  0
LINE
  8
ERSF.25a
  6
CONTINUOUS
 62
8
 10
3.3498745038954
 20
9.8846817708266
 11
3.3077724800007
 21
9.9089893856556
  0
LINE
  8
ERSF.25a
  6
CONTINUOUS
 62
8
 10
3.3498745038954
 20
9.889101449507
 11
3.3077724800007
 21
9.913409064336
  0
LINE
  8
ERSF.25a
  6
CONTINUOUS
 62
8
 10
3.3498745038954
 20
9.8139669119403
 11
3.3077724800007
 21
9.8382745267693
  0
LINE
  8
ERSF.25a
  6
CONTINUOUS
 62
8
 10
3.3498745038954
 20
9.8183865906207
 11
3.3077724800007
 21
9.8426942054497
  0
LINE
  8
ERSF.25a
  6
CONTINUOUS
 62
8
 10
3.3498745038954
 20
9.8228062693011
 11
3.3077724800007
 21
9.8471138841301
  0
LINE
  8
ERSF.25a
  6
CONTINUOUS
 62
8
 10
3.3498745038954
 20
9.8272259479815
 11
3.3077724800007
 21
9.8515335628105
  0
LINE
  8
ERSF.25a
  6
CONTINUOUS
 62
8
 10
3.3498745038954
 20
9.8316456266619
 11
3.3077724800007
 21
9.8559532414909
  0
LINE
  8
ERSF.25a
  6
CONTINUOUS
 62
8
 10
3.3498745038954
 20
9.8360653053423
 11
3.3077724800007
 21
9.8603729201713
  0
LINE
  8
ERSF.25a
  6
CONTINUOUS
 62
8
 10
3.3498745038954
 20
9.8404849840227
 11
3.3077724800007
 21
9.8647925988517
  0
LINE
  8
ERSF.25a
  6
CONTINUOUS
 62
8
 10
3.3498745038954
 20
9.8449046627031
 11
3.3077724800007
 21
9.869212277532
  0
LINE
  8
ERSF.25a
  6
CONTINUOUS
 62
8
 10
3.3498745038954
 20
9.8493243413834
 11
3.3077724800007
 21
9.8736319562124
  0
LINE
  8
ERSF.25a
  6
CONTINUOUS
 62
8
 10
3.3328393267543
 20
9.7840250679249
 11
3.3088173675996
 21
9.7978941525093
  0
LINE
  8
ERSF.25a
  6
CONTINUOUS
 62
8
 10
3.3377271442803
 20
9.7856227638409
 11
3.3077724800007
 21
9.8029170973262
  0
LINE
  8
ERSF.25a
  6
CONTINUOUS
 62
8
 10
3.3414744257866
 20
9.7878789485349
 11
3.3077724800007
 21
9.8073367760066
  0
LINE
  8
ERSF.25a
  6
CONTINUOUS
 62
8
 10
3.3444358321565
 20
9.7905888584504
 11
3.3077724800007
 21
9.8117564546869
  0
LINE
  8
ERSF.25a
  6
CONTINUOUS
 62
8
 10
3.3467471046314
 20
9.7936741233453
 11
3.3077724800007
 21
9.8161761333673
  0
LINE
  8
ERSF.25a
  6
CONTINUOUS
 62
8
 10
3.348451236446
 20
9.7971099210638
 11
3.3077724800007
 21
9.8205958120477
  0
LINE
  8
ERSF.25a
  6
CONTINUOUS
 62
8
 10
3.3495260605637
 20
9.8009090497505
 11
3.3077724800007
 21
9.8250154907281
  0
LINE
  8
ERSF.25a
  6
CONTINUOUS
 62
8
 10
3.3498745038954
 20
9.8051275545795
 11
3.3077724800007
 21
9.8294351694085
  0
LINE
  8
ERSF.25a
  6
CONTINUOUS
 62
8
 10
3.3498745038954
 20
9.8095472332599
 11
3.3077724800007
 21
9.8338548480889
  0
LINE
  8
ERSF.25a
  6
CONTINUOUS
 62
8
 10
2.9517302134314
 20
10.284141297565
 11
2.6081261696115
 21
10.482521184759
  0
LINE
  8
ERSF.25a
  6
CONTINUOUS
 62
8
 10
3.3038354721267
 20
9.3054406704291
 11
3.3038354721267
 21
9.8027547740271
  0
LINE
  8
ERSF.25a
  6
CONTINUOUS
 62
8
 10
3.5134741893536
 20
9.1844057006056
 11
3.3038354721267
 21
9.3054406704291
  0
ENDSEC
  0
EOF
