  0
SECTION
  2
HEADER
  9
$EXTMIN
 10
2.6081261696115
 20
9.1844057006056
  9
$EXTMAX
 10
4.1829293192178
 20
10.759208850212
  9
$LIMMIN
 10
0
 20
0
  9
$LIMMAX
 10
8.2666666666667
 20
11.69
  0
ENDSEC
  0
SECTION
  2
TABLES
  0
TABLE
  2
LTYPE
 70
9
  0
LTYPE
  2
CONTINUOUS
  3
___________________________
 70
64
 72
65
 73
0
 40
0
  0
LTYPE
  2
HIDDEN
  3
_ _ _ _ _ _ _ _ _ _ _ _ _ _ 
 70
64
 72
65
 73
2
 49
0.25
 49
-0.125
 40
0.375
  0
LTYPE
  2
DASHED
  3
__ __ __ __ __ __ __ __ __ 
 70
64
 72
65
 73
2
 49
0.5
 49
-0.25
 40
0.75
  0
LTYPE
  2
CENTER
  3
____ _ ____ _ ____ _ ____ _ 
 70
64
 72
65
 73
4
 49
1.25
 49
-0.25
 49
0.25
 49
-0.25
 40
2
  0
LTYPE
  2
PHANTOM
  3
_____ _ _ _____ _ _ _____ _ _ 
 70
64
 72
65
 73
6
 49
1.25
 49
-0.25
 49
0.25
 49
-0.25
 49
0.25
 49
-0.25
 40
2.5
  0
LTYPE
  2
DOT
  3
...........................
 70
64
 72
65
 73
2
 49
0
 49
-0.25
 40
0.25
  0
LTYPE
  2
DASHDOT
  3
__ . __ . __ . __ . __ . __ . 
 70
64
 72
65
 73
4
 49
0.5
 49
-0.25
 49
0
 49
-0.25
 40
1
  0
LTYPE
  2
DIVIDE
  3
__ . . __ . . __ . . __ . . 
 70
64
 72
65
 73
6
 49
0.5
 49
-0.25
 49
0
 49
-0.25
 49
0
 49
-0.25
 40
1.25
  0
LTYPE
  2
BORDER
  3
__ __ . __ __ . __ __ . __ __ . 
 70
64
 72
65
 73
6
 49
0.5
 49
-0.25
 49
0.5
 49
-0.25
 49
0
 49
-0.25
 40
1.75
  0
ENDTAB
  0
TABLE
  2
LAYER
 70
1
  0
LAYER
  2
ERPC.1b
 62
7
  6
CONTINUOUS
 70
0
  0
ENDTAB
  0
TABLE
  2
STYLE
 70
5
  0
STYLE
  2
ptmarker
 70
1
 40
0
 50
0
 71
0
 41
0
 42
0
  3
ptmarks
  0
STYLE
  2
TXT
 70
0
 40
0
 50
0
 71
0
 41
0
 42
0
  3
TXT
  0
STYLE
  2
ITALIC
 70
0
 40
0
 50
0
 71
0
 41
0
 42
0
  3
ITALIC
  0
STYLE
  2
SIMPLEX
 70
0
 40
0
 50
0
 71
0
 41
0
 42
0
  3
SIMPLEX
  0
STYLE
  2
COMPLEX
 70
0
 40
0
 50
0
 71
0
 41
0
 42
0
  3
COMPLEX
  0
ENDTAB
  0
ENDSEC
  0
SECTION
  2
BLOCKS
  0
ENDSEC
  0
SECTION
  2
ENTITIES
  0
LINE
  8
ERPC.1b
  6
CONTINUOUS
 62
8
 10
3.5876205845531
 20
10.669160160219
 11
3.5876205845531
 21
10.759208850212
  0
LINE
  8
ERPC.1b
  6
CONTINUOUS
 62
8
 10
3.3592904179418
 20
10.720525490483
 11
3.3592904179418
 21
10.759208850212
  0
POLYLINE
  8
ERPC.1b
  6
CONTINUOUS
 62
7
 70
0
 66
1
  0
VERTEX
  8
ERPC.1b
  6
CONTINUOUS
 62
7
 10
3.7599583987165
 20
9.7515340180235
  0
VERTEX
  8
ERPC.1b
  6
CONTINUOUS
 62
7
 10
3.7652460787165
 20
9.7606925484377
  0
VERTEX
  8
ERPC.1b
  6
CONTINUOUS
 62
7
 10
3.7599583987165
 20
9.7515340180235
  0
SEQEND
  0
POLYLINE
  8
ERPC.1b
  6
CONTINUOUS
 62
7
 70
0
 66
1
  0
VERTEX
  8
ERPC.1b
  6
CONTINUOUS
 62
7
 10
3.7980475663159
 20
9.8397834150495
  0
VERTEX
  8
ERPC.1b
  6
CONTINUOUS
 62
7
 10
3.8057555978895
 20
9.8495398773614
  0
VERTEX
  8
ERPC.1b
  6
CONTINUOUS
 62
7
 10
3.7980475663159
 20
9.8397834150495
  0
SEQEND
  0
POLYLINE
  8
ERPC.1b
  6
CONTINUOUS
 62
7
 70
0
 66
1
  0
VERTEX
  8
ERPC.1b
  6
CONTINUOUS
 62
7
 10
3.7682717803824
 20
9.85855919421
  0
VERTEX
  8
ERPC.1b
  6
CONTINUOUS
 62
7
 10
3.7700343403824
 20
9.8616120376814
  0
VERTEX
  8
ERPC.1b
  6
CONTINUOUS
 62
7
 10
3.7728211157515
 20
9.85593263421
  0
VERTEX
  8
ERPC.1b
  6
CONTINUOUS
 62
7
 10
3.7682717803824
 20
9.85855919421
  0
SEQEND
  0
POLYLINE
  8
ERPC.1b
  6
CONTINUOUS
 62
7
 70
0
 66
1
  0
VERTEX
  8
ERPC.1b
  6
CONTINUOUS
 62
7
 10
3.726128694963
 20
9.7500403509189
  0
VERTEX
  8
ERPC.1b
  6
CONTINUOUS
 62
7
 10
3.7263947630653
 20
9.7539571943903
  0
VERTEX
  8
ERPC.1b
  6
CONTINUOUS
 62
7
 10
3.732280374963
 20
9.7606953732309
  0
VERTEX
  8
ERPC.1b
  6
CONTINUOUS
 62
7
 10
3.7366235019058
 20
9.7541174097595
  0
VERTEX
  8
ERPC.1b
  6
CONTINUOUS
 62
7
 10
3.726128694963
 20
9.7500403509189
  0
SEQEND
  0
POLYLINE
  8
ERPC.1b
  6
CONTINUOUS
 62
7
 70
0
 66
1
  0
VERTEX
  8
ERPC.1b
  6
CONTINUOUS
 62
7
 10
3.4363365772042
 20
10.284843518676
  0
VERTEX
  8
ERPC.1b
  6
CONTINUOUS
 62
7
 10
3.4302907499373
 20
10.288334078676
  0
VERTEX
  8
ERPC.1b
  6
CONTINUOUS
 62
7
 10
3.4363365772042
 20
10.284843518676
  0
SEQEND
  0
POLYLINE
  8
ERPC.1b
  6
CONTINUOUS
 62
7
 70
0
 66
1
  0
VERTEX
  8
ERPC.1b
  6
CONTINUOUS
 62
7
 10
3.4668720101994
 20
10.138276688999
  0
VERTEX
  8
ERPC.1b
  6
CONTINUOUS
 62
7
 10
3.4703971301994
 20
10.144382375941
  0
VERTEX
  8
ERPC.1b
  6
CONTINUOUS
 62
7
 10
3.472817481773
 20
10.144980307839
  0
VERTEX
  8
ERPC.1b
  6
CONTINUOUS
 62
7
 10
3.4668720101994
 20
10.138276688999
  0
SEQEND
  0
POLYLINE
  8
ERPC.1b
  6
CONTINUOUS
 62
7
 70
0
 66
1
  0
VERTEX
  8
ERPC.1b
  6
CONTINUOUS
 62
7
 10
3.4384815597996
 20
10.671403237502
  0
VERTEX
  8
ERPC.1b
  6
CONTINUOUS
 62
7
 10
3.4081786971707
 20
10.703105299814
  0
VERTEX
  8
ERPC.1b
  6
CONTINUOUS
 62
7
 10
3.4639062867424
 20
10.701339676335
  0
VERTEX
  8
ERPC.1b
  6
CONTINUOUS
 62
7
 10
3.4409364713732
 20
10.672061029075
  0
SEQEND
  0
LINE
  8
ERPC.1b
  6
CONTINUOUS
 62
8
 10
3.5876205845531
 20
9.9872703964398
 11
3.5876205845531
 21
10.401286368463
  0
POLYLINE
  8
ERPC.1b
  6
CONTINUOUS
 62
7
 70
0
 66
1
  0
VERTEX
  8
ERPC.1b
  6
CONTINUOUS
 62
7
 10
2.8791335693214
 20
10.711630619855
  0
VERTEX
  8
ERPC.1b
  6
CONTINUOUS
 62
7
 10
2.8873796731169
 20
10.719001290593
  0
VERTEX
  8
ERPC.1b
  6
CONTINUOUS
 62
7
 10
2.8791335693214
 20
10.711630619855
  0
SEQEND
  0
POLYLINE
  8
ERPC.1b
  6
CONTINUOUS
 62
7
 70
0
 66
1
  0
VERTEX
  8
ERPC.1b
  6
CONTINUOUS
 62
7
 10
2.9652844830162
 20
10.726803511275
  0
VERTEX
  8
ERPC.1b
  6
CONTINUOUS
 62
7
 10
2.9705376030162
 20
10.735902182013
  0
VERTEX
  8
ERPC.1b
  6
CONTINUOUS
 62
7
 10
2.9652844830162
 20
10.726803511275
  0
SEQEND
  0
POLYLINE
  8
ERPC.1b
  6
CONTINUOUS
 62
7
 70
0
 66
1
  0
VERTEX
  8
ERPC.1b
  6
CONTINUOUS
 62
7
 10
2.7879173745005
 20
10.723797289097
  0
VERTEX
  8
ERPC.1b
  6
CONTINUOUS
 62
7
 10
2.7931704945005
 20
10.732895959835
  0
VERTEX
  8
ERPC.1b
  6
CONTINUOUS
 62
7
 10
2.7879173745005
 20
10.723797289097
  0
SEQEND
  0
POLYLINE
  8
ERPC.1b
  6
CONTINUOUS
 62
7
 70
0
 66
1
  0
VERTEX
  8
ERPC.1b
  6
CONTINUOUS
 62
7
 10
2.8772371148224
 20
10.692760468571
  0
VERTEX
  8
ERPC.1b
  6
CONTINUOUS
 62
7
 10
2.8789996748224
 20
10.695813312043
  0
VERTEX
  8
ERPC.1b
  6
CONTINUOUS
 62
7
 10
2.879471951351
 20
10.703681558985
  0
VERTEX
  8
ERPC.1b
  6
CONTINUOUS
 62
7
 10
2.8855776382938
 20
10.700156438985
  0
VERTEX
  8
ERPC.1b
  6
CONTINUOUS
 62
7
 10
2.8772371148224
 20
10.692760468571
  0
SEQEND
  0
POLYLINE
  8
ERPC.1b
  6
CONTINUOUS
 62
7
 70
0
 66
1
  0
VERTEX
  8
ERPC.1b
  6
CONTINUOUS
 62
7
 10
2.6620781347872
 20
10.709972514912
  0
VERTEX
  8
ERPC.1b
  6
CONTINUOUS
 62
7
 10
2.6703242385827
 20
10.71734318565
  0
VERTEX
  8
ERPC.1b
  6
CONTINUOUS
 62
7
 10
2.6620781347872
 20
10.709972514912
  0
SEQEND
  0
POLYLINE
  8
ERPC.1b
  6
CONTINUOUS
 62
7
 70
0
 66
1
  0
VERTEX
  8
ERPC.1b
  6
CONTINUOUS
 62
7
 10
2.9201731636219
 20
10.669773572643
  0
VERTEX
  8
ERPC.1b
  6
CONTINUOUS
 62
7
 10
2.9254262836219
 20
10.678872243381
  0
VERTEX
  8
ERPC.1b
  6
CONTINUOUS
 62
7
 10
2.9201731636219
 20
10.669773572643
  0
SEQEND
  0
POLYLINE
  8
ERPC.1b
  6
CONTINUOUS
 62
7
 70
0
 66
1
  0
VERTEX
  8
ERPC.1b
  6
CONTINUOUS
 62
7
 10
2.6601816802882
 20
10.691102363628
  0
VERTEX
  8
ERPC.1b
  6
CONTINUOUS
 62
7
 10
2.6619442402882
 20
10.694155207099
  0
VERTEX
  8
ERPC.1b
  6
CONTINUOUS
 62
7
 10
2.6624165168168
 20
10.702023454042
  0
VERTEX
  8
ERPC.1b
  6
CONTINUOUS
 62
7
 10
2.6685222037596
 20
10.698498334042
  0
VERTEX
  8
ERPC.1b
  6
CONTINUOUS
 62
7
 10
2.6601816802882
 20
10.691102363628
  0
SEQEND
  0
POLYLINE
  8
ERPC.1b
  6
CONTINUOUS
 62
7
 70
0
 66
1
  0
VERTEX
  8
ERPC.1b
  6
CONTINUOUS
 62
7
 10
3.0942017863738
 20
9.3091776021874
  0
VERTEX
  8
ERPC.1b
  6
CONTINUOUS
 62
7
 10
3.0903102425783
 20
9.3093492506138
  0
VERTEX
  8
ERPC.1b
  6
CONTINUOUS
 62
7
 10
3.0961958544761
 20
9.3160874294543
  0
VERTEX
  8
ERPC.1b
  6
CONTINUOUS
 62
7
 10
3.0942017863738
 20
9.3091776021874
  0
SEQEND
  0
POLYLINE
  8
ERPC.1b
  6
CONTINUOUS
 62
7
 70
0
 66
1
  0
VERTEX
  8
ERPC.1b
  6
CONTINUOUS
 62
7
 10
3.1198968610612
 20
9.4903667978121
  0
VERTEX
  8
ERPC.1b
  6
CONTINUOUS
 62
7
 10
3.1160053172657
 20
9.4905384462385
  0
VERTEX
  8
ERPC.1b
  6
CONTINUOUS
 62
7
 10
3.1218909291634
 20
9.497276625079
  0
VERTEX
  8
ERPC.1b
  6
CONTINUOUS
 62
7
 10
3.1198968610612
 20
9.4903667978121
  0
SEQEND
  0
POLYLINE
  8
ERPC.1b
  6
CONTINUOUS
 62
7
 70
0
 66
1
  0
VERTEX
  8
ERPC.1b
  6
CONTINUOUS
 62
7
 10
3.2636003655512
 20
9.2184283633424
  0
VERTEX
  8
ERPC.1b
  6
CONTINUOUS
 62
7
 10
3.2597088217557
 20
9.2186000117688
  0
VERTEX
  8
ERPC.1b
  6
CONTINUOUS
 62
7
 10
3.2655944336534
 20
9.2253381906093
  0
VERTEX
  8
ERPC.1b
  6
CONTINUOUS
 62
7
 10
3.2636003655512
 20
9.2184283633424
  0
SEQEND
  0
POLYLINE
  8
ERPC.1b
  6
CONTINUOUS
 62
7
 70
0
 66
1
  0
VERTEX
  8
ERPC.1b
  6
CONTINUOUS
 62
7
 10
3.2892954402385
 20
9.3996175589671
  0
VERTEX
  8
ERPC.1b
  6
CONTINUOUS
 62
7
 10
3.285403896443
 20
9.3997892073934
  0
VERTEX
  8
ERPC.1b
  6
CONTINUOUS
 62
7
 10
3.2912895083408
 20
9.406527386234
  0
VERTEX
  8
ERPC.1b
  6
CONTINUOUS
 62
7
 10
3.2892954402385
 20
9.3996175589671
  0
SEQEND
  0
POLYLINE
  8
ERPC.1b
  6
CONTINUOUS
 62
7
 70
0
 66
1
  0
VERTEX
  8
ERPC.1b
  6
CONTINUOUS
 62
7
 10
3.2031008729878
 20
9.2335532364833
  0
VERTEX
  8
ERPC.1b
  6
CONTINUOUS
 62
7
 10
3.1992093291923
 20
9.2337248849096
  0
VERTEX
  8
ERPC.1b
  6
CONTINUOUS
 62
7
 10
3.2050949410901
 20
9.2404630637501
  0
VERTEX
  8
ERPC.1b
  6
CONTINUOUS
 62
7
 10
3.2031008729878
 20
9.2335532364833
  0
SEQEND
  0
POLYLINE
  8
ERPC.1b
  6
CONTINUOUS
 62
7
 70
0
 66
1
  0
VERTEX
  8
ERPC.1b
  6
CONTINUOUS
 62
7
 10
3.2287959476752
 20
9.4147424321079
  0
VERTEX
  8
ERPC.1b
  6
CONTINUOUS
 62
7
 10
3.2249044038797
 20
9.4149140805343
  0
VERTEX
  8
ERPC.1b
  6
CONTINUOUS
 62
7
 10
3.2307900157774
 20
9.4216522593748
  0
VERTEX
  8
ERPC.1b
  6
CONTINUOUS
 62
7
 10
3.2287959476752
 20
9.4147424321079
  0
SEQEND
  0
POLYLINE
  8
ERPC.1b
  6
CONTINUOUS
 62
7
 70
0
 66
1
  0
VERTEX
  8
ERPC.1b
  6
CONTINUOUS
 62
7
 10
2.7566261265738
 20
10.740268823645
  0
VERTEX
  8
ERPC.1b
  6
CONTINUOUS
 62
7
 10
2.7475274558355
 20
10.745521943645
  0
VERTEX
  8
ERPC.1b
  6
CONTINUOUS
 62
7
 10
2.7566261265738
 20
10.740268823645
  0
SEQEND
  0
POLYLINE
  8
ERPC.1b
  6
CONTINUOUS
 62
7
 70
0
 66
1
  0
VERTEX
  8
ERPC.1b
  6
CONTINUOUS
 62
7
 10
2.6719081619242
 20
10.155336086653
  0
VERTEX
  8
ERPC.1b
  6
CONTINUOUS
 62
7
 10
2.6688553184528
 20
10.157098646653
  0
VERTEX
  8
ERPC.1b
  6
CONTINUOUS
 62
7
 10
2.66098707151
 20
10.157570923181
  0
VERTEX
  8
ERPC.1b
  6
CONTINUOUS
 62
7
 10
2.66451219151
 20
10.163676610124
  0
VERTEX
  8
ERPC.1b
  6
CONTINUOUS
 62
7
 10
2.6719081619242
 20
10.155336086653
  0
SEQEND
  0
POLYLINE
  8
ERPC.1b
  6
CONTINUOUS
 62
7
 70
0
 66
1
  0
VERTEX
  8
ERPC.1b
  6
CONTINUOUS
 62
7
 10
2.6919946480478
 20
10.207251900908
  0
VERTEX
  8
ERPC.1b
  6
CONTINUOUS
 62
7
 10
2.6900120130028
 20
10.214462356277
  0
VERTEX
  8
ERPC.1b
  6
CONTINUOUS
 62
7
 10
2.6919946480478
 20
10.207251900908
  0
SEQEND
  0
POLYLINE
  8
ERPC.1b
  6
CONTINUOUS
 62
7
 70
0
 66
1
  0
VERTEX
  8
ERPC.1b
  6
CONTINUOUS
 62
7
 10
2.67763328012
 20
10.448194219685
  0
VERTEX
  8
ERPC.1b
  6
CONTINUOUS
 62
7
 10
2.6756506450749
 20
10.455404675054
  0
VERTEX
  8
ERPC.1b
  6
CONTINUOUS
 62
7
 10
2.67763328012
 20
10.448194219685
  0
SEQEND
  0
POLYLINE
  8
ERPC.1b
  6
CONTINUOUS
 62
7
 70
0
 66
1
  0
VERTEX
  8
ERPC.1b
  6
CONTINUOUS
 62
7
 10
2.6779206062806
 20
10.005024977741
  0
VERTEX
  8
ERPC.1b
  6
CONTINUOUS
 62
7
 10
2.6748677628093
 20
10.006787537741
  0
VERTEX
  8
ERPC.1b
  6
CONTINUOUS
 62
7
 10
2.6669995158665
 20
10.00725981427
  0
VERTEX
  8
ERPC.1b
  6
CONTINUOUS
 62
7
 10
2.6705246358665
 20
10.013365501212
  0
VERTEX
  8
ERPC.1b
  6
CONTINUOUS
 62
7
 10
2.6779206062806
 20
10.005024977741
  0
SEQEND
  0
POLYLINE
  8
ERPC.1b
  6
CONTINUOUS
 62
7
 70
0
 66
1
  0
VERTEX
  8
ERPC.1b
  6
CONTINUOUS
 62
7
 10
2.6980070924043
 20
10.056940791996
  0
VERTEX
  8
ERPC.1b
  6
CONTINUOUS
 62
7
 10
2.6960244573592
 20
10.064151247365
  0
VERTEX
  8
ERPC.1b
  6
CONTINUOUS
 62
7
 10
2.6980070924043
 20
10.056940791996
  0
SEQEND
  0
POLYLINE
  8
ERPC.1b
  6
CONTINUOUS
 62
7
 70
0
 66
1
  0
VERTEX
  8
ERPC.1b
  6
CONTINUOUS
 62
7
 10
2.7198274168521
 20
10.581128338751
  0
VERTEX
  8
ERPC.1b
  6
CONTINUOUS
 62
7
 10
2.7124567461139
 20
10.589374442547
  0
VERTEX
  8
ERPC.1b
  6
CONTINUOUS
 62
7
 10
2.7198274168521
 20
10.581128338751
  0
SEQEND
  0
POLYLINE
  8
ERPC.1b
  6
CONTINUOUS
 62
7
 70
0
 66
1
  0
VERTEX
  8
ERPC.1b
  6
CONTINUOUS
 62
7
 10
2.7046545254321
 20
10.667279252446
  0
VERTEX
  8
ERPC.1b
  6
CONTINUOUS
 62
7
 10
2.6955558546938
 20
10.672532372446
  0
VERTEX
  8
ERPC.1b
  6
CONTINUOUS
 62
7
 10
2.7046545254321
 20
10.667279252446
  0
SEQEND
  0
POLYLINE
  8
ERPC.1b
  6
CONTINUOUS
 62
7
 70
0
 66
1
  0
VERTEX
  8
ERPC.1b
  6
CONTINUOUS
 62
7
 10
2.7837171178814
 20
10.455337459464
  0
VERTEX
  8
ERPC.1b
  6
CONTINUOUS
 62
7
 10
2.7763464471431
 20
10.463583563259
  0
VERTEX
  8
ERPC.1b
  6
CONTINUOUS
 62
7
 10
2.7837171178814
 20
10.455337459464
  0
SEQEND
  0
POLYLINE
  8
ERPC.1b
  6
CONTINUOUS
 62
7
 70
0
 66
1
  0
VERTEX
  8
ERPC.1b
  6
CONTINUOUS
 62
7
 10
2.7076607476103
 20
10.48991214393
  0
VERTEX
  8
ERPC.1b
  6
CONTINUOUS
 62
7
 10
2.698562076872
 20
10.49516526393
  0
VERTEX
  8
ERPC.1b
  6
CONTINUOUS
 62
7
 10
2.7076607476103
 20
10.48991214393
  0
SEQEND
  0
POLYLINE
  8
ERPC.1b
  6
CONTINUOUS
 62
7
 70
0
 66
1
  0
VERTEX
  8
ERPC.1b
  6
CONTINUOUS
 62
7
 10
2.7475325276284
 20
10.034337101526
  0
VERTEX
  8
ERPC.1b
  6
CONTINUOUS
 62
7
 10
2.744479684157
 20
10.036099661526
  0
VERTEX
  8
ERPC.1b
  6
CONTINUOUS
 62
7
 10
2.7366114372142
 20
10.036571938055
  0
VERTEX
  8
ERPC.1b
  6
CONTINUOUS
 62
7
 10
2.7401365572142
 20
10.042677624997
  0
VERTEX
  8
ERPC.1b
  6
CONTINUOUS
 62
7
 10
2.7475325276284
 20
10.034337101526
  0
SEQEND
  0
POLYLINE
  8
ERPC.1b
  6
CONTINUOUS
 62
7
 70
0
 66
1
  0
VERTEX
  8
ERPC.1b
  6
CONTINUOUS
 62
7
 10
2.8044496812264
 20
10.357110351907
  0
VERTEX
  8
ERPC.1b
  6
CONTINUOUS
 62
7
 10
2.8013968377551
 20
10.358872911907
  0
VERTEX
  8
ERPC.1b
  6
CONTINUOUS
 62
7
 10
2.7935285908123
 20
10.359345188435
  0
VERTEX
  8
ERPC.1b
  6
CONTINUOUS
 62
7
 10
2.7970537108123
 20
10.365450875378
  0
VERTEX
  8
ERPC.1b
  6
CONTINUOUS
 62
7
 10
2.8044496812264
 20
10.357110351907
  0
SEQEND
  0
POLYLINE
  8
ERPC.1b
  6
CONTINUOUS
 62
7
 70
0
 66
1
  0
VERTEX
  8
ERPC.1b
  6
CONTINUOUS
 62
7
 10
2.8598100574224
 20
10.017644491125
  0
VERTEX
  8
ERPC.1b
  6
CONTINUOUS
 62
7
 10
2.8578274223774
 20
10.024854946494
  0
VERTEX
  8
ERPC.1b
  6
CONTINUOUS
 62
7
 10
2.8598100574224
 20
10.017644491125
  0
SEQEND
  0
POLYLINE
  8
ERPC.1b
  6
CONTINUOUS
 62
7
 70
0
 66
1
  0
VERTEX
  8
ERPC.1b
  6
CONTINUOUS
 62
7
 10
2.8199668280386
 20
10.314699217464
  0
VERTEX
  8
ERPC.1b
  6
CONTINUOUS
 62
7
 10
2.8169139845672
 20
10.316461777464
  0
VERTEX
  8
ERPC.1b
  6
CONTINUOUS
 62
7
 10
2.8090457376245
 20
10.316934053993
  0
VERTEX
  8
ERPC.1b
  6
CONTINUOUS
 62
7
 10
2.8125708576245
 20
10.323039740935
  0
VERTEX
  8
ERPC.1b
  6
CONTINUOUS
 62
7
 10
2.8199668280386
 20
10.314699217464
  0
SEQEND
  0
POLYLINE
  8
ERPC.1b
  6
CONTINUOUS
 62
7
 70
0
 66
1
  0
VERTEX
  8
ERPC.1b
  6
CONTINUOUS
 62
7
 10
2.738697568136
 20
10.579231884252
  0
VERTEX
  8
ERPC.1b
  6
CONTINUOUS
 62
7
 10
2.7356447246646
 20
10.580994444252
  0
VERTEX
  8
ERPC.1b
  6
CONTINUOUS
 62
7
 10
2.7277764777218
 20
10.581466720781
  0
VERTEX
  8
ERPC.1b
  6
CONTINUOUS
 62
7
 10
2.7313015977218
 20
10.587572407724
  0
VERTEX
  8
ERPC.1b
  6
CONTINUOUS
 62
7
 10
2.738697568136
 20
10.579231884252
  0
SEQEND
  0
POLYLINE
  8
ERPC.1b
  6
CONTINUOUS
 62
7
 70
0
 66
1
  0
VERTEX
  8
ERPC.1b
  6
CONTINUOUS
 62
7
 10
2.6802909230273
 20
10.290980462472
  0
VERTEX
  8
ERPC.1b
  6
CONTINUOUS
 62
7
 10
2.6783082879823
 20
10.298190917842
  0
VERTEX
  8
ERPC.1b
  6
CONTINUOUS
 62
7
 10
2.6802909230273
 20
10.290980462472
  0
SEQEND
  0
POLYLINE
  8
ERPC.1b
  6
CONTINUOUS
 62
7
 70
0
 66
1
  0
VERTEX
  8
ERPC.1b
  6
CONTINUOUS
 62
7
 10
2.8457360156553
 20
9.8154175679582
  0
VERTEX
  8
ERPC.1b
  6
CONTINUOUS
 62
7
 10
2.8426831721839
 20
9.8171801279582
  0
VERTEX
  8
ERPC.1b
  6
CONTINUOUS
 62
7
 10
2.8348149252411
 20
9.8176524044868
  0
VERTEX
  8
ERPC.1b
  6
CONTINUOUS
 62
7
 10
2.8383400452411
 20
9.8237580914296
  0
VERTEX
  8
ERPC.1b
  6
CONTINUOUS
 62
7
 10
2.8457360156553
 20
9.8154175679582
  0
SEQEND
  0
POLYLINE
  8
ERPC.1b
  6
CONTINUOUS
 62
7
 70
0
 66
1
  0
VERTEX
  8
ERPC.1b
  6
CONTINUOUS
 62
7
 10
2.777469422799
 20
10.152059949748
  0
VERTEX
  8
ERPC.1b
  6
CONTINUOUS
 62
7
 10
2.7744165793276
 20
10.153822509748
  0
VERTEX
  8
ERPC.1b
  6
CONTINUOUS
 62
7
 10
2.7665483323848
 20
10.154294786276
  0
VERTEX
  8
ERPC.1b
  6
CONTINUOUS
 62
7
 10
2.7700734523848
 20
10.160400473219
  0
VERTEX
  8
ERPC.1b
  6
CONTINUOUS
 62
7
 10
2.777469422799
 20
10.152059949748
  0
SEQEND
  0
POLYLINE
  8
ERPC.1b
  6
CONTINUOUS
 62
7
 70
0
 66
1
  0
VERTEX
  8
ERPC.1b
  6
CONTINUOUS
 62
7
 10
2.8658225017789
 20
9.8673333822131
  0
VERTEX
  8
ERPC.1b
  6
CONTINUOUS
 62
7
 10
2.8638398667338
 20
9.8745438375823
  0
VERTEX
  8
ERPC.1b
  6
CONTINUOUS
 62
7
 10
2.8658225017789
 20
9.8673333822131
  0
SEQEND
  0
LINE
  8
ERPC.1b
  6
CONTINUOUS
 62
8
 10
4.1829293192178
 20
10.643703062811
 11
3.9828674268705
 21
10.759208850212
  0
LINE
  8
ERPC.1b
  6
CONTINUOUS
 62
8
 10
4.1829293192178
 20
10.552781760576
 11
3.8253871119098
 21
10.759208850212
  0
LINE
  8
ERPC.1b
  6
CONTINUOUS
 62
8
 10
4.1829293192178
 20
10.461860458341
 11
3.6679067969492
 21
10.759208850212
  0
LINE
  8
ERPC.1b
  6
CONTINUOUS
 62
8
 10
4.1829293192178
 20
10.370939156107
 11
3.5876205845531
 21
10.714640814316
  0
LINE
  8
ERPC.1b
  6
CONTINUOUS
 62
8
 10
4.1829293192178
 20
10.280017853872
 11
3.6191246217951
 21
10.6055306477
  0
LINE
  8
ERPC.1b
  6
CONTINUOUS
 62
8
 10
4.1829293192178
 20
10.189096551638
 11
3.6191246217951
 21
10.514609345465
  0
LINE
  8
ERPC.1b
  6
CONTINUOUS
 62
8
 10
4.1829293192178
 20
10.098175249403
 11
3.6191246217951
 21
10.42368804323
  0
LINE
  8
ERPC.1b
  6
CONTINUOUS
 62
8
 10
4.1829293192178
 20
10.007253947169
 11
3.5876205845531
 21
10.350955605378
  0
LINE
  8
ERPC.1b
  6
CONTINUOUS
 62
8
 10
4.1829293192178
 20
9.9163326449339
 11
3.5876205845531
 21
10.260034303144
  0
LINE
  8
ERPC.1b
  6
CONTINUOUS
 62
8
 10
4.1829293192178
 20
9.8254113426993
 11
3.5876205845531
 21
10.169113000909
  0
LINE
  8
ERPC.1b
  6
CONTINUOUS
 62
8
 10
4.1829293192178
 20
9.7344900404647
 11
3.5876205845531
 21
10.078191698674
  0
POLYLINE
  8
ERPC.1b
  6
CONTINUOUS
 62
7
 70
0
 66
1
  0
VERTEX
  8
ERPC.1b
  6
CONTINUOUS
 62
7
 10
2.8556715522325
 20
9.2944197808131
  0
VERTEX
  8
ERPC.1b
  6
CONTINUOUS
 62
7
 10
2.8609246722325
 20
9.3035184515513
  0
VERTEX
  8
ERPC.1b
  6
CONTINUOUS
 62
7
 10
2.8556715522325
 20
9.2944197808131
  0
SEQEND
  0
POLYLINE
  8
ERPC.1b
  6
CONTINUOUS
 62
7
 70
0
 66
1
  0
VERTEX
  8
ERPC.1b
  6
CONTINUOUS
 62
7
 10
3.4632284151302
 20
9.2456873025704
  0
VERTEX
  8
ERPC.1b
  6
CONTINUOUS
 62
7
 10
3.4593368713347
 20
9.2458589509968
  0
VERTEX
  8
ERPC.1b
  6
CONTINUOUS
 62
7
 10
3.4652224832325
 20
9.2525971298373
  0
VERTEX
  8
ERPC.1b
  6
CONTINUOUS
 62
7
 10
3.4632284151302
 20
9.2456873025704
  0
SEQEND
  0
POLYLINE
  8
ERPC.1b
  6
CONTINUOUS
 62
7
 70
0
 66
1
  0
VERTEX
  8
ERPC.1b
  6
CONTINUOUS
 62
7
 10
2.7750717256352
 20
9.5202911326117
  0
VERTEX
  8
ERPC.1b
  6
CONTINUOUS
 62
7
 10
2.7803248456352
 20
9.52938980335
  0
VERTEX
  8
ERPC.1b
  6
CONTINUOUS
 62
7
 10
2.7750717256352
 20
9.5202911326117
  0
SEQEND
  0
POLYLINE
  8
ERPC.1b
  6
CONTINUOUS
 62
7
 70
0
 66
1
  0
VERTEX
  8
ERPC.1b
  6
CONTINUOUS
 62
7
 10
2.7061735046167
 20
9.4308260392985
  0
VERTEX
  8
ERPC.1b
  6
CONTINUOUS
 62
7
 10
2.7144196084122
 20
9.4381967100367
  0
VERTEX
  8
ERPC.1b
  6
CONTINUOUS
 62
7
 10
2.7061735046167
 20
9.4308260392985
  0
SEQEND
  0
POLYLINE
  8
ERPC.1b
  6
CONTINUOUS
 62
7
 70
0
 66
1
  0
VERTEX
  8
ERPC.1b
  6
CONTINUOUS
 62
7
 10
2.685807608719
 20
9.4485194112325
  0
VERTEX
  8
ERPC.1b
  6
CONTINUOUS
 62
7
 10
2.6859792571454
 20
9.452410955028
  0
VERTEX
  8
ERPC.1b
  6
CONTINUOUS
 62
7
 10
2.6927174359859
 20
9.4465253431303
  0
VERTEX
  8
ERPC.1b
  6
CONTINUOUS
 62
7
 10
2.685807608719
 20
9.4485194112325
  0
SEQEND
  0
POLYLINE
  8
ERPC.1b
  6
CONTINUOUS
 62
7
 70
0
 66
1
  0
VERTEX
  8
ERPC.1b
  6
CONTINUOUS
 62
7
 10
2.7704969757661
 20
9.510257871528
  0
VERTEX
  8
ERPC.1b
  6
CONTINUOUS
 62
7
 10
2.7722595357661
 20
9.5133107149994
  0
VERTEX
  8
ERPC.1b
  6
CONTINUOUS
 62
7
 10
2.7727318122947
 20
9.5211789619422
  0
VERTEX
  8
ERPC.1b
  6
CONTINUOUS
 62
7
 10
2.7788374992375
 20
9.5176538419422
  0
VERTEX
  8
ERPC.1b
  6
CONTINUOUS
 62
7
 10
2.7704969757661
 20
9.510257871528
  0
SEQEND
  0
POLYLINE
  8
ERPC.1b
  6
CONTINUOUS
 62
7
 70
0
 66
1
  0
VERTEX
  8
ERPC.1b
  6
CONTINUOUS
 62
7
 10
2.7671487056668
 20
9.5730675119359
  0
VERTEX
  8
ERPC.1b
  6
CONTINUOUS
 62
7
 10
2.7743591610359
 20
9.5750501469809
  0
VERTEX
  8
ERPC.1b
  6
CONTINUOUS
 62
7
 10
2.7671487056668
 20
9.5730675119359
  0
SEQEND
  0
POLYLINE
  8
ERPC.1b
  6
CONTINUOUS
 62
7
 70
0
 66
1
  0
VERTEX
  8
ERPC.1b
  6
CONTINUOUS
 62
7
 10
2.9044533223304
 20
10.488007605429
  0
VERTEX
  8
ERPC.1b
  6
CONTINUOUS
 62
7
 10
2.8970826515921
 20
10.496253709225
  0
VERTEX
  8
ERPC.1b
  6
CONTINUOUS
 62
7
 10
2.9044533223304
 20
10.488007605429
  0
SEQEND
  0
POLYLINE
  8
ERPC.1b
  6
CONTINUOUS
 62
7
 70
0
 66
1
  0
VERTEX
  8
ERPC.1b
  6
CONTINUOUS
 62
7
 10
2.8892804309103
 20
10.574158519124
  0
VERTEX
  8
ERPC.1b
  6
CONTINUOUS
 62
7
 10
2.8801817601721
 20
10.579411639124
  0
VERTEX
  8
ERPC.1b
  6
CONTINUOUS
 62
7
 10
2.8892804309103
 20
10.574158519124
  0
SEQEND
  0
POLYLINE
  8
ERPC.1b
  6
CONTINUOUS
 62
7
 70
0
 66
1
  0
VERTEX
  8
ERPC.1b
  6
CONTINUOUS
 62
7
 10
2.7068968548659
 20
10.322435138755
  0
VERTEX
  8
ERPC.1b
  6
CONTINUOUS
 62
7
 10
2.6995261841277
 20
10.330681242551
  0
VERTEX
  8
ERPC.1b
  6
CONTINUOUS
 62
7
 10
2.7068968548659
 20
10.322435138755
  0
SEQEND
  0
POLYLINE
  8
ERPC.1b
  6
CONTINUOUS
 62
7
 70
0
 66
1
  0
VERTEX
  8
ERPC.1b
  6
CONTINUOUS
 62
7
 10
2.8922866530886
 20
10.396791410608
  0
VERTEX
  8
ERPC.1b
  6
CONTINUOUS
 62
7
 10
2.8831879823503
 20
10.402044530608
  0
VERTEX
  8
ERPC.1b
  6
CONTINUOUS
 62
7
 10
2.8922866530886
 20
10.396791410608
  0
SEQEND
  0
POLYLINE
  8
ERPC.1b
  6
CONTINUOUS
 62
7
 70
0
 66
1
  0
VERTEX
  8
ERPC.1b
  6
CONTINUOUS
 62
7
 10
2.7860098425529
 20
9.9264459715481
  0
VERTEX
  8
ERPC.1b
  6
CONTINUOUS
 62
7
 10
2.7829569990815
 20
9.9282085315481
  0
VERTEX
  8
ERPC.1b
  6
CONTINUOUS
 62
7
 10
2.7750887521388
 20
9.9286808080767
  0
VERTEX
  8
ERPC.1b
  6
CONTINUOUS
 62
7
 10
2.7786138721388
 20
9.9347864950195
  0
VERTEX
  8
ERPC.1b
  6
CONTINUOUS
 62
7
 10
2.7860098425529
 20
9.9264459715481
  0
SEQEND
  0
POLYLINE
  8
ERPC.1b
  6
CONTINUOUS
 62
7
 70
0
 66
1
  0
VERTEX
  8
ERPC.1b
  6
CONTINUOUS
 62
7
 10
2.8692872155827
 20
10.169830528177
  0
VERTEX
  8
ERPC.1b
  6
CONTINUOUS
 62
7
 10
2.8662343721113
 20
10.171593088177
  0
VERTEX
  8
ERPC.1b
  6
CONTINUOUS
 62
7
 10
2.8583661251685
 20
10.172065364706
  0
VERTEX
  8
ERPC.1b
  6
CONTINUOUS
 62
7
 10
2.8618912451685
 20
10.178171051648
  0
VERTEX
  8
ERPC.1b
  6
CONTINUOUS
 62
7
 10
2.8692872155827
 20
10.169830528177
  0
SEQEND
  0
POLYLINE
  8
ERPC.1b
  6
CONTINUOUS
 62
7
 70
0
 66
1
  0
VERTEX
  8
ERPC.1b
  6
CONTINUOUS
 62
7
 10
2.9168399960548
 20
9.9725331717305
  0
VERTEX
  8
ERPC.1b
  6
CONTINUOUS
 62
7
 10
2.9148573610098
 20
9.9797436270996
  0
VERTEX
  8
ERPC.1b
  6
CONTINUOUS
 62
7
 10
2.9168399960548
 20
9.9725331717305
  0
SEQEND
  0
POLYLINE
  8
ERPC.1b
  6
CONTINUOUS
 62
7
 70
0
 66
1
  0
VERTEX
  8
ERPC.1b
  6
CONTINUOUS
 62
7
 10
2.9177970651788
 20
10.182158686982
  0
VERTEX
  8
ERPC.1b
  6
CONTINUOUS
 62
7
 10
2.9147442217074
 20
10.183921246982
  0
VERTEX
  8
ERPC.1b
  6
CONTINUOUS
 62
7
 10
2.9068759747647
 20
10.18439352351
  0
VERTEX
  8
ERPC.1b
  6
CONTINUOUS
 62
7
 10
2.9104010947647
 20
10.190499210453
  0
VERTEX
  8
ERPC.1b
  6
CONTINUOUS
 62
7
 10
2.9177970651788
 20
10.182158686982
  0
SEQEND
  0
POLYLINE
  8
ERPC.1b
  6
CONTINUOUS
 62
7
 70
0
 66
1
  0
VERTEX
  8
ERPC.1b
  6
CONTINUOUS
 62
7
 10
2.9233234736143
 20
10.48611115093
  0
VERTEX
  8
ERPC.1b
  6
CONTINUOUS
 62
7
 10
2.9202706301429
 20
10.48787371093
  0
VERTEX
  8
ERPC.1b
  6
CONTINUOUS
 62
7
 10
2.9124023832001
 20
10.488345987459
  0
VERTEX
  8
ERPC.1b
  6
CONTINUOUS
 62
7
 10
2.9159275032001
 20
10.494451674402
  0
VERTEX
  8
ERPC.1b
  6
CONTINUOUS
 62
7
 10
2.9233234736143
 20
10.48611115093
  0
SEQEND
  0
POLYLINE
  8
ERPC.1b
  6
CONTINUOUS
 62
7
 70
0
 66
1
  0
VERTEX
  8
ERPC.1b
  6
CONTINUOUS
 62
7
 10
2.9378835513024
 20
10.234074501237
  0
VERTEX
  8
ERPC.1b
  6
CONTINUOUS
 62
7
 10
2.9359009162574
 20
10.241284956606
  0
VERTEX
  8
ERPC.1b
  6
CONTINUOUS
 62
7
 10
2.9378835513024
 20
10.234074501237
  0
SEQEND
  0
POLYLINE
  8
ERPC.1b
  6
CONTINUOUS
 62
7
 70
0
 66
1
  0
VERTEX
  8
ERPC.1b
  6
CONTINUOUS
 62
7
 10
2.9027659542877
 20
9.770306248564
  0
VERTEX
  8
ERPC.1b
  6
CONTINUOUS
 62
7
 10
2.8997131108163
 20
9.7720688085639
  0
VERTEX
  8
ERPC.1b
  6
CONTINUOUS
 62
7
 10
2.8918448638735
 20
9.7725410850926
  0
VERTEX
  8
ERPC.1b
  6
CONTINUOUS
 62
7
 10
2.8953699838735
 20
9.7786467720353
  0
VERTEX
  8
ERPC.1b
  6
CONTINUOUS
 62
7
 10
2.9027659542877
 20
9.770306248564
  0
SEQEND
  0
POLYLINE
  8
ERPC.1b
  6
CONTINUOUS
 62
7
 70
0
 66
1
  0
VERTEX
  8
ERPC.1b
  6
CONTINUOUS
 62
7
 10
2.9082923627231
 20
10.074258712513
  0
VERTEX
  8
ERPC.1b
  6
CONTINUOUS
 62
7
 10
2.9052395192517
 20
10.076021272513
  0
VERTEX
  8
ERPC.1b
  6
CONTINUOUS
 62
7
 10
2.8973712723089
 20
10.076493549041
  0
VERTEX
  8
ERPC.1b
  6
CONTINUOUS
 62
7
 10
2.9008963923089
 20
10.082599235984
  0
VERTEX
  8
ERPC.1b
  6
CONTINUOUS
 62
7
 10
2.9082923627231
 20
10.074258712513
  0
SEQEND
  0
POLYLINE
  8
ERPC.1b
  6
CONTINUOUS
 62
7
 70
0
 66
1
  0
VERTEX
  8
ERPC.1b
  6
CONTINUOUS
 62
7
 10
2.9228524404113
 20
9.8222220628189
  0
VERTEX
  8
ERPC.1b
  6
CONTINUOUS
 62
7
 10
2.9208698053662
 20
9.829432518188
  0
VERTEX
  8
ERPC.1b
  6
CONTINUOUS
 62
7
 10
2.9228524404113
 20
9.8222220628189
  0
SEQEND
  0
POLYLINE
  8
ERPC.1b
  6
CONTINUOUS
 62
7
 70
0
 66
1
  0
VERTEX
  8
ERPC.1b
  6
CONTINUOUS
 62
7
 10
3.3706811191387
 20
9.2909288007464
  0
VERTEX
  8
ERPC.1b
  6
CONTINUOUS
 62
7
 10
3.3615824484004
 20
9.2961819207464
  0
VERTEX
  8
ERPC.1b
  6
CONTINUOUS
 62
7
 10
3.3706811191387
 20
9.2909288007464
  0
SEQEND
  0
POLYLINE
  8
ERPC.1b
  6
CONTINUOUS
 62
7
 70
0
 66
1
  0
VERTEX
  8
ERPC.1b
  6
CONTINUOUS
 62
7
 10
3.3301722292345
 20
9.3612570610877
  0
VERTEX
  8
ERPC.1b
  6
CONTINUOUS
 62
7
 10
3.326280685439
 20
9.3614287095141
  0
VERTEX
  8
ERPC.1b
  6
CONTINUOUS
 62
7
 10
3.3321662973367
 20
9.3681668883546
  0
VERTEX
  8
ERPC.1b
  6
CONTINUOUS
 62
7
 10
3.3301722292345
 20
9.3612570610877
  0
SEQEND
  0
POLYLINE
  8
ERPC.1b
  6
CONTINUOUS
 62
7
 70
0
 66
1
  0
VERTEX
  8
ERPC.1b
  6
CONTINUOUS
 62
7
 10
3.1774753316477
 20
9.3787833800498
  0
VERTEX
  8
ERPC.1b
  6
CONTINUOUS
 62
7
 10
3.1744224881763
 20
9.3805459400498
  0
VERTEX
  8
ERPC.1b
  6
CONTINUOUS
 62
7
 10
3.1665542412335
 20
9.3810182165784
  0
VERTEX
  8
ERPC.1b
  6
CONTINUOUS
 62
7
 10
3.1700793612335
 20
9.3871239035212
  0
VERTEX
  8
ERPC.1b
  6
CONTINUOUS
 62
7
 10
3.1774753316477
 20
9.3787833800498
  0
SEQEND
  0
POLYLINE
  8
ERPC.1b
  6
CONTINUOUS
 62
7
 70
0
 66
1
  0
VERTEX
  8
ERPC.1b
  6
CONTINUOUS
 62
7
 10
3.3863956244372
 20
9.2308903149989
  0
VERTEX
  8
ERPC.1b
  6
CONTINUOUS
 62
7
 10
3.3790249536989
 20
9.2391364187943
  0
VERTEX
  8
ERPC.1b
  6
CONTINUOUS
 62
7
 10
3.3863956244372
 20
9.2308903149989
  0
SEQEND
  0
POLYLINE
  8
ERPC.1b
  6
CONTINUOUS
 62
7
 70
0
 66
1
  0
VERTEX
  8
ERPC.1b
  6
CONTINUOUS
 62
7
 10
2.6951279784749
 20
9.5347642670752
  0
VERTEX
  8
ERPC.1b
  6
CONTINUOUS
 62
7
 10
2.7003810984749
 20
9.5438629378134
  0
VERTEX
  8
ERPC.1b
  6
CONTINUOUS
 62
7
 10
2.6951279784749
 20
9.5347642670752
  0
SEQEND
  0
POLYLINE
  8
ERPC.1b
  6
CONTINUOUS
 62
7
 70
0
 66
1
  0
VERTEX
  8
ERPC.1b
  6
CONTINUOUS
 62
7
 10
3.060927065464
 20
9.3515272469818
  0
VERTEX
  8
ERPC.1b
  6
CONTINUOUS
 62
7
 10
3.0570355216685
 20
9.3516988954081
  0
VERTEX
  8
ERPC.1b
  6
CONTINUOUS
 62
7
 10
3.0629211335662
 20
9.3584370742486
  0
VERTEX
  8
ERPC.1b
  6
CONTINUOUS
 62
7
 10
3.060927065464
 20
9.3515272469818
  0
SEQEND
  0
POLYLINE
  8
ERPC.1b
  6
CONTINUOUS
 62
7
 70
0
 66
1
  0
VERTEX
  8
ERPC.1b
  6
CONTINUOUS
 62
7
 10
2.913448244579
 20
9.3468072121818
  0
VERTEX
  8
ERPC.1b
  6
CONTINUOUS
 62
7
 10
2.9103954011076
 20
9.3485697721818
  0
VERTEX
  8
ERPC.1b
  6
CONTINUOUS
 62
7
 10
2.9025271541648
 20
9.3490420487104
  0
VERTEX
  8
ERPC.1b
  6
CONTINUOUS
 62
7
 10
2.9060522741648
 20
9.3551477356531
  0
VERTEX
  8
ERPC.1b
  6
CONTINUOUS
 62
7
 10
2.913448244579
 20
9.3468072121818
  0
SEQEND
  0
POLYLINE
  8
ERPC.1b
  6
CONTINUOUS
 62
7
 70
0
 66
1
  0
VERTEX
  8
ERPC.1b
  6
CONTINUOUS
 62
7
 10
2.870807270423
 20
9.2206956737583
  0
VERTEX
  8
ERPC.1b
  6
CONTINUOUS
 62
7
 10
2.868824635378
 20
9.2279061291274
  0
VERTEX
  8
ERPC.1b
  6
CONTINUOUS
 62
7
 10
2.870807270423
 20
9.2206956737583
  0
SEQEND
  0
POLYLINE
  8
ERPC.1b
  6
CONTINUOUS
 62
7
 70
0
 66
1
  0
VERTEX
  8
ERPC.1b
  6
CONTINUOUS
 62
7
 10
2.6748146012563
 20
9.6676824112833
  0
VERTEX
  8
ERPC.1b
  6
CONTINUOUS
 62
7
 10
2.6830607050518
 20
9.6750530820215
  0
VERTEX
  8
ERPC.1b
  6
CONTINUOUS
 62
7
 10
2.6748146012563
 20
9.6676824112833
  0
SEQEND
  0
POLYLINE
  8
ERPC.1b
  6
CONTINUOUS
 62
7
 70
0
 66
1
  0
VERTEX
  8
ERPC.1b
  6
CONTINUOUS
 62
7
 10
3.1281563707383
 20
9.3328283954619
  0
VERTEX
  8
ERPC.1b
  6
CONTINUOUS
 62
7
 10
3.1190577000001
 20
9.3380815154619
  0
VERTEX
  8
ERPC.1b
  6
CONTINUOUS
 62
7
 10
3.1281563707383
 20
9.3328283954619
  0
SEQEND
  0
POLYLINE
  8
ERPC.1b
  6
CONTINUOUS
 62
7
 70
0
 66
1
  0
VERTEX
  8
ERPC.1b
  6
CONTINUOUS
 62
7
 10
3.0866221401513
 20
9.5327164426064
  0
VERTEX
  8
ERPC.1b
  6
CONTINUOUS
 62
7
 10
3.0827305963558
 20
9.5328880910328
  0
VERTEX
  8
ERPC.1b
  6
CONTINUOUS
 62
7
 10
3.0886162082536
 20
9.5396262698733
  0
VERTEX
  8
ERPC.1b
  6
CONTINUOUS
 62
7
 10
3.0866221401513
 20
9.5327164426064
  0
SEQEND
  0
POLYLINE
  8
ERPC.1b
  6
CONTINUOUS
 62
7
 70
0
 66
1
  0
VERTEX
  8
ERPC.1b
  6
CONTINUOUS
 62
7
 10
2.9391433192663
 20
9.5279964078064
  0
VERTEX
  8
ERPC.1b
  6
CONTINUOUS
 62
7
 10
2.9360904757949
 20
9.5297589678064
  0
VERTEX
  8
ERPC.1b
  6
CONTINUOUS
 62
7
 10
2.9282222288522
 20
9.530231244335
  0
VERTEX
  8
ERPC.1b
  6
CONTINUOUS
 62
7
 10
2.9317473488522
 20
9.5363369312778
  0
VERTEX
  8
ERPC.1b
  6
CONTINUOUS
 62
7
 10
2.9391433192663
 20
9.5279964078064
  0
SEQEND
  0
POLYLINE
  8
ERPC.1b
  6
CONTINUOUS
 62
7
 70
0
 66
1
  0
VERTEX
  8
ERPC.1b
  6
CONTINUOUS
 62
7
 10
2.8763336788585
 20
9.524648137707
  0
VERTEX
  8
ERPC.1b
  6
CONTINUOUS
 62
7
 10
2.8743510438134
 20
9.5318585930762
  0
VERTEX
  8
ERPC.1b
  6
CONTINUOUS
 62
7
 10
2.8763336788585
 20
9.524648137707
  0
SEQEND
  0
POLYLINE
  8
ERPC.1b
  6
CONTINUOUS
 62
7
 70
0
 66
1
  0
VERTEX
  8
ERPC.1b
  6
CONTINUOUS
 62
7
 10
3.1480636120559
 20
9.3801033427555
  0
VERTEX
  8
ERPC.1b
  6
CONTINUOUS
 62
7
 10
3.1406929413176
 20
9.388349446551
  0
VERTEX
  8
ERPC.1b
  6
CONTINUOUS
 62
7
 10
3.1480636120559
 20
9.3801033427555
  0
SEQEND
  0
POLYLINE
  8
ERPC.1b
  6
CONTINUOUS
 62
7
 70
0
 66
1
  0
VERTEX
  8
ERPC.1b
  6
CONTINUOUS
 62
7
 10
2.8205086687633
 20
9.3889459434401
  0
VERTEX
  8
ERPC.1b
  6
CONTINUOUS
 62
7
 10
2.8257617887633
 20
9.3980446141784
  0
VERTEX
  8
ERPC.1b
  6
CONTINUOUS
 62
7
 10
2.8205086687633
 20
9.3889459434401
  0
SEQEND
  0
POLYLINE
  8
ERPC.1b
  6
CONTINUOUS
 62
7
 70
0
 66
1
  0
VERTEX
  8
ERPC.1b
  6
CONTINUOUS
 62
7
 10
3.3687022525032
 20
9.2105244191012
  0
VERTEX
  8
ERPC.1b
  6
CONTINUOUS
 62
7
 10
3.3648107087077
 20
9.2106960675275
  0
VERTEX
  8
ERPC.1b
  6
CONTINUOUS
 62
7
 10
3.3706963206054
 20
9.217434246368
  0
VERTEX
  8
ERPC.1b
  6
CONTINUOUS
 62
7
 10
3.3687022525032
 20
9.2105244191012
  0
SEQEND
  0
POLYLINE
  8
ERPC.1b
  6
CONTINUOUS
 62
7
 70
0
 66
1
  0
VERTEX
  8
ERPC.1b
  6
CONTINUOUS
 62
7
 10
3.3807143802224
 20
9.2863540508774
  0
VERTEX
  8
ERPC.1b
  6
CONTINUOUS
 62
7
 10
3.377661536751
 20
9.2881166108774
  0
VERTEX
  8
ERPC.1b
  6
CONTINUOUS
 62
7
 10
3.3697932898082
 20
9.288588887406
  0
VERTEX
  8
ERPC.1b
  6
CONTINUOUS
 62
7
 10
3.3733184098082
 20
9.2946945743488
  0
VERTEX
  8
ERPC.1b
  6
CONTINUOUS
 62
7
 10
3.3807143802224
 20
9.2863540508774
  0
SEQEND
  0
POLYLINE
  8
ERPC.1b
  6
CONTINUOUS
 62
7
 70
0
 66
1
  0
VERTEX
  8
ERPC.1b
  6
CONTINUOUS
 62
7
 10
3.3179047398145
 20
9.283005780778
  0
VERTEX
  8
ERPC.1b
  6
CONTINUOUS
 62
7
 10
3.3159221047695
 20
9.2902162361471
  0
VERTEX
  8
ERPC.1b
  6
CONTINUOUS
 62
7
 10
3.3179047398145
 20
9.283005780778
  0
SEQEND
  0
POLYLINE
  8
ERPC.1b
  6
CONTINUOUS
 62
7
 70
0
 66
1
  0
VERTEX
  8
ERPC.1b
  6
CONTINUOUS
 62
7
 10
2.7079730518689
 20
9.3029394545448
  0
VERTEX
  8
ERPC.1b
  6
CONTINUOUS
 62
7
 10
2.7162191556644
 20
9.3103101252831
  0
VERTEX
  8
ERPC.1b
  6
CONTINUOUS
 62
7
 10
2.7079730518689
 20
9.3029394545448
  0
SEQEND
  0
POLYLINE
  8
ERPC.1b
  6
CONTINUOUS
 62
7
 70
0
 66
1
  0
VERTEX
  8
ERPC.1b
  6
CONTINUOUS
 62
7
 10
2.842614302505
 20
9.6707927736471
  0
VERTEX
  8
ERPC.1b
  6
CONTINUOUS
 62
7
 10
2.847867422505
 20
9.6798914443854
  0
VERTEX
  8
ERPC.1b
  6
CONTINUOUS
 62
7
 10
2.842614302505
 20
9.6707927736471
  0
SEQEND
  0
POLYLINE
  8
ERPC.1b
  6
CONTINUOUS
 62
7
 70
0
 66
1
  0
VERTEX
  8
ERPC.1b
  6
CONTINUOUS
 62
7
 10
3.0868554222962
 20
9.2326300528429
  0
VERTEX
  8
ERPC.1b
  6
CONTINUOUS
 62
7
 10
3.0829638785007
 20
9.2328017012692
  0
VERTEX
  8
ERPC.1b
  6
CONTINUOUS
 62
7
 10
3.0888494903984
 20
9.2395398801098
  0
VERTEX
  8
ERPC.1b
  6
CONTINUOUS
 62
7
 10
3.0868554222962
 20
9.2326300528429
  0
SEQEND
  0
POLYLINE
  8
ERPC.1b
  6
CONTINUOUS
 62
7
 70
0
 66
1
  0
VERTEX
  8
ERPC.1b
  6
CONTINUOUS
 62
7
 10
3.0745061477445
 20
9.3239095199021
  0
VERTEX
  8
ERPC.1b
  6
CONTINUOUS
 62
7
 10
3.0714533042731
 20
9.3256720799021
  0
VERTEX
  8
ERPC.1b
  6
CONTINUOUS
 62
7
 10
3.0635850573303
 20
9.3261443564307
  0
VERTEX
  8
ERPC.1b
  6
CONTINUOUS
 62
7
 10
3.0671101773303
 20
9.3322500433734
  0
VERTEX
  8
ERPC.1b
  6
CONTINUOUS
 62
7
 10
3.0745061477445
 20
9.3239095199021
  0
SEQEND
  0
POLYLINE
  8
ERPC.1b
  6
CONTINUOUS
 62
7
 70
0
 66
1
  0
VERTEX
  8
ERPC.1b
  6
CONTINUOUS
 62
7
 10
2.9335347307026
 20
9.3987230264367
  0
VERTEX
  8
ERPC.1b
  6
CONTINUOUS
 62
7
 10
2.9315520956576
 20
9.4059334818058
  0
VERTEX
  8
ERPC.1b
  6
CONTINUOUS
 62
7
 10
2.9335347307026
 20
9.3987230264367
  0
SEQEND
  0
POLYLINE
  8
ERPC.1b
  6
CONTINUOUS
 62
7
 70
0
 66
1
  0
VERTEX
  8
ERPC.1b
  6
CONTINUOUS
 62
7
 10
2.7389384208815
 20
9.6585368727665
  0
VERTEX
  8
ERPC.1b
  6
CONTINUOUS
 62
7
 10
2.747184524677
 20
9.6659075435048
  0
VERTEX
  8
ERPC.1b
  6
CONTINUOUS
 62
7
 10
2.7389384208815
 20
9.6585368727665
  0
SEQEND
  0
LINE
  8
ERPC.1b
  6
CONTINUOUS
 62
8
 10
3.3537786069182
 20
9.5748271010747
 11
3.498660496682
 21
9.6584746991305
  0
LINE
  8
ERPC.1b
  6
CONTINUOUS
 62
8
 10
3.3537786069182
 20
9.5711902489853
 11
3.498660496682
 21
9.6548378470411
  0
LINE
  8
ERPC.1b
  6
CONTINUOUS
 62
8
 10
3.3537786069182
 20
9.5675533968959
 11
3.498660496682
 21
9.6512009949517
  0
LINE
  8
ERPC.1b
  6
CONTINUOUS
 62
8
 10
3.1962982919575
 20
9.6657484033093
 11
3.3537786069182
 21
9.5748271010747
  0
LINE
  8
ERPC.1b
  6
CONTINUOUS
 62
8
 10
3.1962982919575
 20
9.6621115512199
 11
3.3537786069182
 21
9.5711902489853
  0
LINE
  8
ERPC.1b
  6
CONTINUOUS
 62
8
 10
3.1962982919575
 20
9.6584746991305
 11
3.3537786069182
 21
9.5675533968959
  0
LINE
  8
ERPC.1b
  6
CONTINUOUS
 62
8
 10
3.3537786069182
 20
9.5796645763026
 11
3.3537786069182
 21
9.5639165448065
  0
LINE
  8
ERPC.1b
  6
CONTINUOUS
 62
8
 10
3.498660496682
 20
9.6633121743584
 11
3.498660496682
 21
9.6475641428624
  0
LINE
  8
ERPC.1b
  6
CONTINUOUS
 62
8
 10
3.1962982919575
 20
9.6705858785372
 11
3.1962982919575
 21
9.6548378470411
  0
LINE
  8
ERPC.1b
  6
CONTINUOUS
 62
8
 10
3.498660496682
 20
9.6633121743584
 11
3.3411801817213
 21
9.754233476593
  0
LINE
  8
ERPC.1b
  6
CONTINUOUS
 62
8
 10
3.3537786069182
 20
9.5796645763026
 11
3.498660496682
 21
9.6633121743584
  0
LINE
  8
ERPC.1b
  6
CONTINUOUS
 62
8
 10
3.1962982919575
 20
9.6705858785372
 11
3.3537786069182
 21
9.5796645763026
  0
LINE
  8
ERPC.1b
  6
CONTINUOUS
 62
8
 10
3.1962982919575
 20
9.6705858785372
 11
3.3411801817213
 21
9.754233476593
  0
LINE
  8
ERPC.1b
  6
CONTINUOUS
 62
8
 10
4.1829293192178
 20
9.3799157719159
 11
3.3592904179418
 21
9.8554439132826
  0
LINE
  8
ERPC.1b
  6
CONTINUOUS
 62
8
 10
3.1962982919575
 20
9.6548378470411
 11
3.3537786069182
 21
9.5639165448065
  0
LINE
  8
ERPC.1b
  6
CONTINUOUS
 62
8
 10
3.3537786069182
 20
9.5639165448065
 11
3.498660496682
 21
9.6475641428624
  0
LINE
  8
ERPC.1b
  6
CONTINUOUS
 62
8
 10
2.9813376620363
 20
9.6939257013055
 11
2.6081261696115
 21
9.9093994569216
  0
LINE
  8
ERPC.1b
  6
CONTINUOUS
 62
8
 10
3.7656571843076
 20
9.1844057006056
 11
2.6081261696115
 21
9.8527065435358
  0
LINE
  8
ERPC.1b
  6
CONTINUOUS
 62
8
 10
2.9813376620363
 20
9.6372327879196
 11
3.5876205845531
 21
9.9872703964398
  0
LINE
  8
ERPC.1b
  6
CONTINUOUS
 62
8
 10
4.1829293192178
 20
10.759208850212
 11
4.1829293192178
 21
9.1844057006056
  0
LINE
  8
ERPC.1b
  6
CONTINUOUS
 62
8
 10
2.6081261696115
 20
10.759208850212
 11
4.1829293192178
 21
10.759208850212
  0
LINE
  8
ERPC.1b
  6
CONTINUOUS
 62
8
 10
4.1829293192178
 20
9.1844057006056
 11
2.6081261696115
 21
9.1844057006056
  0
LINE
  8
ERPC.1b
  6
CONTINUOUS
 62
8
 10
2.6081261696115
 20
9.1844057006056
 11
2.6081261696115
 21
10.759208850212
  0
POLYLINE
  8
ERPC.1b
  6
CONTINUOUS
 62
7
 70
0
 66
1
  0
VERTEX
  8
ERPC.1b
  6
CONTINUOUS
 62
7
 10
3.7845012274291
 20
9.7399110059089
  0
VERTEX
  8
ERPC.1b
  6
CONTINUOUS
 62
7
 10
3.7753426970149
 20
9.7451986859089
  0
VERTEX
  8
ERPC.1b
  6
CONTINUOUS
 62
7
 10
3.7845012274291
 20
9.7399110059089
  0
SEQEND
  0
POLYLINE
  8
ERPC.1b
  6
CONTINUOUS
 62
7
 70
0
 66
1
  0
VERTEX
  8
ERPC.1b
  6
CONTINUOUS
 62
7
 10
3.6207455333475
 20
9.8309897241556
  0
VERTEX
  8
ERPC.1b
  6
CONTINUOUS
 62
7
 10
3.5869829142149
 20
9.8346804331717
  0
VERTEX
  8
ERPC.1b
  6
CONTINUOUS
 62
7
 10
3.6195339034282
 20
9.8761045827869
  0
VERTEX
  8
ERPC.1b
  6
CONTINUOUS
 62
7
 10
3.6398971653277
 20
9.8815609023681
  0
VERTEX
  8
ERPC.1b
  6
CONTINUOUS
 62
7
 10
3.649450196988
 20
9.8459085028457
  0
VERTEX
  8
ERPC.1b
  6
CONTINUOUS
 62
7
 10
3.6236365336932
 20
9.8335533226033
  0
SEQEND
  0
LINE
  8
ERPC.1b
  6
CONTINUOUS
 62
8
 10
3.3592904179418
 20
9.8554439132826
 11
3.3592904179418
 21
10.122645800649
  0
LINE
  8
ERPC.1b
  6
CONTINUOUS
 62
8
 10
2.9813376620363
 20
9.6939257013055
 11
3.3592904179418
 21
9.9121368266685
  0
LINE
  8
ERPC.1b
  6
CONTINUOUS
 62
8
 10
2.9813376620363
 20
10.589331899371
 11
3.151214612877
 21
10.759208850212
  0
LINE
  8
ERPC.1b
  6
CONTINUOUS
 62
8
 10
2.9813376620363
 20
10.402254829703
 11
3.3382916825452
 21
10.759208850212
  0
LINE
  8
ERPC.1b
  6
CONTINUOUS
 62
8
 10
2.9813376620363
 20
10.42898012537
 11
3.3115663868783
 21
10.759208850212
  0
LINE
  8
ERPC.1b
  6
CONTINUOUS
 62
8
 10
2.9813376620363
 20
10.215177760035
 11
3.180160563262
 21
10.41400066126
  0
LINE
  8
ERPC.1b
  6
CONTINUOUS
 62
8
 10
2.9813376620363
 20
10.241903055702
 11
3.1888912050222
 21
10.449456598688
  0
LINE
  8
ERPC.1b
  6
CONTINUOUS
 62
8
 10
2.9813376620363
 20
10.028100690366
 11
3.1798263202279
 21
10.226589348558
  0
LINE
  8
ERPC.1b
  6
CONTINUOUS
 62
8
 10
2.9813376620363
 20
10.054825986033
 11
3.1756960221128
 21
10.24918434611
  0
LINE
  8
ERPC.1b
  6
CONTINUOUS
 62
8
 10
2.9813376620363
 20
9.8410236206982
 11
3.2545886074852
 21
10.114274566147
  0
LINE
  8
ERPC.1b
  6
CONTINUOUS
 62
8
 10
2.9813376620363
 20
9.8677489163651
 11
3.2377519629198
 21
10.124163217249
  0
LINE
  8
ERPC.1b
  6
CONTINUOUS
 62
8
 10
3.0759293472098
 20
9.7485382362035
 11
3.3592904179418
 21
10.031899306935
  0
LINE
  8
ERPC.1b
  6
CONTINUOUS
 62
8
 10
3.0126966187383
 20
9.7120308033989
 11
3.3592904179418
 21
10.058624602602
  0
LINE
  8
ERPC.1b
  6
CONTINUOUS
 62
8
 10
2.9813376620363
 20
10.759208850212
 11
2.9813376620363
 21
9.1844057006056
  0
POLYLINE
  8
ERPC.1b
  6
CONTINUOUS
 62
7
 70
0
 66
1
  0
VERTEX
  8
ERPC.1b
  6
CONTINUOUS
 62
7
 10
3.6776817859784
 20
9.8096787051172
  0
VERTEX
  8
ERPC.1b
  6
CONTINUOUS
 62
7
 10
3.6685831152401
 20
9.8149318251172
  0
VERTEX
  8
ERPC.1b
  6
CONTINUOUS
 62
7
 10
3.6776817859784
 20
9.8096787051172
  0
SEQEND
  0
POLYLINE
  8
ERPC.1b
  6
CONTINUOUS
 62
7
 70
0
 66
1
  0
VERTEX
  8
ERPC.1b
  6
CONTINUOUS
 62
7
 10
3.3883431715886
 20
10.561575483002
  0
VERTEX
  8
ERPC.1b
  6
CONTINUOUS
 62
7
 10
3.3844516277931
 20
10.561747131429
  0
VERTEX
  8
ERPC.1b
  6
CONTINUOUS
 62
7
 10
3.3903372396908
 20
10.568485310269
  0
VERTEX
  8
ERPC.1b
  6
CONTINUOUS
 62
7
 10
3.3883431715886
 20
10.561575483002
  0
SEQEND
  0
POLYLINE
  8
ERPC.1b
  6
CONTINUOUS
 62
7
 70
0
 66
1
  0
VERTEX
  8
ERPC.1b
  6
CONTINUOUS
 62
7
 10
3.5668305111404
 20
9.9266849408276
  0
VERTEX
  8
ERPC.1b
  6
CONTINUOUS
 62
7
 10
3.563777667669
 20
9.9284475008276
  0
VERTEX
  8
ERPC.1b
  6
CONTINUOUS
 62
7
 10
3.5559094207262
 20
9.9289197773562
  0
VERTEX
  8
ERPC.1b
  6
CONTINUOUS
 62
7
 10
3.5594345407262
 20
9.935025464299
  0
VERTEX
  8
ERPC.1b
  6
CONTINUOUS
 62
7
 10
3.5668305111404
 20
9.9266849408276
  0
SEQEND
  0
POLYLINE
  8
ERPC.1b
  6
CONTINUOUS
 62
7
 70
0
 66
1
  0
VERTEX
  8
ERPC.1b
  6
CONTINUOUS
 62
7
 10
3.5673430361805
 20
9.92629954944
  0
VERTEX
  8
ERPC.1b
  6
CONTINUOUS
 62
7
 10
3.5612373492377
 20
9.92982466944
  0
VERTEX
  8
ERPC.1b
  6
CONTINUOUS
 62
7
 10
3.5673430361805
 20
9.92629954944
  0
SEQEND
  0
POLYLINE
  8
ERPC.1b
  6
CONTINUOUS
 62
7
 70
0
 66
1
  0
VERTEX
  8
ERPC.1b
  6
CONTINUOUS
 62
7
 10
3.3896181310607
 20
10.65230908764
  0
VERTEX
  8
ERPC.1b
  6
CONTINUOUS
 62
7
 10
3.3839387275893
 20
10.649522312271
  0
VERTEX
  8
ERPC.1b
  6
CONTINUOUS
 62
7
 10
3.3830747275893
 20
10.648025820373
  0
VERTEX
  8
ERPC.1b
  6
CONTINUOUS
 62
7
 10
3.3784655325443
 20
10.650686940373
  0
VERTEX
  8
ERPC.1b
  6
CONTINUOUS
 62
7
 10
3.3876700560157
 20
10.659579402685
  0
VERTEX
  8
ERPC.1b
  6
CONTINUOUS
 62
7
 10
3.3896181310607
 20
10.65230908764
  0
SEQEND
  0
POLYLINE
  8
ERPC.1b
  6
CONTINUOUS
 62
7
 70
0
 66
1
  0
VERTEX
  8
ERPC.1b
  6
CONTINUOUS
 62
7
 10
3.5674197540709
 20
10.001158505701
  0
VERTEX
  8
ERPC.1b
  6
CONTINUOUS
 62
7
 10
3.5580550152304
 20
10.00249478223
  0
VERTEX
  8
ERPC.1b
  6
CONTINUOUS
 62
7
 10
3.5674197540709
 20
10.001158505701
  0
SEQEND
  0
POLYLINE
  8
ERPC.1b
  6
CONTINUOUS
 62
7
 70
0
 66
1
  0
VERTEX
  8
ERPC.1b
  6
CONTINUOUS
 62
7
 10
3.4721661444324
 20
10.008279240097
  0
VERTEX
  8
ERPC.1b
  6
CONTINUOUS
 62
7
 10
3.4676168090633
 20
10.010905800097
  0
VERTEX
  8
ERPC.1b
  6
CONTINUOUS
 62
7
 10
3.4711073690633
 20
10.016951627364
  0
VERTEX
  8
ERPC.1b
  6
CONTINUOUS
 62
7
 10
3.4721661444324
 20
10.008279240097
  0
SEQEND
  0
POLYLINE
  8
ERPC.1b
  6
CONTINUOUS
 62
7
 70
0
 66
1
  0
VERTEX
  8
ERPC.1b
  6
CONTINUOUS
 62
7
 10
3.4644041251604
 20
9.9293174263285
  0
VERTEX
  8
ERPC.1b
  6
CONTINUOUS
 62
7
 10
3.4620090732627
 20
9.9286250747549
  0
VERTEX
  8
ERPC.1b
  6
CONTINUOUS
 62
7
 10
3.4670306851604
 20
9.9338667616977
  0
VERTEX
  8
ERPC.1b
  6
CONTINUOUS
 62
7
 10
3.4644041251604
 20
9.9293174263285
  0
SEQEND
  0
POLYLINE
  8
ERPC.1b
  6
CONTINUOUS
 62
7
 70
0
 66
1
  0
VERTEX
  8
ERPC.1b
  6
CONTINUOUS
 62
7
 10
3.4781526779006
 20
10.026812538205
  0
VERTEX
  8
ERPC.1b
  6
CONTINUOUS
 62
7
 10
3.4765963263269
 20
10.027711098205
  0
VERTEX
  8
ERPC.1b
  6
CONTINUOUS
 62
7
 10
3.4807792379006
 20
10.031361873574
  0
VERTEX
  8
ERPC.1b
  6
CONTINUOUS
 62
7
 10
3.4781526779006
 20
10.026812538205
  0
SEQEND
  0
POLYLINE
  8
ERPC.1b
  6
CONTINUOUS
 62
7
 70
0
 66
1
  0
VERTEX
  8
ERPC.1b
  6
CONTINUOUS
 62
7
 10
3.4105254006652
 20
10.147305060076
  0
VERTEX
  8
ERPC.1b
  6
CONTINUOUS
 62
7
 10
3.4035211537224
 20
10.149273828503
  0
VERTEX
  8
ERPC.1b
  6
CONTINUOUS
 62
7
 10
3.4105254006652
 20
10.147305060076
  0
SEQEND
  0
POLYLINE
  8
ERPC.1b
  6
CONTINUOUS
 62
7
 70
0
 66
1
  0
VERTEX
  8
ERPC.1b
  6
CONTINUOUS
 62
7
 10
3.4470288989052
 20
10.089818739517
  0
VERTEX
  8
ERPC.1b
  6
CONTINUOUS
 62
7
 10
3.4391606519624
 20
10.090291016045
  0
VERTEX
  8
ERPC.1b
  6
CONTINUOUS
 62
7
 10
3.4470288989052
 20
10.089818739517
  0
SEQEND
  0
POLYLINE
  8
ERPC.1b
  6
CONTINUOUS
 62
7
 70
0
 66
1
  0
VERTEX
  8
ERPC.1b
  6
CONTINUOUS
 62
7
 10
3.3934563454563
 20
10.130360907609
  0
VERTEX
  8
ERPC.1b
  6
CONTINUOUS
 62
7
 10
3.3860258150421
 20
10.138641571405
  0
VERTEX
  8
ERPC.1b
  6
CONTINUOUS
 62
7
 10
3.3934563454563
 20
10.130360907609
  0
SEQEND
  0
POLYLINE
  8
ERPC.1b
  6
CONTINUOUS
 62
7
 70
0
 66
1
  0
VERTEX
  8
ERPC.1b
  6
CONTINUOUS
 62
7
 10
3.4874014828273
 20
9.8145976982475
  0
VERTEX
  8
ERPC.1b
  6
CONTINUOUS
 62
7
 10
3.462878379363
 20
9.838892357088
  0
VERTEX
  8
ERPC.1b
  6
CONTINUOUS
 62
7
 10
3.4680058439939
 20
9.8582796263427
  0
VERTEX
  8
ERPC.1b
  6
CONTINUOUS
 62
7
 10
3.4912386639868
 20
9.8388003709735
  0
VERTEX
  8
ERPC.1b
  6
CONTINUOUS
 62
7
 10
3.4891640428273
 20
9.8176505417188
  0
SEQEND
  0
POLYLINE
  8
ERPC.1b
  6
CONTINUOUS
 62
7
 70
0
 66
1
  0
VERTEX
  8
ERPC.1b
  6
CONTINUOUS
 62
7
 10
3.4082699127515
 20
10.016145137542
  0
VERTEX
  8
ERPC.1b
  6
CONTINUOUS
 62
7
 10
3.3946678997013
 20
10.038204959854
  0
VERTEX
  8
ERPC.1b
  6
CONTINUOUS
 62
7
 10
3.3891172150775
 20
10.077804332069
  0
VERTEX
  8
ERPC.1b
  6
CONTINUOUS
 62
7
 10
3.4035634254917
 20
10.081675182483
  0
VERTEX
  8
ERPC.1b
  6
CONTINUOUS
 62
7
 10
3.425205333911
 20
10.063034627438
  0
VERTEX
  8
ERPC.1b
  6
CONTINUOUS
 62
7
 10
3.4060810692801
 20
10.01940418944
  0
SEQEND
  0
POLYLINE
  8
ERPC.1b
  6
CONTINUOUS
 62
7
 70
0
 66
1
  0
VERTEX
  8
ERPC.1b
  6
CONTINUOUS
 62
7
 10
3.4415885887491
 20
10.119140308116
  0
VERTEX
  8
ERPC.1b
  6
CONTINUOUS
 62
7
 10
3.4342179180108
 20
10.127386411911
  0
VERTEX
  8
ERPC.1b
  6
CONTINUOUS
 62
7
 10
3.4415885887491
 20
10.119140308116
  0
SEQEND
  0
POLYLINE
  8
ERPC.1b
  6
CONTINUOUS
 62
7
 70
0
 66
1
  0
VERTEX
  8
ERPC.1b
  6
CONTINUOUS
 62
7
 10
3.6962518304031
 20
9.7780001735083
  0
VERTEX
  8
ERPC.1b
  6
CONTINUOUS
 62
7
 10
3.6864953680911
 20
9.785708205082
  0
VERTEX
  8
ERPC.1b
  6
CONTINUOUS
 62
7
 10
3.6962518304031
 20
9.7780001735083
  0
SEQEND
  0
POLYLINE
  8
ERPC.1b
  6
CONTINUOUS
 62
7
 70
0
 66
1
  0
VERTEX
  8
ERPC.1b
  6
CONTINUOUS
 62
7
 10
3.6774760512426
 20
9.7482243875748
  0
VERTEX
  8
ERPC.1b
  6
CONTINUOUS
 62
7
 10
3.6744232077712
 20
9.7499869475748
  0
VERTEX
  8
ERPC.1b
  6
CONTINUOUS
 62
7
 10
3.6801026112426
 20
9.752773722944
  0
VERTEX
  8
ERPC.1b
  6
CONTINUOUS
 62
7
 10
3.6774760512426
 20
9.7482243875748
  0
SEQEND
  0
POLYLINE
  8
ERPC.1b
  6
CONTINUOUS
 62
7
 70
0
 66
1
  0
VERTEX
  8
ERPC.1b
  6
CONTINUOUS
 62
7
 10
3.660197072402
 20
9.7358527983202
  0
VERTEX
  8
ERPC.1b
  6
CONTINUOUS
 62
7
 10
3.659976997357
 20
9.7461160971607
  0
VERTEX
  8
ERPC.1b
  6
CONTINUOUS
 62
7
 10
3.660197072402
 20
9.7358527983202
  0
SEQEND
  0
POLYLINE
  8
ERPC.1b
  6
CONTINUOUS
 62
7
 70
0
 66
1
  0
VERTEX
  8
ERPC.1b
  6
CONTINUOUS
 62
7
 10
3.8546231269466
 20
9.628386592403
  0
VERTEX
  8
ERPC.1b
  6
CONTINUOUS
 62
7
 10
3.8454645965324
 20
9.633674272403
  0
VERTEX
  8
ERPC.1b
  6
CONTINUOUS
 62
7
 10
3.8546231269466
 20
9.628386592403
  0
SEQEND
  0
POLYLINE
  8
ERPC.1b
  6
CONTINUOUS
 62
7
 70
0
 66
1
  0
VERTEX
  8
ERPC.1b
  6
CONTINUOUS
 62
7
 10
3.4250967279376
 20
10.620360339617
  0
VERTEX
  8
ERPC.1b
  6
CONTINUOUS
 62
7
 10
3.4174945490971
 20
10.624749459617
  0
VERTEX
  8
ERPC.1b
  6
CONTINUOUS
 62
7
 10
3.4177007575235
 20
10.628700863089
  0
VERTEX
  8
ERPC.1b
  6
CONTINUOUS
 62
7
 10
3.4250967279376
 20
10.620360339617
  0
SEQEND
  0
POLYLINE
  8
ERPC.1b
  6
CONTINUOUS
 62
7
 70
0
 66
1
  0
VERTEX
  8
ERPC.1b
  6
CONTINUOUS
 62
7
 10
4.076384657209
 20
9.64593678495
  0
VERTEX
  8
ERPC.1b
  6
CONTINUOUS
 62
7
 10
4.071775462164
 20
9.64859790495
  0
VERTEX
  8
ERPC.1b
  6
CONTINUOUS
 62
7
 10
4.079909777209
 20
9.6520424718928
  0
VERTEX
  8
ERPC.1b
  6
CONTINUOUS
 62
7
 10
4.076384657209
 20
9.64593678495
  0
SEQEND
  0
POLYLINE
  8
ERPC.1b
  6
CONTINUOUS
 62
7
 70
0
 66
1
  0
VERTEX
  8
ERPC.1b
  6
CONTINUOUS
 62
7
 10
3.549982485681
 20
10.046081559864
  0
VERTEX
  8
ERPC.1b
  6
CONTINUOUS
 62
7
 10
3.5454331503119
 20
10.048708119864
  0
VERTEX
  8
ERPC.1b
  6
CONTINUOUS
 62
7
 10
3.553507605681
 20
10.052187246806
  0
VERTEX
  8
ERPC.1b
  6
CONTINUOUS
 62
7
 10
3.549982485681
 20
10.046081559864
  0
SEQEND
  0
POLYLINE
  8
ERPC.1b
  6
CONTINUOUS
 62
7
 70
0
 66
1
  0
VERTEX
  8
ERPC.1b
  6
CONTINUOUS
 62
7
 10
4.0004913260123
 20
9.5604008391789
  0
VERTEX
  8
ERPC.1b
  6
CONTINUOUS
 62
7
 10
3.9944454987455
 20
9.5638913991789
  0
VERTEX
  8
ERPC.1b
  6
CONTINUOUS
 62
7
 10
4.0004913260123
 20
9.5604008391789
  0
SEQEND
  0
POLYLINE
  8
ERPC.1b
  6
CONTINUOUS
 62
7
 70
0
 66
1
  0
VERTEX
  8
ERPC.1b
  6
CONTINUOUS
 62
7
 10
3.5700919542137
 20
10.103484358767
  0
VERTEX
  8
ERPC.1b
  6
CONTINUOUS
 62
7
 10
3.5639862672709
 20
10.107009478767
  0
VERTEX
  8
ERPC.1b
  6
CONTINUOUS
 62
7
 10
3.5633883353731
 20
10.109429830341
  0
VERTEX
  8
ERPC.1b
  6
CONTINUOUS
 62
7
 10
3.5700919542137
 20
10.103484358767
  0
SEQEND
  0
POLYLINE
  8
ERPC.1b
  6
CONTINUOUS
 62
7
 70
0
 66
1
  0
VERTEX
  8
ERPC.1b
  6
CONTINUOUS
 62
7
 10
4.1521692936792
 20
9.55877810419
  0
VERTEX
  8
ERPC.1b
  6
CONTINUOUS
 62
7
 10
4.1428391148387
 20
9.5601742403945
  0
VERTEX
  8
ERPC.1b
  6
CONTINUOUS
 62
7
 10
4.1415142713673
 20
9.56492978419
  0
VERTEX
  8
ERPC.1b
  6
CONTINUOUS
 62
7
 10
4.1521692936792
 20
9.55877810419
  0
SEQEND
  0
POLYLINE
  8
ERPC.1b
  6
CONTINUOUS
 62
7
 70
0
 66
1
  0
VERTEX
  8
ERPC.1b
  6
CONTINUOUS
 62
7
 10
3.6301649131602
 20
9.7644881994648
  0
VERTEX
  8
ERPC.1b
  6
CONTINUOUS
 62
7
 10
3.6303365615865
 20
9.7683797432602
  0
VERTEX
  8
ERPC.1b
  6
CONTINUOUS
 62
7
 10
3.6257872262174
 20
9.7710063032602
  0
VERTEX
  8
ERPC.1b
  6
CONTINUOUS
 62
7
 10
3.6266857862174
 20
9.7725626548339
  0
VERTEX
  8
ERPC.1b
  6
CONTINUOUS
 62
7
 10
3.6301649131602
 20
9.7644881994648
  0
SEQEND
  0
POLYLINE
  8
ERPC.1b
  6
CONTINUOUS
 62
7
 70
0
 66
1
  0
VERTEX
  8
ERPC.1b
  6
CONTINUOUS
 62
7
 10
3.4953131084613
 20
10.267548245472
  0
VERTEX
  8
ERPC.1b
  6
CONTINUOUS
 62
7
 10
3.4947151765636
 20
10.269968597046
  0
VERTEX
  8
ERPC.1b
  6
CONTINUOUS
 62
7
 10
3.4919284011945
 20
10.275648000517
  0
VERTEX
  8
ERPC.1b
  6
CONTINUOUS
 62
7
 10
3.4951528930922
 20
10.277776984313
  0
VERTEX
  8
ERPC.1b
  6
CONTINUOUS
 62
7
 10
3.4953131084613
 20
10.267548245472
  0
SEQEND
  0
POLYLINE
  8
ERPC.1b
  6
CONTINUOUS
 62
7
 70
0
 66
1
  0
VERTEX
  8
ERPC.1b
  6
CONTINUOUS
 62
7
 10
4.0810615663667
 20
9.6228266919232
  0
VERTEX
  8
ERPC.1b
  6
CONTINUOUS
 62
7
 10
4.0780087228953
 20
9.6245892519232
  0
VERTEX
  8
ERPC.1b
  6
CONTINUOUS
 62
7
 10
4.0845521263667
 20
9.6288725191901
  0
VERTEX
  8
ERPC.1b
  6
CONTINUOUS
 62
7
 10
4.0810615663667
 20
9.6228266919232
  0
SEQEND
  0
POLYLINE
  8
ERPC.1b
  6
CONTINUOUS
 62
7
 70
0
 66
1
  0
VERTEX
  8
ERPC.1b
  6
CONTINUOUS
 62
7
 10
4.1204114512601
 20
9.6517872121867
  0
VERTEX
  8
ERPC.1b
  6
CONTINUOUS
 62
7
 10
4.1143656239932
 20
9.6552777721867
  0
VERTEX
  8
ERPC.1b
  6
CONTINUOUS
 62
7
 10
4.1204114512601
 20
9.6517872121867
  0
SEQEND
  0
POLYLINE
  8
ERPC.1b
  6
CONTINUOUS
 62
7
 70
0
 66
1
  0
VERTEX
  8
ERPC.1b
  6
CONTINUOUS
 62
7
 10
4.0020709928074
 20
9.5545687368497
  0
VERTEX
  8
ERPC.1b
  6
CONTINUOUS
 62
7
 10
3.9940425304955
 20
9.5652697522188
  0
VERTEX
  8
ERPC.1b
  6
CONTINUOUS
 62
7
 10
4.0020709928074
 20
9.5545687368497
  0
SEQEND
  0
POLYLINE
  8
ERPC.1b
  6
CONTINUOUS
 62
7
 70
0
 66
1
  0
VERTEX
  8
ERPC.1b
  6
CONTINUOUS
 62
7
 10
3.7685526368455
 20
9.651263705641
  0
VERTEX
  8
ERPC.1b
  6
CONTINUOUS
 62
7
 10
3.7608905983291
 20
9.655687385641
  0
VERTEX
  8
ERPC.1b
  6
CONTINUOUS
 62
7
 10
3.7685526368455
 20
9.651263705641
  0
SEQEND
  0
POLYLINE
  8
ERPC.1b
  6
CONTINUOUS
 62
7
 70
0
 66
1
  0
VERTEX
  8
ERPC.1b
  6
CONTINUOUS
 62
7
 10
3.7859948945336
 20
9.7060813021555
  0
VERTEX
  8
ERPC.1b
  6
CONTINUOUS
 62
7
 10
3.7820780510622
 20
9.7063473702578
  0
VERTEX
  8
ERPC.1b
  6
CONTINUOUS
 62
7
 10
3.7753398722217
 20
9.7122329821555
  0
VERTEX
  8
ERPC.1b
  6
CONTINUOUS
 62
7
 10
3.7819178356931
 20
9.7165761090983
  0
VERTEX
  8
ERPC.1b
  6
CONTINUOUS
 62
7
 10
3.7859948945336
 20
9.7060813021555
  0
SEQEND
  0
POLYLINE
  8
ERPC.1b
  6
CONTINUOUS
 62
7
 70
0
 66
1
  0
VERTEX
  8
ERPC.1b
  6
CONTINUOUS
 62
7
 10
4.101756963693
 20
9.5854075711643
  0
VERTEX
  8
ERPC.1b
  6
CONTINUOUS
 62
7
 10
4.0941547848525
 20
9.5897966911643
  0
VERTEX
  8
ERPC.1b
  6
CONTINUOUS
 62
7
 10
4.101756963693
 20
9.5854075711643
  0
SEQEND
  0
POLYLINE
  8
ERPC.1b
  6
CONTINUOUS
 62
7
 70
0
 66
1
  0
VERTEX
  8
ERPC.1b
  6
CONTINUOUS
 62
7
 10
3.993208186746
 20
9.6056140868427
  0
VERTEX
  8
ERPC.1b
  6
CONTINUOUS
 62
7
 10
3.991445626746
 20
9.6025612433713
  0
VERTEX
  8
ERPC.1b
  6
CONTINUOUS
 62
7
 10
3.9864700079055
 20
9.6114996987404
  0
VERTEX
  8
ERPC.1b
  6
CONTINUOUS
 62
7
 10
3.994936186746
 20
9.6086070706382
  0
VERTEX
  8
ERPC.1b
  6
CONTINUOUS
 62
7
 10
3.993208186746
 20
9.6056140868427
  0
SEQEND
  0
POLYLINE
  8
ERPC.1b
  6
CONTINUOUS
 62
7
 70
0
 66
1
  0
VERTEX
  8
ERPC.1b
  6
CONTINUOUS
 62
7
 10
4.0296574232746
 20
9.6757962564073
  0
VERTEX
  8
ERPC.1b
  6
CONTINUOUS
 62
7
 10
4.0227475960077
 20
9.6777903245096
  0
VERTEX
  8
ERPC.1b
  6
CONTINUOUS
 62
7
 10
4.0238178044341
 20
9.6832382198787
  0
VERTEX
  8
ERPC.1b
  6
CONTINUOUS
 62
7
 10
4.0296574232746
 20
9.6757962564073
  0
SEQEND
  0
POLYLINE
  8
ERPC.1b
  6
CONTINUOUS
 62
7
 70
0
 66
1
  0
VERTEX
  8
ERPC.1b
  6
CONTINUOUS
 62
7
 10
4.0413004909595
 20
9.4986573040591
  0
VERTEX
  8
ERPC.1b
  6
CONTINUOUS
 62
7
 10
4.0365196474881
 20
9.4974268802636
  0
VERTEX
  8
ERPC.1b
  6
CONTINUOUS
 62
7
 10
4.0258646251762
 20
9.5035785602636
  0
VERTEX
  8
ERPC.1b
  6
CONTINUOUS
 62
7
 10
4.0163856640238
 20
9.5293237179447
  0
VERTEX
  8
ERPC.1b
  6
CONTINUOUS
 62
7
 10
4.0302108155974
 20
9.5496753428926
  0
VERTEX
  8
ERPC.1b
  6
CONTINUOUS
 62
7
 10
4.0521993451762
 20
9.5491916333067
  0
VERTEX
  8
ERPC.1b
  6
CONTINUOUS
 62
7
 10
4.0382476474881
 20
9.5004198640591
  0
SEQEND
  0
POLYLINE
  8
ERPC.1b
  6
CONTINUOUS
 62
7
 70
0
 66
1
  0
VERTEX
  8
ERPC.1b
  6
CONTINUOUS
 62
7
 10
3.9090439630284
 20
9.6624439211445
  0
VERTEX
  8
ERPC.1b
  6
CONTINUOUS
 62
7
 10
3.8825604607165
 20
9.6411798695779
  0
VERTEX
  8
ERPC.1b
  6
CONTINUOUS
 62
7
 10
3.8762861888259
 20
9.6934881918827
  0
VERTEX
  8
ERPC.1b
  6
CONTINUOUS
 62
7
 10
3.8868269888259
 20
9.7117453930351
  0
VERTEX
  8
ERPC.1b
  6
CONTINUOUS
 62
7
 10
3.9187920557616
 20
9.6932903530351
  0
VERTEX
  8
ERPC.1b
  6
CONTINUOUS
 62
7
 10
3.9092754711307
 20
9.6663009049399
  0
SEQEND
  0
POLYLINE
  8
ERPC.1b
  6
CONTINUOUS
 62
7
 70
0
 66
1
  0
VERTEX
  8
ERPC.1b
  6
CONTINUOUS
 62
7
 10
3.512201527336
 20
10.672247741774
  0
VERTEX
  8
ERPC.1b
  6
CONTINUOUS
 62
7
 10
3.509574967336
 20
10.667698406404
  0
VERTEX
  8
ERPC.1b
  6
CONTINUOUS
 62
7
 10
3.4954408180814
 20
10.681924541774
  0
VERTEX
  8
ERPC.1b
  6
CONTINUOUS
 62
7
 10
3.5068801780814
 20
10.7017380945
  0
VERTEX
  8
ERPC.1b
  6
CONTINUOUS
 62
7
 10
3.5153463569219
 20
10.698845466397
  0
VERTEX
  8
ERPC.1b
  6
CONTINUOUS
 62
7
 10
3.513100087336
 20
10.673804093347
  0
SEQEND
  0
POLYLINE
  8
ERPC.1b
  6
CONTINUOUS
 62
7
 70
0
 66
1
  0
VERTEX
  8
ERPC.1b
  6
CONTINUOUS
 62
7
 10
4.115212383192
 20
9.4684301161932
  0
VERTEX
  8
ERPC.1b
  6
CONTINUOUS
 62
7
 10
4.1024666662885
 20
9.4706738694796
  0
VERTEX
  8
ERPC.1b
  6
CONTINUOUS
 62
7
 10
4.0811458194281
 20
9.477868476355
  0
VERTEX
  8
ERPC.1b
  6
CONTINUOUS
 62
7
 10
4.0846424585196
 20
9.4949556821417
  0
VERTEX
  8
ERPC.1b
  6
CONTINUOUS
 62
7
 10
4.0921049020398
 20
9.5123107245734
  0
VERTEX
  8
ERPC.1b
  6
CONTINUOUS
 62
7
 10
4.122205661375
 20
9.5026045277667
  0
VERTEX
  8
ERPC.1b
  6
CONTINUOUS
 62
7
 10
4.1162980966983
 20
9.4703106271487
  0
SEQEND
  0
POLYLINE
  8
ERPC.1b
  6
CONTINUOUS
 62
7
 70
0
 66
1
  0
VERTEX
  8
ERPC.1b
  6
CONTINUOUS
 62
7
 10
4.0129540266393
 20
9.6341689520589
  0
VERTEX
  8
ERPC.1b
  6
CONTINUOUS
 62
7
 10
4.0111914666393
 20
9.6311161085875
  0
VERTEX
  8
ERPC.1b
  6
CONTINUOUS
 62
7
 10
4.0063760631679
 20
9.6298258251161
  0
VERTEX
  8
ERPC.1b
  6
CONTINUOUS
 62
7
 10
3.993958480856
 20
9.6329246616448
  0
VERTEX
  8
ERPC.1b
  6
CONTINUOUS
 62
7
 10
4.0058954170605
 20
9.6605120416377
  0
VERTEX
  8
ERPC.1b
  6
CONTINUOUS
 62
7
 10
4.0119412443274
 20
9.6570214816377
  0
VERTEX
  8
ERPC.1b
  6
CONTINUOUS
 62
7
 10
4.0107651831679
 20
9.6374280039567
  0
SEQEND
  0
POLYLINE
  8
ERPC.1b
  6
CONTINUOUS
 62
7
 70
0
 66
1
  0
VERTEX
  8
ERPC.1b
  6
CONTINUOUS
 62
7
 10
3.5267513419378
 20
10.138048398885
  0
VERTEX
  8
ERPC.1b
  6
CONTINUOUS
 62
7
 10
3.4950492796259
 20
10.107745536256
  0
VERTEX
  8
ERPC.1b
  6
CONTINUOUS
 62
7
 10
3.4968149031043
 20
10.163473125828
  0
VERTEX
  8
ERPC.1b
  6
CONTINUOUS
 62
7
 10
3.5260935503641
 20
10.140503310459
  0
SEQEND
  0
LINE
  8
ERPC.1b
  6
CONTINUOUS
 62
8
 10
3.5876205845531
 20
10.669160160219
 11
3.1858763564572
 21
10.437213021983
  0
LINE
  8
ERPC.1b
  6
CONTINUOUS
 62
8
 10
3.0207077407764
 20
9.614502462361
 11
3.0207077407764
 21
9.1844057006056
  0
LINE
  8
ERPC.1b
  6
CONTINUOUS
 62
8
 10
3.0207077407764
 20
9.614502462361
 11
3.398660496682
 21
9.832713587724
  0
LINE
  8
ERPC.1b
  6
CONTINUOUS
 62
8
 10
2.9813376620363
 20
10.617170749024
 11
3.123375763224
 21
10.759208850212
  0
LINE
  8
ERPC.1b
  6
CONTINUOUS
 62
8
 10
4.1829293192178
 20
9.6435687382302
 11
3.5876205845531
 21
9.9872703964398
  0
LINE
  8
ERPC.1b
  6
CONTINUOUS
 62
8
 10
4.1829293192178
 20
10.734624365045
 11
4.1403477418311
 21
10.759208850212
  0
LINE
  8
ERPC.1b
  6
CONTINUOUS
 62
8
 10
3.6191246217951
 20
10.650971295837
 11
3.1998678594432
 21
10.408913291234
  0
LINE
  8
ERPC.1b
  6
CONTINUOUS
 62
8
 10
3.1998678594432
 20
10.177417228242
 11
3.1998678594432
 21
10.408913291234
  0
LINE
  8
ERPC.1b
  6
CONTINUOUS
 62
8
 10
3.6191246217951
 20
10.419475232845
 11
3.1998678594432
 21
10.177417228242
  0
LINE
  8
ERPC.1b
  6
CONTINUOUS
 62
8
 10
3.2306549071067
 20
10.130288529882
 11
3.2592755318205
 21
10.124088667167
  0
LINE
  8
ERPC.1b
  6
CONTINUOUS
 62
8
 10
3.2592755318205
 20
10.124088667167
 11
3.2899231931341
 21
10.127002903165
  0
LINE
  8
ERPC.1b
  6
CONTINUOUS
 62
8
 10
3.2899231931341
 20
10.127002903165
 11
3.3273737347086
 21
10.141072906305
  0
LINE
  8
ERPC.1b
  6
CONTINUOUS
 62
8
 10
3.170314039989
 20
10.312480082885
 11
3.1730322931517
 21
10.263756405482
  0
LINE
  8
ERPC.1b
  6
CONTINUOUS
 62
8
 10
3.1730322931517
 20
10.263756405482
 11
3.1811088534452
 21
10.219573187957
  0
LINE
  8
ERPC.1b
  6
CONTINUOUS
 62
8
 10
3.1811088534452
 20
10.219573187957
 11
3.194311372935
 21
10.181201501034
  0
LINE
  8
ERPC.1b
  6
CONTINUOUS
 62
8
 10
3.194311372935
 20
10.181201501034
 11
3.212260039173
 21
10.149745228284
  0
LINE
  8
ERPC.1b
  6
CONTINUOUS
 62
8
 10
3.212260039173
 20
10.149745228284
 11
3.2344385017106
 21
10.1261093094
  0
LINE
  8
ERPC.1b
  6
CONTINUOUS
 62
8
 10
3.2344385017106
 20
10.1261093094
 11
3.2602087265609
 21
10.110973706735
  0
LINE
  8
ERPC.1b
  6
CONTINUOUS
 62
8
 10
3.2602087265609
 20
10.110973706735
 11
3.2888293512746
 21
10.10477384402
  0
LINE
  8
ERPC.1b
  6
CONTINUOUS
 62
8
 10
3.2888293512746
 20
10.10477384402
 11
3.3194770125883
 21
10.107688080018
  0
LINE
  8
ERPC.1b
  6
CONTINUOUS
 62
8
 10
3.3194770125883
 20
10.107688080018
 11
3.3592904179418
 21
10.122645800649
  0
LINE
  8
ERPC.1b
  6
CONTINUOUS
 62
8
 10
3.3592904179418
 20
10.720525490483
 11
3.3194770125883
 21
10.689510650517
  0
LINE
  8
ERPC.1b
  6
CONTINUOUS
 62
8
 10
3.3194770125883
 20
10.689510650517
 11
3.2888293512746
 21
10.657036015497
  0
LINE
  8
ERPC.1b
  6
CONTINUOUS
 62
8
 10
3.2888293512746
 20
10.657036015497
 11
3.2602087265609
 21
10.617787902017
  0
LINE
  8
ERPC.1b
  6
CONTINUOUS
 62
8
 10
3.2602087265609
 20
10.617787902017
 11
3.2344385017106
 21
10.572895406843
  0
LINE
  8
ERPC.1b
  6
CONTINUOUS
 62
8
 10
3.2344385017106
 20
10.572895406843
 11
3.212260039173
 21
10.523650005326
  0
LINE
  8
ERPC.1b
  6
CONTINUOUS
 62
8
 10
3.212260039173
 20
10.523650005326
 11
3.194311372935
 21
10.471468398007
  0
LINE
  8
ERPC.1b
  6
CONTINUOUS
 62
8
 10
3.194311372935
 20
10.471468398007
 11
3.1811088534452
 21
10.417851754722
  0
LINE
  8
ERPC.1b
  6
CONTINUOUS
 62
8
 10
3.1811088534452
 20
10.417851754722
 11
3.1730322931517
 21
10.364342528678
  0
LINE
  8
ERPC.1b
  6
CONTINUOUS
 62
8
 10
3.1730322931517
 20
10.364342528678
 11
3.170314039989
 21
10.312480082885
  0
LINE
  8
ERPC.1b
  6
CONTINUOUS
 62
8
 10
3.3592904179418
 20
10.122645800649
 11
3.3273737347086
 21
10.141072906305
  0
LINE
  8
ERPC.1b
  6
CONTINUOUS
 62
8
 10
3.3273737347086
 20
10.141072906305
 11
3.3273737347086
 21
10.251032779649
  0
LINE
  8
ERPC.1b
  6
CONTINUOUS
 62
8
 10
3.3273737347086
 20
10.518906571406
 11
3.3273737347086
 21
10.697878113408
  0
LINE
  8
ERPC.1b
  6
CONTINUOUS
 62
8
 10
3.1998678594432
 20
10.408913291234
 11
3.1815167605953
 21
10.419508303093
  0
LINE
  8
ERPC.1b
  6
CONTINUOUS
 62
8
 10
3.6191246217951
 20
10.650971295837
 11
3.5876205845531
 21
10.669160160219
  0
LINE
  8
ERPC.1b
  6
CONTINUOUS
 62
8
 10
3.6191246217951
 20
10.419475232845
 11
3.6191246217951
 21
10.650971295837
  0
LINE
  8
ERPC.1b
  6
CONTINUOUS
 62
8
 10
3.615187613921
 20
10.653244328393
 11
3.1959308515692
 21
10.41118632379
  0
LINE
  8
ERPC.1b
  6
CONTINUOUS
 62
8
 10
3.611250606047
 20
10.655517360949
 11
3.1919938436952
 21
10.413459356345
  0
LINE
  8
ERPC.1b
  6
CONTINUOUS
 62
8
 10
3.607313598173
 20
10.657790393505
 11
3.1880568358211
 21
10.415732388901
  0
LINE
  8
ERPC.1b
  6
CONTINUOUS
 62
8
 10
3.603376590299
 20
10.660063426061
 11
3.1841198279471
 21
10.418005421457
  0
LINE
  8
ERPC.1b
  6
CONTINUOUS
 62
8
 10
3.599439582425
 20
10.662336458616
 11
3.1819589007017
 21
10.421303874642
  0
LINE
  8
ERPC.1b
  6
CONTINUOUS
 62
8
 10
3.595502574551
 20
10.664609491172
 11
3.1832638382541
 21
10.426603345801
  0
LINE
  8
ERPC.1b
  6
CONTINUOUS
 62
8
 10
3.5915655666769
 20
10.666882523728
 11
3.1845687758066
 21
10.43190281696
  0
CIRCLE
  8
ERPC.1b
  6
CONTINUOUS
 62
8
 10
3.3348859932615
 20
10.292377858163
 40
0.019685039370079
  0
CIRCLE
  8
ERPC.1b
  6
CONTINUOUS
 62
8
 10
3.2666950165856
 20
10.331747936903
 40
0.019685039370079
  0
LINE
  8
ERPC.1b
  6
CONTINUOUS
 62
8
 10
3.3257525842544
 20
10.274939922078
 11
3.2557226991574
 21
10.315404466486
  0
LINE
  8
ERPC.1b
  6
CONTINUOUS
 62
8
 10
3.3457934883879
 20
10.308764661544
 11
3.2797759458114
 21
10.346458139675
  0
LINE
  8
ERPC.1b
  6
CONTINUOUS
 62
8
 10
3.3270135706438
 20
10.310420189972
 11
3.2583961143255
 21
10.349598118871
  0
LINE
  8
ERPC.1b
  6
CONTINUOUS
 62
8
 10
3.3200576262581
 20
10.305324684299
 11
3.2516161540543
 21
10.344402133036
  0
LINE
  8
ERPC.1b
  6
CONTINUOUS
 62
8
 10
3.3161697896382
 20
10.298477407075
 11
3.2478624844097
 21
10.337478251628
  0
LINE
  8
ERPC.1b
  6
CONTINUOUS
 62
8
 10
3.3153610925308
 20
10.289872059596
 11
3.247236771636
 21
10.328768427131
  0
LINE
  8
ERPC.1b
  6
CONTINUOUS
 62
8
 10
3.3167695765243
 20
10.284677454303
 11
3.2485606973258
 21
10.324089788303
  0
LINE
  8
ERPC.1b
  6
CONTINUOUS
 62
8
 10
3.3323613838077
 20
10.311900335519
 11
3.2635621121248
 21
10.351182073998
  0
LINE
  8
ERPC.1b
  6
CONTINUOUS
 62
8
 10
3.170314039989
 20
9.7463383506011
 11
3.170314039989
 21
9.803031263987
  0
LINE
  8
ERPC.1b
  6
CONTINUOUS
 62
8
 10
3.162440024241
 20
9.7417922854894
 11
3.2018101029812
 21
9.7190619599308
  0
LINE
  8
ERPC.1b
  6
CONTINUOUS
 62
8
 10
3.154566008493
 20
9.7372462203777
 11
3.154566008493
 21
9.7939391337635
  0
LINE
  8
ERPC.1b
  6
CONTINUOUS
 62
8
 10
3.1466919927449
 20
9.7327001552659
 11
3.1860620714851
 21
9.7099698297073
  0
LINE
  8
ERPC.1b
  6
CONTINUOUS
 62
8
 10
3.1388179769969
 20
9.7281540901542
 11
3.1388179769969
 21
9.78484700354
  0
LINE
  8
ERPC.1b
  6
CONTINUOUS
 62
8
 10
3.1230699455009
 20
9.7190619599308
 11
3.1230699455009
 21
9.7757548733166
  0
LINE
  8
ERPC.1b
  6
CONTINUOUS
 62
8
 10
3.1309439612489
 20
9.7236080250425
 11
3.170314039989
 21
9.7008776994838
  0
LINE
  8
ERPC.1b
  6
CONTINUOUS
 62
8
 10
3.1073219140048
 20
9.7099698297073
 11
3.1073219140048
 21
9.7666627430931
  0
LINE
  8
ERPC.1b
  6
CONTINUOUS
 62
8
 10
3.0994478982568
 20
9.7054237645956
 11
3.1388179769969
 21
9.6826934390369
  0
LINE
  8
ERPC.1b
  6
CONTINUOUS
 62
8
 10
3.1151959297528
 20
9.714515894819
 11
3.154566008493
 21
9.6917855692604
  0
LINE
  8
ERPC.1b
  6
CONTINUOUS
 62
8
 10
3.0915738825087
 20
9.7008776994838
 11
3.0915738825087
 21
9.7575706128697
  0
LINE
  8
ERPC.1b
  6
CONTINUOUS
 62
8
 10
3.0758258510127
 20
9.6917855692604
 11
3.0758258510127
 21
9.7484784826462
  0
LINE
  8
ERPC.1b
  6
CONTINUOUS
 62
8
 10
3.0836998667607
 20
9.6963316343721
 11
3.1230699455009
 21
9.6736013088135
  0
LINE
  8
ERPC.1b
  6
CONTINUOUS
 62
8
 10
3.0600778195166
 20
9.6826934390369
 11
3.0600778195166
 21
9.7393863524228
  0
LINE
  8
ERPC.1b
  6
CONTINUOUS
 62
8
 10
3.0522038037686
 20
9.6781473739252
 11
3.0915738825087
 21
9.6554170483666
  0
LINE
  8
ERPC.1b
  6
CONTINUOUS
 62
8
 10
3.0679518352646
 20
9.6872395041487
 11
3.1073219140048
 21
9.66450917859
  0
LINE
  8
ERPC.1b
  6
CONTINUOUS
 62
8
 10
3.0443297880205
 20
9.6736013088135
 11
3.0443297880205
 21
9.7302942221993
  0
LINE
  8
ERPC.1b
  6
CONTINUOUS
 62
8
 10
3.0285817565245
 20
9.66450917859
 11
3.0285817565245
 21
9.7212020919758
  0
LINE
  8
ERPC.1b
  6
CONTINUOUS
 62
8
 10
3.0364557722725
 20
9.6690552437017
 11
3.0758258510127
 21
9.6463249181431
  0
LINE
  8
ERPC.1b
  6
CONTINUOUS
 62
8
 10
3.0128337250284
 20
9.6554170483666
 11
3.0128337250284
 21
9.7121099617524
  0
LINE
  8
ERPC.1b
  6
CONTINUOUS
 62
8
 10
3.0049597092804
 20
9.6508709832548
 11
3.0443297880205
 21
9.6281406576962
  0
LINE
  8
ERPC.1b
  6
CONTINUOUS
 62
8
 10
3.0207077407764
 20
9.6599631134783
 11
3.0600778195166
 21
9.6372327879196
  0
LINE
  8
ERPC.1b
  6
CONTINUOUS
 62
8
 10
2.9970856935324
 20
9.6463249181431
 11
2.9970856935324
 21
9.7030178315289
  0
LINE
  8
ERPC.1b
  6
CONTINUOUS
 62
8
 10
2.9892116777843
 20
9.6417788530314
 11
3.0285817565245
 21
9.6190485274727
  0
LINE
  8
ERPC.1b
  6
CONTINUOUS
 62
8
 10
3.1860620714851
 20
9.7554304808246
 11
3.1860620714851
 21
9.8121233942104
  0
LINE
  8
ERPC.1b
  6
CONTINUOUS
 62
8
 10
3.2018101029812
 20
9.764522611048
 11
3.2018101029812
 21
9.8212155244339
  0
LINE
  8
ERPC.1b
  6
CONTINUOUS
 62
8
 10
3.2175581344772
 20
9.7736147412715
 11
3.2175581344772
 21
9.8303076546573
  0
LINE
  8
ERPC.1b
  6
CONTINUOUS
 62
8
 10
3.2254321502253
 20
9.7781608063832
 11
3.2648022289654
 21
9.7554304808246
  0
LINE
  8
ERPC.1b
  6
CONTINUOUS
 62
8
 10
3.1781880557371
 20
9.7508844157129
 11
3.2175581344772
 21
9.7281540901542
  0
LINE
  8
ERPC.1b
  6
CONTINUOUS
 62
8
 10
3.1939360872331
 20
9.7599765459363
 11
3.2333061659733
 21
9.7372462203777
  0
LINE
  8
ERPC.1b
  6
CONTINUOUS
 62
8
 10
3.2096841187292
 20
9.7690686761598
 11
3.2490541974694
 21
9.7463383506011
  0
LINE
  8
ERPC.1b
  6
CONTINUOUS
 62
8
 10
3.2333061659733
 20
9.782706871495
 11
3.2333061659733
 21
9.8393997848808
  0
LINE
  8
ERPC.1b
  6
CONTINUOUS
 62
8
 10
3.2490541974694
 20
9.7917990017184
 11
3.2490541974694
 21
9.8484919151042
  0
LINE
  8
ERPC.1b
  6
CONTINUOUS
 62
8
 10
3.2648022289654
 20
9.8008911319419
 11
3.2648022289654
 21
9.8575840453277
  0
LINE
  8
ERPC.1b
  6
CONTINUOUS
 62
8
 10
3.2805502604615
 20
9.8099832621653
 11
3.2805502604615
 21
9.8666761755512
  0
LINE
  8
ERPC.1b
  6
CONTINUOUS
 62
8
 10
3.2726762447134
 20
9.8054371970536
 11
3.3120463234536
 21
9.782706871495
  0
LINE
  8
ERPC.1b
  6
CONTINUOUS
 62
8
 10
3.2411801817213
 20
9.7872529366067
 11
3.2805502604615
 21
9.764522611048
  0
LINE
  8
ERPC.1b
  6
CONTINUOUS
 62
8
 10
3.2569282132174
 20
9.7963450668302
 11
3.2962982919575
 21
9.7736147412715
  0
LINE
  8
ERPC.1b
  6
CONTINUOUS
 62
8
 10
3.2962982919575
 20
9.8190753923888
 11
3.2962982919575
 21
9.8757683057746
  0
LINE
  8
ERPC.1b
  6
CONTINUOUS
 62
8
 10
3.3120463234536
 20
9.8281675226123
 11
3.3120463234536
 21
9.8848604359981
  0
LINE
  8
ERPC.1b
  6
CONTINUOUS
 62
8
 10
3.3277943549497
 20
9.8372596528357
 11
3.3277943549497
 21
9.8939525662215
  0
LINE
  8
ERPC.1b
  6
CONTINUOUS
 62
8
 10
3.3356683706977
 20
9.8418057179474
 11
3.3750384494379
 21
9.8190753923888
  0
LINE
  8
ERPC.1b
  6
CONTINUOUS
 62
8
 10
3.2884242762095
 20
9.8145293272771
 11
3.3277943549497
 21
9.7917990017184
  0
LINE
  8
ERPC.1b
  6
CONTINUOUS
 62
8
 10
3.3041723077056
 20
9.8236214575005
 11
3.3435423864457
 21
9.8008911319419
  0
LINE
  8
ERPC.1b
  6
CONTINUOUS
 62
8
 10
3.3199203392016
 20
9.832713587724
 11
3.3592904179418
 21
9.8099832621653
  0
LINE
  8
ERPC.1b
  6
CONTINUOUS
 62
8
 10
3.3435423864457
 20
9.8463517830592
 11
3.3435423864457
 21
9.903044696445
  0
LINE
  8
ERPC.1b
  6
CONTINUOUS
 62
8
 10
3.3514164021938
 20
9.8508978481709
 11
3.3907864809339
 21
9.8281675226123
  0
ENDSEC
  0
EOF
