  0
SECTION
  2
HEADER
  9
$EXTMIN
 10
5.0522128036113
 20
9.2578393905973
  9
$EXTMAX
 10
6.6270159532176
 20
10.832642540204
  9
$LIMMIN
 10
0
 20
0
  9
$LIMMAX
 10
8.2677165354331
 20
11.692913385827
  0
ENDSEC
  0
SECTION
  2
TABLES
  0
TABLE
  2
LTYPE
 70
9
  0
LTYPE
  2
CONTINUOUS
  3
___________________________
 70
64
 72
65
 73
0
 40
0
  0
LTYPE
  2
HIDDEN
  3
_ _ _ _ _ _ _ _ _ _ _ _ _ _ 
 70
64
 72
65
 73
2
 49
0.25
 49
-0.125
 40
0.375
  0
LTYPE
  2
DASHED
  3
__ __ __ __ __ __ __ __ __ 
 70
64
 72
65
 73
2
 49
0.5
 49
-0.25
 40
0.75
  0
LTYPE
  2
CENTER
  3
____ _ ____ _ ____ _ ____ _ 
 70
64
 72
65
 73
4
 49
1.25
 49
-0.25
 49
0.25
 49
-0.25
 40
2
  0
LTYPE
  2
PHANTOM
  3
_____ _ _ _____ _ _ _____ _ _ 
 70
64
 72
65
 73
6
 49
1.25
 49
-0.25
 49
0.25
 49
-0.25
 49
0.25
 49
-0.25
 40
2.5
  0
LTYPE
  2
DOT
  3
...........................
 70
64
 72
65
 73
2
 49
0
 49
-0.25
 40
0.25
  0
LTYPE
  2
DASHDOT
  3
__ . __ . __ . __ . __ . __ . 
 70
64
 72
65
 73
4
 49
0.5
 49
-0.25
 49
0
 49
-0.25
 40
1
  0
LTYPE
  2
DIVIDE
  3
__ . . __ . . __ . . __ . . 
 70
64
 72
65
 73
6
 49
0.5
 49
-0.25
 49
0
 49
-0.25
 49
0
 49
-0.25
 40
1.25
  0
LTYPE
  2
BORDER
  3
__ __ . __ __ . __ __ . __ __ . 
 70
64
 72
65
 73
6
 49
0.5
 49
-0.25
 49
0.5
 49
-0.25
 49
0
 49
-0.25
 40
1.75
  0
ENDTAB
  0
TABLE
  2
LAYER
 70
1
  0
LAYER
  2
q_notr_gra
 62
7
  6
CONTINUOUS
 70
0
  0
ENDTAB
  0
TABLE
  2
STYLE
 70
5
  0
STYLE
  2
ptmarker
 70
1
 40
0
 50
0
 71
0
 41
0
 42
0
  3
ptmarks
  0
STYLE
  2
TXT
 70
0
 40
0
 50
0
 71
0
 41
0
 42
0
  3
TXT
  0
STYLE
  2
ITALIC
 70
0
 40
0
 50
0
 71
0
 41
0
 42
0
  3
ITALIC
  0
STYLE
  2
SIMPLEX
 70
0
 40
0
 50
0
 71
0
 41
0
 42
0
  3
SIMPLEX
  0
STYLE
  2
COMPLEX
 70
0
 40
0
 50
0
 71
0
 41
0
 42
0
  3
COMPLEX
  0
ENDTAB
  0
ENDSEC
  0
SECTION
  2
BLOCKS
  0
ENDSEC
  0
SECTION
  2
ENTITIES
  0
CIRCLE
  8
q_notr_gra
  6
CONTINUOUS
 62
8
 10
6.4974728124718
 20
9.8196238367991
 40
0.0059055118110236
  0
CIRCLE
  8
q_notr_gra
  6
CONTINUOUS
 62
8
 10
6.1524356281956
 20
9.7023781916567
 40
0.0059055118110236
  0
CIRCLE
  8
q_notr_gra
  6
CONTINUOUS
 62
8
 10
5.8428076755885
 20
9.408348097198
 40
0.0059055118110236
  0
CIRCLE
  8
q_notr_gra
  6
CONTINUOUS
 62
8
 10
5.3086595467142
 20
9.6302250122689
 40
0.0059055118110236
  0
CIRCLE
  8
q_notr_gra
  6
CONTINUOUS
 62
8
 10
5.3483725736892
 20
9.7757339199699
 40
0.0059055118110236
  0
CIRCLE
  8
q_notr_gra
  6
CONTINUOUS
 62
8
 10
5.1196086188345
 20
9.8228991851317
 40
0.0059055118110236
  0
POLYLINE
  8
q_notr_gra
  6
CONTINUOUS
 62
8
 70
1
 66
1
  0
VERTEX
  8
q_notr_gra
  6
CONTINUOUS
 62
8
 10
5.5431544168979
 20
9.5052320071055
  0
VERTEX
  8
q_notr_gra
  6
CONTINUOUS
 62
8
 10
5.5526868691329
 20
9.51686951291
  0
VERTEX
  8
q_notr_gra
  6
CONTINUOUS
 62
8
 10
5.5467401349952
 20
9.5265312926991
  0
VERTEX
  8
q_notr_gra
  6
CONTINUOUS
 62
8
 10
5.5344170300839
 20
9.5294679027547
  0
VERTEX
  8
q_notr_gra
  6
CONTINUOUS
 62
8
 10
5.5239764514512
 20
9.5236872532198
  0
VERTEX
  8
q_notr_gra
  6
CONTINUOUS
 62
8
 10
5.5148549897951
 20
9.5147921002393
  0
VERTEX
  8
q_notr_gra
  6
CONTINUOUS
 62
8
 10
5.524278289518
 20
9.5025392823438
  0
VERTEX
  8
q_notr_gra
  6
CONTINUOUS
 62
8
 10
5.5431544168979
 20
9.5052320071055
  0
SEQEND
  0
POLYLINE
  8
q_notr_gra
  6
CONTINUOUS
 62
8
 70
1
 66
1
  0
VERTEX
  8
q_notr_gra
  6
CONTINUOUS
 62
8
 10
5.6127422571143
 20
9.4189674465739
  0
VERTEX
  8
q_notr_gra
  6
CONTINUOUS
 62
8
 10
5.6265778630797
 20
9.4361325572157
  0
VERTEX
  8
q_notr_gra
  6
CONTINUOUS
 62
8
 10
5.6250712326658
 20
9.4574457892453
  0
VERTEX
  8
q_notr_gra
  6
CONTINUOUS
 62
8
 10
5.6173926328633
 20
9.472802378514
  0
VERTEX
  8
q_notr_gra
  6
CONTINUOUS
 62
8
 10
5.6244050715671
 20
9.4935482313108
  0
VERTEX
  8
q_notr_gra
  6
CONTINUOUS
 62
8
 10
5.6205264797035
 20
9.5130396047172
  0
VERTEX
  8
q_notr_gra
  6
CONTINUOUS
 62
8
 10
5.6117968768474
 20
9.5250257608838
  0
VERTEX
  8
q_notr_gra
  6
CONTINUOUS
 62
8
 10
5.6005544654239
 20
9.5229474568662
  0
VERTEX
  8
q_notr_gra
  6
CONTINUOUS
 62
8
 10
5.5835163271885
 20
9.5240822153319
  0
VERTEX
  8
q_notr_gra
  6
CONTINUOUS
 62
8
 10
5.5736763814056
 20
9.510663329787
  0
VERTEX
  8
q_notr_gra
  6
CONTINUOUS
 62
8
 10
5.5755479375618
 20
9.4970131474661
  0
VERTEX
  8
q_notr_gra
  6
CONTINUOUS
 62
8
 10
5.5714403910357
 20
9.4856993730849
  0
VERTEX
  8
q_notr_gra
  6
CONTINUOUS
 62
8
 10
5.5774630373116
 20
9.4712229910408
  0
VERTEX
  8
q_notr_gra
  6
CONTINUOUS
 62
8
 10
5.5800412996843
 20
9.4515221610267
  0
VERTEX
  8
q_notr_gra
  6
CONTINUOUS
 62
8
 10
5.5885216755045
 20
9.4500215982026
  0
VERTEX
  8
q_notr_gra
  6
CONTINUOUS
 62
8
 10
5.5883049033107
 20
9.4384573716254
  0
VERTEX
  8
q_notr_gra
  6
CONTINUOUS
 62
8
 10
5.5956656250097
 20
9.4229242033618
  0
VERTEX
  8
q_notr_gra
  6
CONTINUOUS
 62
8
 10
5.6127422571143
 20
9.4189674465739
  0
SEQEND
  0
POLYLINE
  8
q_notr_gra
  6
CONTINUOUS
 62
8
 70
1
 66
1
  0
VERTEX
  8
q_notr_gra
  6
CONTINUOUS
 62
8
 10
5.2068262677812
 20
9.7352452409146
  0
VERTEX
  8
q_notr_gra
  6
CONTINUOUS
 62
8
 10
5.1930646371204
 20
9.7655889096781
  0
VERTEX
  8
q_notr_gra
  6
CONTINUOUS
 62
8
 10
5.1745109774864
 20
9.773988192472
  0
VERTEX
  8
q_notr_gra
  6
CONTINUOUS
 62
8
 10
5.161372459493
 20
9.7672023704765
  0
VERTEX
  8
q_notr_gra
  6
CONTINUOUS
 62
8
 10
5.160174274914
 20
9.7443507089463
  0
VERTEX
  8
q_notr_gra
  6
CONTINUOUS
 62
8
 10
5.1545123870633
 20
9.7131707229484
  0
VERTEX
  8
q_notr_gra
  6
CONTINUOUS
 62
8
 10
5.1638764105708
 20
9.6838231098194
  0
VERTEX
  8
q_notr_gra
  6
CONTINUOUS
 62
8
 10
5.1766396961507
 20
9.6763497978128
  0
VERTEX
  8
q_notr_gra
  6
CONTINUOUS
 62
8
 10
5.1937519570893
 20
9.6633553502946
  0
VERTEX
  8
q_notr_gra
  6
CONTINUOUS
 62
8
 10
5.2001659640328
 20
9.680262467609
  0
VERTEX
  8
q_notr_gra
  6
CONTINUOUS
 62
8
 10
5.2036807392316
 20
9.7077781603836
  0
VERTEX
  8
q_notr_gra
  6
CONTINUOUS
 62
8
 10
5.2068262677812
 20
9.7352452409146
  0
SEQEND
  0
POLYLINE
  8
q_notr_gra
  6
CONTINUOUS
 62
8
 70
1
 66
1
  0
VERTEX
  8
q_notr_gra
  6
CONTINUOUS
 62
8
 10
6.198619552933
 20
9.796314329849
  0
VERTEX
  8
q_notr_gra
  6
CONTINUOUS
 62
8
 10
6.18860676105
 20
9.7466124410154
  0
VERTEX
  8
q_notr_gra
  6
CONTINUOUS
 62
8
 10
6.2139939032486
 20
9.7353318527318
  0
VERTEX
  8
q_notr_gra
  6
CONTINUOUS
 62
8
 10
6.2384855570412
 20
9.7735630476361
  0
VERTEX
  8
q_notr_gra
  6
CONTINUOUS
 62
8
 10
6.2661225501492
 20
9.791680606335
  0
VERTEX
  8
q_notr_gra
  6
CONTINUOUS
 62
8
 10
6.2782380647401
 20
9.8336404357748
  0
VERTEX
  8
q_notr_gra
  6
CONTINUOUS
 62
8
 10
6.2414674916323
 20
9.8438755256316
  0
VERTEX
  8
q_notr_gra
  6
CONTINUOUS
 62
8
 10
6.198619552933
 20
9.796314329849
  0
SEQEND
  0
POLYLINE
  8
q_notr_gra
  6
CONTINUOUS
 62
8
 70
1
 66
1
  0
VERTEX
  8
q_notr_gra
  6
CONTINUOUS
 62
8
 10
5.8800465481998
 20
9.5160759511121
  0
VERTEX
  8
q_notr_gra
  6
CONTINUOUS
 62
8
 10
5.8937129885352
 20
9.4798678533409
  0
VERTEX
  8
q_notr_gra
  6
CONTINUOUS
 62
8
 10
5.9228889722557
 20
9.4806888790334
  0
VERTEX
  8
q_notr_gra
  6
CONTINUOUS
 62
8
 10
5.9452834268555
 20
9.5043673190223
  0
VERTEX
  8
q_notr_gra
  6
CONTINUOUS
 62
8
 10
5.9458342367346
 20
9.5350648278659
  0
VERTEX
  8
q_notr_gra
  6
CONTINUOUS
 62
8
 10
5.9377490935747
 20
9.5668296446168
  0
VERTEX
  8
q_notr_gra
  6
CONTINUOUS
 62
8
 10
5.8983282308321
 20
9.5615957717173
  0
VERTEX
  8
q_notr_gra
  6
CONTINUOUS
 62
8
 10
5.8800465481998
 20
9.5160759511121
  0
SEQEND
  0
POLYLINE
  8
q_notr_gra
  6
CONTINUOUS
 62
8
 70
1
 66
1
  0
VERTEX
  8
q_notr_gra
  6
CONTINUOUS
 62
8
 10
5.1305285219228
 20
9.928324041232
  0
VERTEX
  8
q_notr_gra
  6
CONTINUOUS
 62
8
 10
5.1217776086958
 20
9.9160880000153
  0
VERTEX
  8
q_notr_gra
  6
CONTINUOUS
 62
8
 10
5.1283435210514
 20
9.9068358418597
  0
VERTEX
  8
q_notr_gra
  6
CONTINUOUS
 62
8
 10
5.1408323047362
 20
9.9047114889348
  0
VERTEX
  8
q_notr_gra
  6
CONTINUOUS
 62
8
 10
5.15087245672
 20
9.9111626081688
  0
VERTEX
  8
q_notr_gra
  6
CONTINUOUS
 62
8
 10
5.1593926177866
 20
9.9206352880794
  0
VERTEX
  8
q_notr_gra
  6
CONTINUOUS
 62
8
 10
5.1491881214395
 20
9.9322455584617
  0
VERTEX
  8
q_notr_gra
  6
CONTINUOUS
 62
8
 10
5.1305285219228
 20
9.928324041232
  0
SEQEND
  0
POLYLINE
  8
q_notr_gra
  6
CONTINUOUS
 62
8
 70
1
 66
1
  0
VERTEX
  8
q_notr_gra
  6
CONTINUOUS
 62
8
 10
6.5496402525037
 20
9.9246049611371
  0
VERTEX
  8
q_notr_gra
  6
CONTINUOUS
 62
8
 10
6.5489147820674
 20
9.9021988830756
  0
VERTEX
  8
q_notr_gra
  6
CONTINUOUS
 62
8
 10
6.5576114131063
 20
9.8916090317183
  0
VERTEX
  8
q_notr_gra
  6
CONTINUOUS
 62
8
 10
6.5675591847789
 20
9.8917940617932
  0
VERTEX
  8
q_notr_gra
  6
CONTINUOUS
 62
8
 10
6.5750825853309
 20
9.9052272629021
  0
VERTEX
  8
q_notr_gra
  6
CONTINUOUS
 62
8
 10
6.5877779959357
 20
9.9223578254652
  0
VERTEX
  8
q_notr_gra
  6
CONTINUOUS
 62
8
 10
6.5908607756735
 20
9.9428541656275
  0
VERTEX
  8
q_notr_gra
  6
CONTINUOUS
 62
8
 10
6.5853827712168
 20
9.9511621021071
  0
VERTEX
  8
q_notr_gra
  6
CONTINUOUS
 62
8
 10
6.5789234095728
 20
9.9640959499282
  0
VERTEX
  8
q_notr_gra
  6
CONTINUOUS
 62
8
 10
6.5700215566233
 20
9.9558021273387
  0
VERTEX
  8
q_notr_gra
  6
CONTINUOUS
 62
8
 10
6.5623766517471
 20
9.9377069508354
  0
VERTEX
  8
q_notr_gra
  6
CONTINUOUS
 62
8
 10
6.5496402525037
 20
9.9246049611371
  0
SEQEND
  0
LINE
  8
q_notr_gra
  6
CONTINUOUS
 62
8
 10
5.6624732353726
 20
9.666972854685
 11
6.6270159532176
 21
10.223851852478
  0
LINE
  8
q_notr_gra
  6
CONTINUOUS
 62
8
 10
5.7647597003865
 20
9.2578393905973
 11
6.6270159532176
 21
9.7556632702798
  0
LINE
  8
q_notr_gra
  6
CONTINUOUS
 62
8
 10
5.8397597003865
 20
9.2578393905973
 11
6.6270159532176
 21
9.7123620000906
  0
LINE
  8
q_notr_gra
  6
CONTINUOUS
 62
8
 10
5.6624732353726
 20
9.6000148532439
 11
6.6270159532176
 21
10.156893851037
  0
LINE
  8
q_notr_gra
  6
CONTINUOUS
 62
8
 10
5.6624732353726
 20
9.666972854685
 11
5.0522128036113
 21
10.179042157898
  0
LINE
  8
q_notr_gra
  6
CONTINUOUS
 62
8
 10
5.5601867703587
 20
9.2578393905973
 11
5.0522128036113
 21
9.5511182970403
  0
LINE
  8
q_notr_gra
  6
CONTINUOUS
 62
8
 10
5.4851867703587
 20
9.2578393905973
 11
5.0522128036113
 21
9.5078170268511
  0
LINE
  8
q_notr_gra
  6
CONTINUOUS
 62
8
 10
5.6624732353726
 20
9.6000148532439
 11
5.0522128036113
 21
10.112084156457
  0
LINE
  8
q_notr_gra
  6
CONTINUOUS
 62
8
 10
5.8101110306482
 20
9.2623723582374
 11
5.9577488259238
 21
9.3476110790823
  0
LINE
  8
q_notr_gra
  6
CONTINUOUS
 62
8
 10
6.1053866211993
 20
9.4328497999273
 11
6.2530244164749
 21
9.5180885207722
  0
LINE
  8
q_notr_gra
  6
CONTINUOUS
 62
8
 10
5.514835440097
 20
9.284022993332
 11
5.514835440097
 21
9.2578393905973
  0
LINE
  8
q_notr_gra
  6
CONTINUOUS
 62
8
 10
5.3671976448214
 20
9.369261714177
 11
5.3671976448214
 21
9.3259604439877
  0
LINE
  8
q_notr_gra
  6
CONTINUOUS
 62
8
 10
5.2195598495458
 20
9.4545004350219
 11
5.2195598495458
 21
9.4111991648327
  0
LINE
  8
q_notr_gra
  6
CONTINUOUS
 62
8
 10
5.514835440097
 20
9.2623723582374
 11
5.3671976448214
 21
9.3476110790823
  0
LINE
  8
q_notr_gra
  6
CONTINUOUS
 62
8
 10
5.2195598495458
 20
9.4328497999273
 11
5.0719220542702
 21
9.5180885207722
  0
LINE
  8
q_notr_gra
  6
CONTINUOUS
 62
8
 10
5.0522128036113
 20
9.2578393905973
 11
5.0522128036113
 21
10.832642540204
  0
LINE
  8
q_notr_gra
  6
CONTINUOUS
 62
8
 10
5.0522128036113
 20
10.832642540204
 11
6.6270159532176
 21
10.832642540204
  0
LINE
  8
q_notr_gra
  6
CONTINUOUS
 62
8
 10
6.6270159532176
 20
10.832642540204
 11
6.6270159532176
 21
9.2578393905973
  0
LINE
  8
q_notr_gra
  6
CONTINUOUS
 62
8
 10
6.6270159532176
 20
9.2578393905973
 11
5.0522128036113
 21
9.2578393905973
  0
LINE
  8
q_notr_gra
  6
CONTINUOUS
 62
8
 10
5.0719220542702
 20
9.5397391558668
 11
5.0719220542702
 21
9.4964378856776
  0
LINE
  8
q_notr_gra
  6
CONTINUOUS
 62
8
 10
6.4006622117505
 20
9.6033272416171
 11
6.5483000070261
 21
9.688565962462
  0
LINE
  8
q_notr_gra
  6
CONTINUOUS
 62
8
 10
5.8101110306482
 20
9.284022993332
 11
5.8101110306482
 21
9.2578393905973
  0
LINE
  8
q_notr_gra
  6
CONTINUOUS
 62
8
 10
5.9577488259238
 20
9.369261714177
 11
5.9577488259238
 21
9.3259604439877
  0
LINE
  8
q_notr_gra
  6
CONTINUOUS
 62
8
 10
6.1053866211993
 20
9.4545004350219
 11
6.1053866211993
 21
9.4111991648327
  0
LINE
  8
q_notr_gra
  6
CONTINUOUS
 62
8
 10
6.2530244164749
 20
9.5397391558668
 11
6.2530244164749
 21
9.4964378856776
  0
LINE
  8
q_notr_gra
  6
CONTINUOUS
 62
8
 10
6.4006622117505
 20
9.6249778767117
 11
6.4006622117505
 21
9.5816766065225
  0
LINE
  8
q_notr_gra
  6
CONTINUOUS
 62
8
 10
6.5483000070261
 20
9.7102165975567
 11
6.5483000070261
 21
9.6669153273674
  0
LINE
  8
q_notr_gra
  6
CONTINUOUS
 62
8
 10
5.6624732353726
 20
9.6886234897796
 11
5.8101110306482
 21
9.7738622106246
  0
LINE
  8
q_notr_gra
  6
CONTINUOUS
 62
8
 10
6.5876579801218
 20
10.222779151211
 11
6.6270159532176
 21
10.245502487572
  0
LINE
  8
q_notr_gra
  6
CONTINUOUS
 62
8
 10
5.8101110306482
 20
9.7955128457192
 11
5.8101110306482
 21
9.7522115755299
  0
LINE
  8
q_notr_gra
  6
CONTINUOUS
 62
8
 10
5.9577488259238
 20
9.8807515665641
 11
5.9577488259238
 21
9.8374502963749
  0
LINE
  8
q_notr_gra
  6
CONTINUOUS
 62
8
 10
6.1053866211993
 20
9.965990287409
 11
6.1053866211993
 21
9.9226890172198
  0
LINE
  8
q_notr_gra
  6
CONTINUOUS
 62
8
 10
6.2530244164749
 20
10.051229008254
 11
6.2530244164749
 21
10.007927738065
  0
LINE
  8
q_notr_gra
  6
CONTINUOUS
 62
8
 10
6.4006622117505
 20
10.136467729099
 11
6.4006622117505
 21
10.09316645891
  0
LINE
  8
q_notr_gra
  6
CONTINUOUS
 62
8
 10
6.5876579801218
 20
10.244429786305
 11
6.5876579801218
 21
10.201128516116
  0
LINE
  8
q_notr_gra
  6
CONTINUOUS
 62
8
 10
5.5318799384889
 20
9.8198549121235
 11
5.5318799384889
 21
9.7765536419343
  0
LINE
  8
q_notr_gra
  6
CONTINUOUS
 62
8
 10
5.6624732353726
 20
9.6886234897796
 11
5.5318799384889
 21
9.7982042770289
  0
LINE
  8
q_notr_gra
  6
CONTINUOUS
 62
8
 10
5.4012866416053
 20
9.9294356993728
 11
5.4012866416053
 21
9.8861344291836
  0
LINE
  8
q_notr_gra
  6
CONTINUOUS
 62
8
 10
5.2706933447216
 20
10.039016486622
 11
5.2706933447216
 21
9.9957152164329
  0
LINE
  8
q_notr_gra
  6
CONTINUOUS
 62
8
 10
5.4012866416053
 20
9.9077850642782
 11
5.2706933447216
 21
10.017365851528
  0
LINE
  8
q_notr_gra
  6
CONTINUOUS
 62
8
 10
5.140100047838
 20
10.126946638777
 11
5.0522128036113
 21
10.200692792993
  0
LINE
  8
q_notr_gra
  6
CONTINUOUS
 62
8
 10
5.140100047838
 20
10.148597273871
 11
5.140100047838
 21
10.105296003682
  0
CIRCLE
  8
q_notr_gra
  6
CONTINUOUS
 62
8
 10
5.5346452935456
 20
9.379586274874
 40
0.0059055118110236
  0
LINE
  8
q_notr_gra
  6
HIDDEN
 62
8
 10
5.6624732353726
 20
9.666972854685
 11
5.6624732353726
 21
9.2578393905973
  0
CIRCLE
  8
q_notr_gra
  6
CONTINUOUS
 62
8
 10
6.2569245403144
 20
9.7212933893466
 40
0.0059055118110236
  0
CIRCLE
  8
q_notr_gra
  6
CONTINUOUS
 62
8
 10
5.7367150254691
 20
9.5688599036012
 40
0.0059055118110236
  0
CIRCLE
  8
q_notr_gra
  6
CONTINUOUS
 62
8
 10
5.9423792522684
 20
9.440622209244
 40
0.0059055118110236
  0
CIRCLE
  8
q_notr_gra
  6
CONTINUOUS
 62
8
 10
5.8794701946592
 20
9.440622209244
 40
0.0059055118110236
  0
CIRCLE
  8
q_notr_gra
  6
CONTINUOUS
 62
8
 10
6.5593719326664
 20
9.9898666737551
 40
0.0059055118110236
  0
LINE
  8
q_notr_gra
  6
CONTINUOUS
 62
8
 10
6.4514695196528
 20
10.209102612182
 11
5.7083635703074
 21
10.832642540204
  0
LINE
  8
q_notr_gra
  6
CONTINUOUS
 62
8
 10
6.2530244164749
 20
10.094530278443
 11
5.373376476784
 21
10.832642540204
  0
LINE
  8
q_notr_gra
  6
CONTINUOUS
 62
8
 10
6.4514695196528
 20
10.122500071804
 11
6.4514695196528
 21
10.165801341993
  0
LINE
  8
q_notr_gra
  6
CONTINUOUS
 62
8
 10
6.2530244164749
 20
10.094530278443
 11
6.4514695196528
 21
10.209102612182
  0
LINE
  8
q_notr_gra
  6
CONTINUOUS
 62
8
 10
5.6624732353726
 20
9.7102741248742
 11
6.4514695196528
 21
10.165801341993
  0
LINE
  8
q_notr_gra
  6
CONTINUOUS
 62
8
 10
6.2530244164749
 20
10.051229008254
 11
5.3217720324721
 21
10.832642540204
  0
LINE
  8
q_notr_gra
  6
CONTINUOUS
 62
8
 10
5.6624732353726
 20
9.7102741248742
 11
5.0522128036113
 21
10.222343428087
  0
LINE
  8
q_notr_gra
  6
CONTINUOUS
 62
8
 10
5.6624732353726
 20
9.7102741248742
 11
5.6624732353726
 21
9.666972854685
  0
LINE
  8
q_notr_gra
  6
CONTINUOUS
 62
8
 10
6.5089228528868
 20
10.198972039402
 11
6.6270159532176
 21
10.267153122667
  0
LINE
  8
q_notr_gra
  6
CONTINUOUS
 62
8
 10
6.5089228528868
 20
10.198972039402
 11
5.7537437570348
 21
10.832642540204
  0
LINE
  8
q_notr_gra
  6
CONTINUOUS
 62
8
 10
6.5089228528868
 20
10.155670769212
 11
6.4514695196528
 21
10.165801341993
  0
LINE
  8
q_notr_gra
  6
CONTINUOUS
 62
8
 10
6.2209296342271
 20
10.12146099839
 11
6.419374737405
 21
10.236033332129
  0
LINE
  8
q_notr_gra
  6
CONTINUOUS
 62
8
 10
6.1888348519792
 20
10.148391718337
 11
6.3872799551571
 21
10.262964052076
  0
LINE
  8
q_notr_gra
  6
CONTINUOUS
 62
8
 10
6.1567400697313
 20
10.175322438284
 11
6.3551851729092
 21
10.289894772023
  0
LINE
  8
q_notr_gra
  6
CONTINUOUS
 62
8
 10
6.1246452874835
 20
10.202253158231
 11
6.3230903906614
 21
10.31682549197
  0
LINE
  8
q_notr_gra
  6
CONTINUOUS
 62
8
 10
6.0925505052356
 20
10.229183878178
 11
6.2909956084135
 21
10.343756211917
  0
LINE
  8
q_notr_gra
  6
CONTINUOUS
 62
8
 10
5.9320765939962
 20
10.363837477912
 11
6.1305216971741
 21
10.478409811651
  0
LINE
  8
q_notr_gra
  6
CONTINUOUS
 62
8
 10
5.9641713762441
 20
10.336906757965
 11
6.162616479422
 21
10.451479091704
  0
LINE
  8
q_notr_gra
  6
CONTINUOUS
 62
8
 10
5.996266158492
 20
10.309976038018
 11
6.1947112616699
 21
10.424548371758
  0
LINE
  8
q_notr_gra
  6
CONTINUOUS
 62
8
 10
6.0283609407398
 20
10.283045318071
 11
6.2268060439177
 21
10.397617651811
  0
LINE
  8
q_notr_gra
  6
CONTINUOUS
 62
8
 10
6.0604557229877
 20
10.256114598125
 11
6.2589008261656
 21
10.370686931864
  0
LINE
  8
q_notr_gra
  6
CONTINUOUS
 62
8
 10
5.7716026827569
 20
10.498491077647
 11
5.9700477859348
 21
10.613063411386
  0
LINE
  8
q_notr_gra
  6
CONTINUOUS
 62
8
 10
5.8036974650048
 20
10.4715603577
 11
6.0021425681827
 21
10.586132691439
  0
LINE
  8
q_notr_gra
  6
CONTINUOUS
 62
8
 10
5.8357922472526
 20
10.444629637753
 11
6.0342373504305
 21
10.559201971492
  0
LINE
  8
q_notr_gra
  6
CONTINUOUS
 62
8
 10
5.8678870295005
 20
10.417698917806
 11
6.0663321326784
 21
10.532271251545
  0
LINE
  8
q_notr_gra
  6
CONTINUOUS
 62
8
 10
5.8999818117484
 20
10.390768197859
 11
6.0984269149263
 21
10.505340531598
  0
LINE
  8
q_notr_gra
  6
CONTINUOUS
 62
8
 10
5.6111287715175
 20
10.633144677381
 11
5.8095738746954
 21
10.74771701112
  0
LINE
  8
q_notr_gra
  6
CONTINUOUS
 62
8
 10
5.6432235537654
 20
10.606213957434
 11
5.8416686569433
 21
10.720786291173
  0
LINE
  8
q_notr_gra
  6
CONTINUOUS
 62
8
 10
5.6753183360133
 20
10.579283237487
 11
5.8737634391912
 21
10.693855571227
  0
LINE
  8
q_notr_gra
  6
CONTINUOUS
 62
8
 10
5.7074131182611
 20
10.552352517541
 11
5.905858221439
 21
10.66692485128
  0
LINE
  8
q_notr_gra
  6
CONTINUOUS
 62
8
 10
5.739507900509
 20
10.525421797594
 11
5.9379530036869
 21
10.639994131333
  0
LINE
  8
q_notr_gra
  6
CONTINUOUS
 62
8
 10
5.4506548602782
 20
10.767798277116
 11
5.5629684185258
 21
10.832642540204
  0
LINE
  8
q_notr_gra
  6
CONTINUOUS
 62
8
 10
5.4827496425261
 20
10.740867557169
 11
5.6417085760061
 21
10.832642540204
  0
LINE
  8
q_notr_gra
  6
CONTINUOUS
 62
8
 10
5.5148444247739
 20
10.713936837222
 11
5.7132895279518
 21
10.828509170961
  0
LINE
  8
q_notr_gra
  6
CONTINUOUS
 62
8
 10
5.5469392070218
 20
10.687006117275
 11
5.7453843101997
 21
10.801578451014
  0
LINE
  8
q_notr_gra
  6
CONTINUOUS
 62
8
 10
5.5790339892697
 20
10.660075397328
 11
5.7774790924476
 21
10.774647731067
  0
LINE
  8
q_notr_gra
  6
CONTINUOUS
 62
8
 10
6.444733288391
 20
10.252833479295
 11
6.6270159532176
 21
10.358074424902
  0
LINE
  8
q_notr_gra
  6
CONTINUOUS
 62
8
 10
6.4768280706389
 20
10.225902759348
 11
6.6270159532176
 21
10.312613773784
  0
LINE
  8
q_notr_gra
  6
CONTINUOUS
 62
8
 10
5.3864652957824
 20
10.82165971701
 11
5.4054881035652
 21
10.832642540204
  0
LINE
  8
q_notr_gra
  6
CONTINUOUS
 62
8
 10
5.4185600780303
 20
10.794728997063
 11
5.4842282610455
 21
10.832642540204
  0
LINE
  8
q_notr_gra
  6
CONTINUOUS
 62
8
 10
6.4126385061431
 20
10.279764199242
 11
6.6270159532176
 21
10.403535076019
  0
LINE
  8
q_notr_gra
  6
CONTINUOUS
 62
8
 10
6.3805437238953
 20
10.306694919189
 11
6.6270159532176
 21
10.448995727136
  0
LINE
  8
q_notr_gra
  6
CONTINUOUS
 62
8
 10
6.3484489416474
 20
10.333625639136
 11
6.6270159532176
 21
10.494456378253
  0
LINE
  8
q_notr_gra
  6
CONTINUOUS
 62
8
 10
6.3163541593995
 20
10.360556359083
 11
6.6270159532176
 21
10.539917029371
  0
LINE
  8
q_notr_gra
  6
CONTINUOUS
 62
8
 10
6.2842593771517
 20
10.38748707903
 11
6.6270159532176
 21
10.585377680488
  0
LINE
  8
q_notr_gra
  6
CONTINUOUS
 62
8
 10
6.2521645949038
 20
10.414417798977
 11
6.6270159532176
 21
10.630838331605
  0
LINE
  8
q_notr_gra
  6
CONTINUOUS
 62
8
 10
5.9954063369208
 20
10.629863558552
 11
6.3466298358487
 21
10.832642540204
  0
LINE
  8
q_notr_gra
  6
CONTINUOUS
 62
8
 10
6.0275011191687
 20
10.602932838605
 11
6.425369993329
 21
10.832642540204
  0
LINE
  8
q_notr_gra
  6
CONTINUOUS
 62
8
 10
6.0595959014166
 20
10.576002118658
 11
6.5041101508093
 21
10.832642540204
  0
LINE
  8
q_notr_gra
  6
CONTINUOUS
 62
8
 10
6.0916906836644
 20
10.549071398711
 11
6.5828503082896
 21
10.832642540204
  0
LINE
  8
q_notr_gra
  6
CONTINUOUS
 62
8
 10
6.1237854659123
 20
10.522140678764
 11
6.6270159532176
 21
10.812680936074
  0
LINE
  8
q_notr_gra
  6
CONTINUOUS
 62
8
 10
6.1558802481602
 20
10.495209958817
 11
6.6270159532176
 21
10.767220284957
  0
LINE
  8
q_notr_gra
  6
CONTINUOUS
 62
8
 10
6.1879750304081
 20
10.468279238871
 11
6.6270159532176
 21
10.72175963384
  0
LINE
  8
q_notr_gra
  6
CONTINUOUS
 62
8
 10
6.2200698126559
 20
10.441348518924
 11
6.6270159532176
 21
10.676298982723
  0
LINE
  8
q_notr_gra
  6
CONTINUOUS
 62
8
 10
5.7707428611857
 20
10.81837859818
 11
5.7954487334864
 21
10.832642540204
  0
LINE
  8
q_notr_gra
  6
CONTINUOUS
 62
8
 10
5.8028376434336
 20
10.791447878233
 11
5.8741888909668
 21
10.832642540204
  0
LINE
  8
q_notr_gra
  6
CONTINUOUS
 62
8
 10
5.8349324256815
 20
10.764517158286
 11
5.9529290484471
 21
10.832642540204
  0
LINE
  8
q_notr_gra
  6
CONTINUOUS
 62
8
 10
5.8670272079293
 20
10.73758643834
 11
6.0316692059274
 21
10.832642540204
  0
LINE
  8
q_notr_gra
  6
CONTINUOUS
 62
8
 10
5.8991219901772
 20
10.710655718393
 11
6.1104093634077
 21
10.832642540204
  0
LINE
  8
q_notr_gra
  6
CONTINUOUS
 62
8
 10
5.9312167724251
 20
10.683724998446
 11
6.189149520888
 21
10.832642540204
  0
LINE
  8
q_notr_gra
  6
CONTINUOUS
 62
8
 10
5.963311554673
 20
10.656794278499
 11
6.2678896783683
 21
10.832642540204
  0
LINE
  8
q_notr_gra
  6
CONTINUOUS
 62
8
 10
5.4057149773896
 20
9.9257198844495
 11
5.996266158492
 21
10.266674767829
  0
LINE
  8
q_notr_gra
  6
CONTINUOUS
 62
8
 10
5.4378097596375
 20
9.8987891645026
 11
6.0283609407399
 21
10.239744047882
  0
LINE
  8
q_notr_gra
  6
CONTINUOUS
 62
8
 10
5.4699045418853
 20
9.8718584445557
 11
6.0604557229877
 21
10.212813327935
  0
LINE
  8
q_notr_gra
  6
CONTINUOUS
 62
8
 10
5.5019993241332
 20
9.8449277246088
 11
6.0925505052356
 21
10.185882607988
  0
LINE
  8
q_notr_gra
  6
CONTINUOUS
 62
8
 10
5.5340941063811
 20
9.8179970046618
 11
6.1246452874835
 21
10.158951888042
  0
LINE
  8
q_notr_gra
  6
CONTINUOUS
 62
8
 10
5.566188888629
 20
9.7910662847149
 11
6.1567400697313
 21
10.132021168095
  0
LINE
  8
q_notr_gra
  6
CONTINUOUS
 62
8
 10
5.5982836708768
 20
9.764135564768
 11
6.1888348519792
 21
10.105090448148
  0
LINE
  8
q_notr_gra
  6
CONTINUOUS
 62
8
 10
5.6303784531247
 20
9.7372048448211
 11
6.2209296342271
 21
10.078159728201
  0
LINE
  8
q_notr_gra
  6
CONTINUOUS
 62
8
 10
5.1489567194066
 20
10.141165644025
 11
5.739507900509
 21
10.482120527404
  0
LINE
  8
q_notr_gra
  6
CONTINUOUS
 62
8
 10
5.1810515016545
 20
10.114234924078
 11
5.7716026827569
 21
10.455189807457
  0
LINE
  8
q_notr_gra
  6
CONTINUOUS
 62
8
 10
5.2131462839024
 20
10.087304204131
 11
5.8036974650048
 21
10.428259087511
  0
LINE
  8
q_notr_gra
  6
CONTINUOUS
 62
8
 10
5.2452410661503
 20
10.060373484184
 11
5.8357922472526
 21
10.401328367564
  0
LINE
  8
q_notr_gra
  6
CONTINUOUS
 62
8
 10
5.2773358483981
 20
10.033442764237
 11
5.8678870295005
 21
10.374397647617
  0
LINE
  8
q_notr_gra
  6
CONTINUOUS
 62
8
 10
5.309430630646
 20
10.00651204429
 11
5.8999818117484
 21
10.34746692767
  0
LINE
  8
q_notr_gra
  6
CONTINUOUS
 62
8
 10
5.3415254128939
 20
9.9795813243433
 11
5.9320765939962
 21
10.320536207723
  0
LINE
  8
q_notr_gra
  6
CONTINUOUS
 62
8
 10
5.3736201951417
 20
9.9526506043964
 11
5.9641713762441
 21
10.293605487776
  0
LINE
  8
q_notr_gra
  6
CONTINUOUS
 62
8
 10
5.0522128036113
 20
10.448995727136
 11
5.4827496425261
 21
10.69756628698
  0
LINE
  8
q_notr_gra
  6
CONTINUOUS
 62
8
 10
5.0522128036113
 20
10.403535076019
 11
5.5148444247739
 21
10.670635567033
  0
LINE
  8
q_notr_gra
  6
CONTINUOUS
 62
8
 10
5.0522128036113
 20
10.358074424902
 11
5.5469392070218
 21
10.643704847086
  0
LINE
  8
q_notr_gra
  6
CONTINUOUS
 62
8
 10
5.0522128036113
 20
10.312613773784
 11
5.5790339892697
 21
10.616774127139
  0
LINE
  8
q_notr_gra
  6
CONTINUOUS
 62
8
 10
5.0522128036113
 20
10.267153122667
 11
5.6111287715175
 21
10.589843407192
  0
LINE
  8
q_notr_gra
  6
CONTINUOUS
 62
8
 10
5.052672372663
 20
10.221957803865
 11
5.6432235537654
 21
10.562912687245
  0
LINE
  8
q_notr_gra
  6
CONTINUOUS
 62
8
 10
5.0847671549109
 20
10.195027083918
 11
5.6753183360133
 21
10.535981967298
  0
LINE
  8
q_notr_gra
  6
CONTINUOUS
 62
8
 10
5.1168619371588
 20
10.168096363972
 11
5.7074131182612
 21
10.509051247351
  0
LINE
  8
q_notr_gra
  6
CONTINUOUS
 62
8
 10
5.0522128036113
 20
10.812680936074
 11
5.0867873161636
 21
10.832642540204
  0
LINE
  8
q_notr_gra
  6
CONTINUOUS
 62
8
 10
5.0522128036113
 20
10.767220284957
 11
5.165527473644
 21
10.832642540204
  0
LINE
  8
q_notr_gra
  6
CONTINUOUS
 62
8
 10
5.0522128036113
 20
10.72175963384
 11
5.2442676311243
 21
10.832642540204
  0
LINE
  8
q_notr_gra
  6
CONTINUOUS
 62
8
 10
5.0522128036113
 20
10.676298982723
 11
5.3230077886046
 21
10.832642540204
  0
LINE
  8
q_notr_gra
  6
CONTINUOUS
 62
8
 10
5.0522128036113
 20
10.630838331605
 11
5.3543705135346
 21
10.805289166767
  0
LINE
  8
q_notr_gra
  6
CONTINUOUS
 62
8
 10
5.0522128036113
 20
10.585377680488
 11
5.3864652957825
 21
10.77835844682
  0
LINE
  8
q_notr_gra
  6
CONTINUOUS
 62
8
 10
5.0522128036113
 20
10.539917029371
 11
5.4185600780303
 21
10.751427726873
  0
LINE
  8
q_notr_gra
  6
CONTINUOUS
 62
8
 10
5.0522128036113
 20
10.494456378253
 11
5.4506548602782
 21
10.724497006927
  0
LINE
  8
q_notr_gra
  6
CONTINUOUS
 62
8
 10
5.4012866416053
 20
9.9129244630551
 11
5.2706933447216
 21
10.022505250304
  0
LINE
  8
q_notr_gra
  6
CONTINUOUS
 62
8
 10
5.4012866416053
 20
9.918063861832
 11
5.2706933447216
 21
10.027644649081
  0
LINE
  8
q_notr_gra
  6
CONTINUOUS
 62
8
 10
5.4012866416053
 20
9.9232032606089
 11
5.2706933447216
 21
10.032784047858
  0
LINE
  8
q_notr_gra
  6
CONTINUOUS
 62
8
 10
5.4012866416053
 20
9.9026456655013
 11
5.2706933447216
 21
10.012226452751
  0
LINE
  8
q_notr_gra
  6
CONTINUOUS
 62
8
 10
5.4012866416053
 20
9.8975062667244
 11
5.2706933447216
 21
10.007087053974
  0
LINE
  8
q_notr_gra
  6
CONTINUOUS
 62
8
 10
5.4012866416053
 20
9.8923668679475
 11
5.2706933447216
 21
10.001947655197
  0
LINE
  8
q_notr_gra
  6
CONTINUOUS
 62
8
 10
5.6624732353726
 20
9.6989022873334
 11
5.5318799384889
 21
9.8084830745827
  0
LINE
  8
q_notr_gra
  6
CONTINUOUS
 62
8
 10
5.6624732353726
 20
9.7040416861103
 11
5.5318799384889
 21
9.8136224733596
  0
LINE
  8
q_notr_gra
  6
CONTINUOUS
 62
8
 10
5.6624732353726
 20
9.6783446922258
 11
5.5318799384889
 21
9.7879254794751
  0
LINE
  8
q_notr_gra
  6
CONTINUOUS
 62
8
 10
5.6624732353726
 20
9.6732052934489
 11
5.5318799384889
 21
9.7827860806982
  0
LINE
  8
q_notr_gra
  6
CONTINUOUS
 62
8
 10
5.6624732353726
 20
9.6834840910027
 11
5.5318799384889
 21
9.793064878252
  0
LINE
  8
q_notr_gra
  6
CONTINUOUS
 62
8
 10
5.6624732353726
 20
9.6937628885565
 11
5.5318799384889
 21
9.8033436758058
  0
LINE
  8
q_notr_gra
  6
CONTINUOUS
 62
8
 10
5.140100047838
 20
10.137225436331
 11
5.0522128036113
 21
10.210971590546
  0
LINE
  8
q_notr_gra
  6
CONTINUOUS
 62
8
 10
5.140100047838
 20
10.142364835108
 11
5.0522128036113
 21
10.216110989323
  0
LINE
  8
q_notr_gra
  6
CONTINUOUS
 62
8
 10
5.140100047838
 20
10.116667841223
 11
5.0522128036113
 21
10.190413995439
  0
LINE
  8
q_notr_gra
  6
CONTINUOUS
 62
8
 10
5.140100047838
 20
10.111528442446
 11
5.0522128036113
 21
10.185274596662
  0
LINE
  8
q_notr_gra
  6
CONTINUOUS
 62
8
 10
5.140100047838
 20
10.12180724
 11
5.0522128036113
 21
10.195553394216
  0
LINE
  8
q_notr_gra
  6
CONTINUOUS
 62
8
 10
5.140100047838
 20
10.132086037554
 11
5.0522128036113
 21
10.20583219177
  0
LINE
  8
q_notr_gra
  6
CONTINUOUS
 62
8
 10
5.6624732353726
 20
9.6989022873334
 11
5.8101110306482
 21
9.7841410081784
  0
LINE
  8
q_notr_gra
  6
CONTINUOUS
 62
8
 10
5.6624732353726
 20
9.7040416861103
 11
5.8101110306482
 21
9.7892804069553
  0
LINE
  8
q_notr_gra
  6
CONTINUOUS
 62
8
 10
5.6624732353726
 20
9.6783446922258
 11
5.8101110306482
 21
9.7635834130708
  0
LINE
  8
q_notr_gra
  6
CONTINUOUS
 62
8
 10
5.6624732353726
 20
9.6732052934489
 11
5.8101110306482
 21
9.7584440142939
  0
LINE
  8
q_notr_gra
  6
CONTINUOUS
 62
8
 10
5.6624732353726
 20
9.6834840910027
 11
5.8101110306482
 21
9.7687228118477
  0
LINE
  8
q_notr_gra
  6
CONTINUOUS
 62
8
 10
5.6624732353726
 20
9.6937628885565
 11
5.8101110306482
 21
9.7790016094015
  0
LINE
  8
q_notr_gra
  6
CONTINUOUS
 62
8
 10
5.9577488259238
 20
9.8591009314695
 11
6.1053866211993
 21
9.9443396523144
  0
LINE
  8
q_notr_gra
  6
CONTINUOUS
 62
8
 10
5.9577488259238
 20
9.8693797290233
 11
6.1053866211993
 21
9.9546184498682
  0
LINE
  8
q_notr_gra
  6
CONTINUOUS
 62
8
 10
5.9577488259238
 20
9.8745191278002
 11
6.1053866211993
 21
9.9597578486451
  0
LINE
  8
q_notr_gra
  6
CONTINUOUS
 62
8
 10
5.9577488259238
 20
9.8488221339157
 11
6.1053866211993
 21
9.9340608547606
  0
LINE
  8
q_notr_gra
  6
CONTINUOUS
 62
8
 10
5.9577488259238
 20
9.8436827351388
 11
6.1053866211993
 21
9.9289214559837
  0
LINE
  8
q_notr_gra
  6
CONTINUOUS
 62
8
 10
5.9577488259238
 20
9.8539615326926
 11
6.1053866211993
 21
9.9392002535375
  0
LINE
  8
q_notr_gra
  6
CONTINUOUS
 62
8
 10
5.9577488259238
 20
9.8642403302464
 11
6.1053866211993
 21
9.9494790510913
  0
LINE
  8
q_notr_gra
  6
CONTINUOUS
 62
8
 10
6.2530244164749
 20
10.029578373159
 11
6.4006622117505
 21
10.114817094004
  0
LINE
  8
q_notr_gra
  6
CONTINUOUS
 62
8
 10
6.2530244164749
 20
10.039857170713
 11
6.4006622117505
 21
10.125095891558
  0
LINE
  8
q_notr_gra
  6
CONTINUOUS
 62
8
 10
6.2530244164749
 20
10.04499656949
 11
6.4006622117505
 21
10.130235290335
  0
LINE
  8
q_notr_gra
  6
CONTINUOUS
 62
8
 10
6.2530244164749
 20
10.019299575606
 11
6.4006622117505
 21
10.10453829645
  0
LINE
  8
q_notr_gra
  6
CONTINUOUS
 62
8
 10
6.2530244164749
 20
10.014160176829
 11
6.4006622117505
 21
10.099398897674
  0
LINE
  8
q_notr_gra
  6
CONTINUOUS
 62
8
 10
6.2530244164749
 20
10.024438974382
 11
6.4006622117505
 21
10.109677695227
  0
LINE
  8
q_notr_gra
  6
CONTINUOUS
 62
8
 10
6.2530244164749
 20
10.034717771936
 11
6.4006622117505
 21
10.119956492781
  0
LINE
  8
q_notr_gra
  6
CONTINUOUS
 62
8
 10
6.5876579801218
 20
10.233057948765
 11
6.6270159532176
 21
10.255781285126
  0
LINE
  8
q_notr_gra
  6
CONTINUOUS
 62
8
 10
6.5876579801218
 20
10.238197347541
 11
6.6270159532176
 21
10.260920683903
  0
LINE
  8
q_notr_gra
  6
CONTINUOUS
 62
8
 10
6.5876579801218
 20
10.212500353657
 11
6.6270159532176
 21
10.235223690019
  0
LINE
  8
q_notr_gra
  6
CONTINUOUS
 62
8
 10
6.5876579801218
 20
10.20736095488
 11
6.6270159532176
 21
10.230084291242
  0
LINE
  8
q_notr_gra
  6
CONTINUOUS
 62
8
 10
6.5876579801218
 20
10.217639752434
 11
6.6270159532176
 21
10.240363088795
  0
LINE
  8
q_notr_gra
  6
CONTINUOUS
 62
8
 10
6.5876579801218
 20
10.227918549988
 11
6.6270159532176
 21
10.250641886349
  0
LINE
  8
q_notr_gra
  6
CONTINUOUS
 62
8
 10
6.3268433141127
 20
10.115499003771
 11
6.4514695196528
 21
10.187451977088
  0
LINE
  8
q_notr_gra
  6
CONTINUOUS
 62
8
 10
6.3268433141127
 20
10.137149638866
 11
6.3268433141127
 21
10.093848368676
  0
LINE
  8
q_notr_gra
  6
CONTINUOUS
 62
8
 10
6.3268433141127
 20
10.125777801325
 11
6.4514695196528
 21
10.197730774641
  0
LINE
  8
q_notr_gra
  6
CONTINUOUS
 62
8
 10
6.3268433141127
 20
10.130917200102
 11
6.4514695196528
 21
10.202870173418
  0
LINE
  8
q_notr_gra
  6
CONTINUOUS
 62
8
 10
6.3268433141127
 20
10.105220206217
 11
6.4514695196528
 21
10.177173179534
  0
LINE
  8
q_notr_gra
  6
CONTINUOUS
 62
8
 10
6.3268433141127
 20
10.10008080744
 11
6.4514695196528
 21
10.172033780757
  0
LINE
  8
q_notr_gra
  6
CONTINUOUS
 62
8
 10
6.3268433141127
 20
10.110359604994
 11
6.4514695196528
 21
10.182312578311
  0
LINE
  8
q_notr_gra
  6
CONTINUOUS
 62
8
 10
6.3268433141127
 20
10.120638402548
 11
6.4514695196528
 21
10.192591375865
  0
LINE
  8
q_notr_gra
  6
CONTINUOUS
 62
8
 10
6.2530244164749
 20
10.094530278443
 11
6.2530244164749
 21
10.051229008254
  0
LINE
  8
q_notr_gra
  6
CONTINUOUS
 62
8
 10
6.5089228528868
 20
10.198972039402
 11
6.4514695196528
 21
10.209102612182
  0
LINE
  8
q_notr_gra
  6
CONTINUOUS
 62
8
 10
6.4937987228472
 20
10.158337561398
 11
6.4937987228472
 21
10.201638831587
  0
LINE
  8
q_notr_gra
  6
CONTINUOUS
 62
8
 10
6.4937987228472
 20
10.164570000162
 11
6.4514695196528
 21
10.172033780757
  0
LINE
  8
q_notr_gra
  6
CONTINUOUS
 62
8
 10
6.4937987228472
 20
10.169709398939
 11
6.4514695196528
 21
10.177173179534
  0
LINE
  8
q_notr_gra
  6
CONTINUOUS
 62
8
 10
6.4937987228472
 20
10.174848797716
 11
6.4514695196528
 21
10.182312578311
  0
LINE
  8
q_notr_gra
  6
CONTINUOUS
 62
8
 10
6.4937987228472
 20
10.179988196493
 11
6.4514695196528
 21
10.187451977088
  0
LINE
  8
q_notr_gra
  6
CONTINUOUS
 62
8
 10
6.4937987228472
 20
10.18512759527
 11
6.4514695196528
 21
10.192591375865
  0
LINE
  8
q_notr_gra
  6
CONTINUOUS
 62
8
 10
6.4937987228472
 20
10.190266994046
 11
6.4514695196528
 21
10.197730774641
  0
LINE
  8
q_notr_gra
  6
CONTINUOUS
 62
8
 10
6.4937987228472
 20
10.195406392823
 11
6.4514695196528
 21
10.202870173418
  0
LINE
  8
q_notr_gra
  6
CONTINUOUS
 62
8
 10
6.4768280706389
 20
10.225902759348
 11
6.419374737405
 21
10.236033332129
  0
LINE
  8
q_notr_gra
  6
CONTINUOUS
 62
8
 10
6.444733288391
 20
10.252833479295
 11
6.3872799551571
 21
10.262964052076
  0
LINE
  8
q_notr_gra
  6
CONTINUOUS
 62
8
 10
6.4126385061431
 20
10.279764199242
 11
6.3551851729092
 21
10.289894772023
  0
LINE
  8
q_notr_gra
  6
CONTINUOUS
 62
8
 10
6.3805437238953
 20
10.306694919189
 11
6.3230903906614
 21
10.31682549197
  0
LINE
  8
q_notr_gra
  6
CONTINUOUS
 62
8
 10
6.3484489416474
 20
10.333625639136
 11
6.2909956084135
 21
10.343756211917
  0
LINE
  8
q_notr_gra
  6
CONTINUOUS
 62
8
 10
6.3163541593995
 20
10.360556359083
 11
6.2589008261656
 21
10.370686931864
  0
LINE
  8
q_notr_gra
  6
CONTINUOUS
 62
8
 10
6.2842593771517
 20
10.38748707903
 11
6.2268060439177
 21
10.397617651811
  0
LINE
  8
q_notr_gra
  6
CONTINUOUS
 62
8
 10
6.2521645949038
 20
10.414417798977
 11
6.1947112616699
 21
10.424548371758
  0
LINE
  8
q_notr_gra
  6
CONTINUOUS
 62
8
 10
6.2200698126559
 20
10.441348518924
 11
6.162616479422
 21
10.451479091704
  0
LINE
  8
q_notr_gra
  6
CONTINUOUS
 62
8
 10
6.1879750304081
 20
10.468279238871
 11
6.1305216971741
 21
10.478409811651
  0
LINE
  8
q_notr_gra
  6
CONTINUOUS
 62
8
 10
6.1558802481602
 20
10.495209958817
 11
6.0984269149263
 21
10.505340531598
  0
LINE
  8
q_notr_gra
  6
CONTINUOUS
 62
8
 10
6.1237854659123
 20
10.522140678764
 11
6.0663321326784
 21
10.532271251545
  0
LINE
  8
q_notr_gra
  6
CONTINUOUS
 62
8
 10
6.0916906836644
 20
10.549071398711
 11
6.0342373504305
 21
10.559201971492
  0
LINE
  8
q_notr_gra
  6
CONTINUOUS
 62
8
 10
6.0595959014166
 20
10.576002118658
 11
6.0021425681827
 21
10.586132691439
  0
LINE
  8
q_notr_gra
  6
CONTINUOUS
 62
8
 10
6.0275011191687
 20
10.602932838605
 11
5.9700477859348
 21
10.613063411386
  0
LINE
  8
q_notr_gra
  6
CONTINUOUS
 62
8
 10
5.9954063369208
 20
10.629863558552
 11
5.9379530036869
 21
10.639994131333
  0
LINE
  8
q_notr_gra
  6
CONTINUOUS
 62
8
 10
5.963311554673
 20
10.656794278499
 11
5.905858221439
 21
10.66692485128
  0
LINE
  8
q_notr_gra
  6
CONTINUOUS
 62
8
 10
5.9312167724251
 20
10.683724998446
 11
5.8737634391912
 21
10.693855571227
  0
LINE
  8
q_notr_gra
  6
CONTINUOUS
 62
8
 10
5.8991219901772
 20
10.710655718393
 11
5.8416686569433
 21
10.720786291173
  0
LINE
  8
q_notr_gra
  6
CONTINUOUS
 62
8
 10
5.8670272079294
 20
10.73758643834
 11
5.8095738746954
 21
10.74771701112
  0
LINE
  8
q_notr_gra
  6
CONTINUOUS
 62
8
 10
5.8349324256815
 20
10.764517158286
 11
5.7774790924476
 21
10.774647731067
  0
LINE
  8
q_notr_gra
  6
CONTINUOUS
 62
8
 10
5.8028376434336
 20
10.791447878233
 11
5.7453843101997
 21
10.801578451014
  0
LINE
  8
q_notr_gra
  6
CONTINUOUS
 62
8
 10
5.7707428611857
 20
10.81837859818
 11
5.7132895279518
 21
10.828509170961
  0
ENDSEC
  0
EOF
