  0
SECTION
  2
HEADER
  9
$EXTMIN
 10
0.72271116544946
 20
9.5793366459547
  9
$EXTMAX
 10
2.2975143150558
 20
11.154139795561
  9
$LIMMIN
 10
0
 20
0
  9
$LIMMAX
 10
8.2666666666667
 20
11.69
  0
ENDSEC
  0
SECTION
  2
TABLES
  0
TABLE
  2
LTYPE
 70
9
  0
LTYPE
  2
CONTINUOUS
  3
___________________________
 70
64
 72
65
 73
0
 40
0
  0
LTYPE
  2
HIDDEN
  3
_ _ _ _ _ _ _ _ _ _ _ _ _ _ 
 70
64
 72
65
 73
2
 49
0.25
 49
-0.125
 40
0.375
  0
LTYPE
  2
DASHED
  3
__ __ __ __ __ __ __ __ __ 
 70
64
 72
65
 73
2
 49
0.5
 49
-0.25
 40
0.75
  0
LTYPE
  2
CENTER
  3
____ _ ____ _ ____ _ ____ _ 
 70
64
 72
65
 73
4
 49
1.25
 49
-0.25
 49
0.25
 49
-0.25
 40
2
  0
LTYPE
  2
PHANTOM
  3
_____ _ _ _____ _ _ _____ _ _ 
 70
64
 72
65
 73
6
 49
1.25
 49
-0.25
 49
0.25
 49
-0.25
 49
0.25
 49
-0.25
 40
2.5
  0
LTYPE
  2
DOT
  3
...........................
 70
64
 72
65
 73
2
 49
0
 49
-0.25
 40
0.25
  0
LTYPE
  2
DASHDOT
  3
__ . __ . __ . __ . __ . __ . 
 70
64
 72
65
 73
4
 49
0.5
 49
-0.25
 49
0
 49
-0.25
 40
1
  0
LTYPE
  2
DIVIDE
  3
__ . . __ . . __ . . __ . . 
 70
64
 72
65
 73
6
 49
0.5
 49
-0.25
 49
0
 49
-0.25
 49
0
 49
-0.25
 40
1.25
  0
LTYPE
  2
BORDER
  3
__ __ . __ __ . __ __ . __ __ . 
 70
64
 72
65
 73
6
 49
0.5
 49
-0.25
 49
0.5
 49
-0.25
 49
0
 49
-0.25
 40
1.75
  0
ENDTAB
  0
TABLE
  2
LAYER
 70
1
  0
LAYER
  2
FFV-a
 62
7
  6
CONTINUOUS
 70
0
  0
ENDTAB
  0
TABLE
  2
STYLE
 70
5
  0
STYLE
  2
ptmarker
 70
1
 40
0
 50
0
 71
0
 41
0
 42
0
  3
ptmarks
  0
STYLE
  2
TXT
 70
0
 40
0
 50
0
 71
0
 41
0
 42
0
  3
TXT
  0
STYLE
  2
ITALIC
 70
0
 40
0
 50
0
 71
0
 41
0
 42
0
  3
ITALIC
  0
STYLE
  2
SIMPLEX
 70
0
 40
0
 50
0
 71
0
 41
0
 42
0
  3
SIMPLEX
  0
STYLE
  2
COMPLEX
 70
0
 40
0
 50
0
 71
0
 41
0
 42
0
  3
COMPLEX
  0
ENDTAB
  0
ENDSEC
  0
SECTION
  2
BLOCKS
  0
ENDSEC
  0
SECTION
  2
ENTITIES
  0
POLYLINE
  8
FFV-a
  6
CONTINUOUS
 62
8
 70
1
 66
1
  0
VERTEX
  8
FFV-a
  6
CONTINUOUS
 62
8
 10
1.452869075475
 20
9.9024585878006
  0
VERTEX
  8
FFV-a
  6
CONTINUOUS
 62
8
 10
1.452868327229
 20
9.5793366459547
  0
VERTEX
  8
FFV-a
  6
CONTINUOUS
 62
8
 10
1.4835542667332
 20
9.5793366459547
  0
VERTEX
  8
FFV-a
  6
CONTINUOUS
 62
8
 10
1.4835542667332
 20
9.8823015965024
  0
VERTEX
  8
FFV-a
  6
CONTINUOUS
 62
8
 10
1.4854688010272
 20
9.8978718683889
  0
VERTEX
  8
FFV-a
  6
CONTINUOUS
 62
8
 10
1.488041897299
 20
9.9041283889031
  0
VERTEX
  8
FFV-a
  6
CONTINUOUS
 62
8
 10
1.4916037062538
 20
9.9091153996804
  0
VERTEX
  8
FFV-a
  6
CONTINUOUS
 62
8
 10
1.4960517611331
 20
9.9126894335006
  0
VERTEX
  8
FFV-a
  6
CONTINUOUS
 62
8
 10
1.5012580994964
 20
9.914747671918
  0
VERTEX
  8
FFV-a
  6
CONTINUOUS
 62
8
 10
1.5070729444683
 20
9.9152309031606
  0
VERTEX
  8
FFV-a
  6
CONTINUOUS
 62
8
 10
1.5133290135458
 20
9.9141252255455
  0
VERTEX
  8
FFV-a
  6
CONTINUOUS
 62
8
 10
1.5198463310122
 20
9.9114624474045
  0
VERTEX
  8
FFV-a
  6
CONTINUOUS
 62
8
 10
1.6713273394374
 20
9.824004846413
  0
VERTEX
  8
FFV-a
  6
CONTINUOUS
 62
8
 10
1.6713273394374
 20
9.8421245702952
  0
VERTEX
  8
FFV-a
  6
CONTINUOUS
 62
8
 10
1.6430436787469
 20
9.8613366976055
  0
VERTEX
  8
FFV-a
  6
CONTINUOUS
 62
8
 10
1.5907439988466
 20
9.8969147111432
  0
VERTEX
  8
FFV-a
  6
CONTINUOUS
 62
8
 10
1.5690630603155
 20
9.9236770767524
  0
VERTEX
  8
FFV-a
  6
CONTINUOUS
 62
8
 10
0.72271116544946
 20
10.412318571082
  0
VERTEX
  8
FFV-a
  6
CONTINUOUS
 62
8
 10
0.72271116544946
 20
10.371688649823
  0
VERTEX
  8
FFV-a
  6
CONTINUOUS
 62
8
 10
1.4165772516094
 20
9.9710857421966
  0
VERTEX
  8
FFV-a
  6
CONTINUOUS
 62
8
 10
1.4279536279238
 20
9.962671129326
  0
VERTEX
  8
FFV-a
  6
CONTINUOUS
 62
8
 10
1.4333909718531
 20
9.956763040516
  0
VERTEX
  8
FFV-a
  6
CONTINUOUS
 62
8
 10
1.4428537467329
 20
9.9424735958478
  0
VERTEX
  8
FFV-a
  6
CONTINUOUS
 62
8
 10
1.4495574065527
 20
9.9262838102005
  0
VERTEX
  8
FFV-a
  6
CONTINUOUS
 62
8
 10
1.4527360909653
 20
9.9100432874012
  0
VERTEX
  8
FFV-a
  6
CONTINUOUS
 62
8
 10
1.452869075475
 20
9.9024585878006
  0
SEQEND
  0
LINE
  8
FFV-a
  6
CONTINUOUS
 62
8
 10
1.6713273394374
 20
9.824004846413
 11
1.7467752231998
 21
9.867564702413
  0
LINE
  8
FFV-a
  6
CONTINUOUS
 62
8
 10
1.5709564411274
 20
10.840298678354
 11
1.5700573804878
 21
10.837101181076
  0
LINE
  8
FFV-a
  6
CONTINUOUS
 62
8
 10
1.5735167492139
 20
10.843009385656
 11
1.5709564411274
 21
10.840298678354
  0
LINE
  8
FFV-a
  6
CONTINUOUS
 62
8
 10
1.5773485210504
 20
10.84482062237
 11
1.5735167492139
 21
10.843009385656
  0
LINE
  8
FFV-a
  6
CONTINUOUS
 62
8
 10
1.5818684041098
 20
10.845456644123
 11
1.5773485210504
 21
10.84482062237
  0
LINE
  8
FFV-a
  6
CONTINUOUS
 62
8
 10
1.5863882871693
 20
10.84482062237
 11
1.5818684041098
 21
10.845456644123
  0
LINE
  8
FFV-a
  6
CONTINUOUS
 62
8
 10
1.5902200590058
 20
10.843009385656
 11
1.5863882871693
 21
10.84482062237
  0
LINE
  8
FFV-a
  6
CONTINUOUS
 62
8
 10
1.5927803670923
 20
10.840298678354
 11
1.5902200590058
 21
10.843009385656
  0
LINE
  8
FFV-a
  6
CONTINUOUS
 62
8
 10
1.5936794277319
 20
10.837101181076
 11
1.5927803670923
 21
10.840298678354
  0
LINE
  8
FFV-a
  6
CONTINUOUS
 62
8
 10
1.5927803670923
 20
10.833903683798
 11
1.5936794277319
 21
10.837101181076
  0
LINE
  8
FFV-a
  6
CONTINUOUS
 62
8
 10
1.5902200590058
 20
10.831192976495
 11
1.5927803670923
 21
10.833903683798
  0
LINE
  8
FFV-a
  6
CONTINUOUS
 62
8
 10
1.5863882871693
 20
10.829381739782
 11
1.5902200590058
 21
10.831192976495
  0
LINE
  8
FFV-a
  6
CONTINUOUS
 62
8
 10
1.5818684041098
 20
10.828745718029
 11
1.5863882871693
 21
10.829381739782
  0
LINE
  8
FFV-a
  6
CONTINUOUS
 62
8
 10
1.5773485210504
 20
10.829381739782
 11
1.5818684041098
 21
10.828745718029
  0
LINE
  8
FFV-a
  6
CONTINUOUS
 62
8
 10
1.5735167492139
 20
10.831192976495
 11
1.5773485210504
 21
10.829381739782
  0
LINE
  8
FFV-a
  6
CONTINUOUS
 62
8
 10
1.5709564411274
 20
10.833903683798
 11
1.5735167492139
 21
10.831192976495
  0
LINE
  8
FFV-a
  6
CONTINUOUS
 62
8
 10
1.5700573804878
 20
10.837101181076
 11
1.5709564411274
 21
10.833903683798
  0
LINE
  8
FFV-a
  6
CONTINUOUS
 62
8
 10
1.5700573804877
 20
10.837101181076
 11
1.5700573804873
 21
10.040986231284
  0
LINE
  8
FFV-a
  6
CONTINUOUS
 62
8
 10
1.5779313962357
 20
10.829299719674
 11
1.5779313962353
 21
10.038075698627
  0
LINE
  8
FFV-a
  6
CONTINUOUS
 62
8
 10
1.5858054119837
 20
10.829299719674
 11
1.5858054119833
 21
10.038075698627
  0
LINE
  8
FFV-a
  6
CONTINUOUS
 62
8
 10
1.5936794277318
 20
10.837101181075
 11
1.5936794277314
 21
10.040986231284
  0
LINE
  8
FFV-a
  6
CONTINUOUS
 62
8
 10
1.5878949148552
 20
10.038358291256
 11
1.5936794277314
 21
10.040986231284
  0
LINE
  8
FFV-a
  6
CONTINUOUS
 62
8
 10
1.5818684041093
 20
10.037543242118
 11
1.5878949148552
 21
10.038358291256
  0
LINE
  8
FFV-a
  6
CONTINUOUS
 62
8
 10
1.5758418933634
 20
10.038358291256
 11
1.5818684041093
 21
10.037543242118
  0
LINE
  8
FFV-a
  6
CONTINUOUS
 62
8
 10
1.5700573804873
 20
10.040986231284
 11
1.5758418933634
 21
10.038358291256
  0
LINE
  8
FFV-a
  6
CONTINUOUS
 62
8
 10
1.9859567886226
 20
9.799111725448
 11
1.7814193966628
 21
9.9172014437555
  0
LINE
  8
FFV-a
  6
CONTINUOUS
 62
8
 10
1.9778354731944
 20
9.7947084388732
 11
1.7733156842948
 21
9.9127879940491
  0
LINE
  8
FFV-a
  6
CONTINUOUS
 62
8
 10
1.9738984653203
 20
9.7878893412056
 11
1.7693786764208
 21
9.9059688963815
  0
LINE
  8
FFV-a
  6
CONTINUOUS
 62
8
 10
1.9741457650005
 20
9.7786544324452
 11
1.7695146868716
 21
9.8967982404876
  0
LINE
  8
FFV-a
  6
CONTINUOUS
 62
8
 10
1.9754338997735
 20
9.7915489228224
 11
1.7708609697458
 21
9.909659159043
  0
LINE
  8
FFV-a
  6
DIMSTYLE
 62
8
 10
1.9811980793607
 20
9.7973131024096
 11
1.776625149333
 21
9.9154233386301
  0
LINE
  8
FFV-a
  6
DIMSTYLE
 62
8
 10
1.9733240636126
 20
9.7836749070744
 11
1.7687511335849
 21
9.901785143295
  0
LINE
  8
FFV-a
  6
CONTINUOUS
 62
8
 10
1.9969461108568
 20
9.7973131024096
 11
1.792373180829
 21
9.9154233386301
  0
LINE
  8
FFV-a
  6
CONTINUOUS
 62
8
 10
1.9811980793607
 20
9.7700367117392
 11
1.7766251493329
 21
9.8881469479598
  0
CIRCLE
  8
FFV-a
  6
CONTINUOUS
 62
8
 10
1.9890720951087
 20
9.7836749070744
 40
0.015748031496082
  0
LINE
  8
FFV-a
  6
CONTINUOUS
 62
8
 10
1.792373180829
 20
9.9154233386301
 11
1.7898853090704
 21
9.9165834522837
  0
LINE
  8
FFV-a
  6
CONTINUOUS
 62
8
 10
1.7898853090704
 20
9.9165834522837
 11
1.7872337820521
 21
9.917293926807
  0
LINE
  8
FFV-a
  6
CONTINUOUS
 62
8
 10
1.7872337820521
 20
9.917293926807
 11
1.784499165081
 21
9.917533174791
  0
LINE
  8
FFV-a
  6
CONTINUOUS
 62
8
 10
1.784499165081
 20
9.917533174791
 11
1.7817645481098
 21
9.917293926807
  0
LINE
  8
FFV-a
  6
CONTINUOUS
 62
8
 10
1.7817645481098
 20
9.917293926807
 11
1.7791130210916
 21
9.9165834522837
  0
LINE
  8
FFV-a
  6
CONTINUOUS
 62
8
 10
1.7791130210916
 20
9.9165834522837
 11
1.7766251493329
 21
9.9154233386301
  0
LINE
  8
FFV-a
  6
CONTINUOUS
 62
8
 10
1.7766251493329
 20
9.9154233386301
 11
1.7743765255584
 21
9.9138488353126
  0
LINE
  8
FFV-a
  6
CONTINUOUS
 62
8
 10
1.7743765255584
 20
9.9138488353126
 11
1.7724354730634
 21
9.9119077828176
  0
LINE
  8
FFV-a
  6
CONTINUOUS
 62
8
 10
1.7724354730634
 20
9.9119077828176
 11
1.7708609697458
 21
9.909659159043
  0
LINE
  8
FFV-a
  6
CONTINUOUS
 62
8
 10
1.7708609697458
 20
9.909659159043
 11
1.7697008560922
 21
9.9071712872843
  0
LINE
  8
FFV-a
  6
CONTINUOUS
 62
8
 10
1.7697008560922
 20
9.9071712872843
 11
1.768990381569
 21
9.9045197602661
  0
LINE
  8
FFV-a
  6
CONTINUOUS
 62
8
 10
1.768990381569
 20
9.9045197602661
 11
1.7687511335849
 21
9.901785143295
  0
LINE
  8
FFV-a
  6
CONTINUOUS
 62
8
 10
1.7687511335849
 20
9.901785143295
 11
1.768990381569
 21
9.8990505263238
  0
LINE
  8
FFV-a
  6
CONTINUOUS
 62
8
 10
1.768990381569
 20
9.8990505263238
 11
1.7697008560922
 21
9.8963989993056
  0
LINE
  8
FFV-a
  6
CONTINUOUS
 62
8
 10
1.7697008560922
 20
9.8963989993056
 11
1.7708609697458
 21
9.8939111275469
  0
LINE
  8
FFV-a
  6
CONTINUOUS
 62
8
 10
1.7708609697458
 20
9.8939111275469
 11
1.7724354730634
 21
9.8916625037723
  0
LINE
  8
FFV-a
  6
CONTINUOUS
 62
8
 10
1.7724354730634
 20
9.8916625037723
 11
1.7743765255584
 21
9.8897214512773
  0
LINE
  8
FFV-a
  6
CONTINUOUS
 62
8
 10
1.7743765255584
 20
9.8897214512773
 11
1.7766251493329
 21
9.8881469479598
  0
POLYLINE
  8
FFV-a
  6
CONTINUOUS
 62
8
 70
0
 66
1
  0
VERTEX
  8
FFV-a
  6
CONTINUOUS
 62
8
 10
1.4835542667332
 20
9.8823015965024
  0
VERTEX
  8
FFV-a
  6
CONTINUOUS
 62
8
 10
1.4839584407333
 20
9.8905258268419
  0
VERTEX
  8
FFV-a
  6
CONTINUOUS
 62
8
 10
1.4854688010272
 20
9.8978718683889
  0
VERTEX
  8
FFV-a
  6
CONTINUOUS
 62
8
 10
1.488041897299
 20
9.9041283889031
  0
VERTEX
  8
FFV-a
  6
CONTINUOUS
 62
8
 10
1.4916037062538
 20
9.9091153996804
  0
VERTEX
  8
FFV-a
  6
CONTINUOUS
 62
8
 10
1.4960517611331
 20
9.9126894335006
  0
VERTEX
  8
FFV-a
  6
CONTINUOUS
 62
8
 10
1.5012580994964
 20
9.914747671918
  0
VERTEX
  8
FFV-a
  6
CONTINUOUS
 62
8
 10
1.5070729444683
 20
9.9152309031606
  0
VERTEX
  8
FFV-a
  6
CONTINUOUS
 62
8
 10
1.5133290135458
 20
9.9141252255455
  0
VERTEX
  8
FFV-a
  6
CONTINUOUS
 62
8
 10
1.5198463310122
 20
9.9114624474045
  0
SEQEND
  0
POLYLINE
  8
FFV-a
  6
CONTINUOUS
 62
8
 70
0
 66
1
  0
VERTEX
  8
FFV-a
  6
CONTINUOUS
 62
8
 10
1.5190361186501
 20
10.053881812421
  0
VERTEX
  8
FFV-a
  6
CONTINUOUS
 62
8
 10
1.5227263912997
 20
10.057826022883
  0
VERTEX
  8
FFV-a
  6
CONTINUOUS
 62
8
 10
1.5255528404672
 20
10.063006097959
  0
VERTEX
  8
FFV-a
  6
CONTINUOUS
 62
8
 10
1.5274341543562
 20
10.069273016321
  0
VERTEX
  8
FFV-a
  6
CONTINUOUS
 62
8
 10
1.5283162109914
 20
10.076446490138
  0
SEQEND
  0
POLYLINE
  8
FFV-a
  6
CONTINUOUS
 62
8
 70
0
 66
1
  0
VERTEX
  8
FFV-a
  6
CONTINUOUS
 62
8
 10
1.5567600605312
 20
10.162781452421
  0
VERTEX
  8
FFV-a
  6
CONTINUOUS
 62
8
 10
1.5604503331809
 20
10.166725662883
  0
VERTEX
  8
FFV-a
  6
CONTINUOUS
 62
8
 10
1.5632767823484
 20
10.171905737959
  0
VERTEX
  8
FFV-a
  6
CONTINUOUS
 62
8
 10
1.5651580962374
 20
10.178172656321
  0
VERTEX
  8
FFV-a
  6
CONTINUOUS
 62
8
 10
1.5660401528726
 20
10.185346130138
  0
SEQEND
  0
POLYLINE
  8
FFV-a
  6
CONTINUOUS
 62
8
 70
0
 66
1
  0
VERTEX
  8
FFV-a
  6
CONTINUOUS
 62
8
 10
1.6699326344208
 20
10.141001956421
  0
VERTEX
  8
FFV-a
  6
CONTINUOUS
 62
8
 10
1.6736229070704
 20
10.144946166883
  0
VERTEX
  8
FFV-a
  6
CONTINUOUS
 62
8
 10
1.6764493562379
 20
10.150126241959
  0
VERTEX
  8
FFV-a
  6
CONTINUOUS
 62
8
 10
1.678330670127
 20
10.156393160321
  0
VERTEX
  8
FFV-a
  6
CONTINUOUS
 62
8
 10
1.6792127267621
 20
10.163566634138
  0
SEQEND
  0
POLYLINE
  8
FFV-a
  6
CONTINUOUS
 62
8
 70
0
 66
1
  0
VERTEX
  8
FFV-a
  6
CONTINUOUS
 62
8
 10
1.4165772516094
 20
10.011714799456
  0
VERTEX
  8
FFV-a
  6
CONTINUOUS
 62
8
 10
1.4226164978872
 20
10.008579141509
  0
VERTEX
  8
FFV-a
  6
CONTINUOUS
 62
8
 10
1.4285014017984
 20
10.006842953542
  0
VERTEX
  8
FFV-a
  6
CONTINUOUS
 62
8
 10
1.4340626653723
 20
10.006556182521
  0
VERTEX
  8
FFV-a
  6
CONTINUOUS
 62
8
 10
1.4391403011812
 20
10.007727078328
  0
VERTEX
  8
FFV-a
  6
CONTINUOUS
 62
8
 10
1.4435882348877
 20
10.010321956421
  0
VERTEX
  8
FFV-a
  6
CONTINUOUS
 62
8
 10
1.4472785075373
 20
10.014266166883
  0
VERTEX
  8
FFV-a
  6
CONTINUOUS
 62
8
 10
1.4501049567048
 20
10.019446241959
  0
VERTEX
  8
FFV-a
  6
CONTINUOUS
 62
8
 10
1.4519862705939
 20
10.025713160321
  0
VERTEX
  8
FFV-a
  6
CONTINUOUS
 62
8
 10
1.452868327229
 20
10.032886634138
  0
SEQEND
  0
POLYLINE
  8
FFV-a
  6
CONTINUOUS
 62
8
 70
0
 66
1
  0
VERTEX
  8
FFV-a
  6
CONTINUOUS
 62
8
 10
1.4165772516094
 20
9.9710857421966
  0
VERTEX
  8
FFV-a
  6
CONTINUOUS
 62
8
 10
1.4279536279238
 20
9.962671129326
  0
VERTEX
  8
FFV-a
  6
CONTINUOUS
 62
8
 10
1.4333909718531
 20
9.956763040516
  0
VERTEX
  8
FFV-a
  6
CONTINUOUS
 62
8
 10
1.4428537467329
 20
9.9424735958478
  0
VERTEX
  8
FFV-a
  6
CONTINUOUS
 62
8
 10
1.4466069508789
 20
9.934503321296
  0
VERTEX
  8
FFV-a
  6
CONTINUOUS
 62
8
 10
1.4495574065527
 20
9.9262838102005
  0
VERTEX
  8
FFV-a
  6
CONTINUOUS
 62
8
 10
1.4527360909653
 20
9.9100432874012
  0
VERTEX
  8
FFV-a
  6
CONTINUOUS
 62
8
 10
1.452869075475
 20
9.9024585878006
  0
SEQEND
  0
POLYLINE
  8
FFV-a
  6
CONTINUOUS
 62
8
 70
0
 66
1
  0
VERTEX
  8
FFV-a
  6
CONTINUOUS
 62
8
 10
1.529749077253
 20
10.979935447456
  0
VERTEX
  8
FFV-a
  6
CONTINUOUS
 62
8
 10
1.5411254535674
 20
10.971520834586
  0
VERTEX
  8
FFV-a
  6
CONTINUOUS
 62
8
 10
1.5465627974967
 20
10.965612745776
  0
VERTEX
  8
FFV-a
  6
CONTINUOUS
 62
8
 10
1.5560255723764
 20
10.951323301108
  0
VERTEX
  8
FFV-a
  6
CONTINUOUS
 62
8
 10
1.5597787765225
 20
10.943353026556
  0
VERTEX
  8
FFV-a
  6
CONTINUOUS
 62
8
 10
1.5627292321963
 20
10.93513351546
  0
VERTEX
  8
FFV-a
  6
CONTINUOUS
 62
8
 10
1.5659079166089
 20
10.918892992661
  0
VERTEX
  8
FFV-a
  6
CONTINUOUS
 62
8
 10
1.5660409011186
 20
10.91130829306
  0
SEQEND
  0
POLYLINE
  8
FFV-a
  6
CONTINUOUS
 62
8
 70
0
 66
1
  0
VERTEX
  8
FFV-a
  6
CONTINUOUS
 62
8
 10
1.6429216511425
 20
11.045275663456
  0
VERTEX
  8
FFV-a
  6
CONTINUOUS
 62
8
 10
1.6542980274569
 20
11.036861050586
  0
VERTEX
  8
FFV-a
  6
CONTINUOUS
 62
8
 10
1.6597353713862
 20
11.030952961776
  0
VERTEX
  8
FFV-a
  6
CONTINUOUS
 62
8
 10
1.669198146266
 20
11.016663517108
  0
VERTEX
  8
FFV-a
  6
CONTINUOUS
 62
8
 10
1.672951350412
 20
11.008693242556
  0
VERTEX
  8
FFV-a
  6
CONTINUOUS
 62
8
 10
1.6759018060858
 20
11.00047373146
  0
VERTEX
  8
FFV-a
  6
CONTINUOUS
 62
8
 10
1.6790804904984
 20
10.984233208661
  0
VERTEX
  8
FFV-a
  6
CONTINUOUS
 62
8
 10
1.6792134750081
 20
10.97664850906
  0
SEQEND
  0
POLYLINE
  8
FFV-a
  6
CONTINUOUS
 62
8
 70
0
 66
1
  0
VERTEX
  8
FFV-a
  6
CONTINUOUS
 62
8
 10
1.4920251353718
 20
10.958155519456
  0
VERTEX
  8
FFV-a
  6
CONTINUOUS
 62
8
 10
1.5034015116862
 20
10.949740906586
  0
VERTEX
  8
FFV-a
  6
CONTINUOUS
 62
8
 10
1.5088388556155
 20
10.943832817776
  0
VERTEX
  8
FFV-a
  6
CONTINUOUS
 62
8
 10
1.5183016304953
 20
10.929543373108
  0
VERTEX
  8
FFV-a
  6
CONTINUOUS
 62
8
 10
1.5220548346413
 20
10.921573098556
  0
VERTEX
  8
FFV-a
  6
CONTINUOUS
 62
8
 10
1.5250052903151
 20
10.91335358746
  0
VERTEX
  8
FFV-a
  6
CONTINUOUS
 62
8
 10
1.5281839747277
 20
10.897113064661
  0
VERTEX
  8
FFV-a
  6
CONTINUOUS
 62
8
 10
1.5283169592374
 20
10.88952836506
  0
SEQEND
  0
POLYLINE
  8
FFV-a
  6
CONTINUOUS
 62
8
 70
0
 66
1
  0
VERTEX
  8
FFV-a
  6
CONTINUOUS
 62
8
 10
1.4165765033635
 20
10.914595231456
  0
VERTEX
  8
FFV-a
  6
CONTINUOUS
 62
8
 10
1.4279528796779
 20
10.906180618586
  0
VERTEX
  8
FFV-a
  6
CONTINUOUS
 62
8
 10
1.4333902236072
 20
10.900272529776
  0
VERTEX
  8
FFV-a
  6
CONTINUOUS
 62
8
 10
1.4428529984869
 20
10.885983085108
  0
VERTEX
  8
FFV-a
  6
CONTINUOUS
 62
8
 10
1.446606202633
 20
10.878012810556
  0
VERTEX
  8
FFV-a
  6
CONTINUOUS
 62
8
 10
1.4495566583068
 20
10.86979329946
  0
VERTEX
  8
FFV-a
  6
CONTINUOUS
 62
8
 10
1.4527353427193
 20
10.853552776661
  0
VERTEX
  8
FFV-a
  6
CONTINUOUS
 62
8
 10
1.452868327229
 20
10.84596807706
  0
SEQEND
  0
LINE
  8
FFV-a
  6
CONTINUOUS
 62
8
 10
2.2975143150558
 20
9.6367150514768
 11
1.8222231069622
 21
9.911124558413
  0
LINE
  8
FFV-a
  6
CONTINUOUS
 62
8
 10
2.2975143150558
 20
9.7238347634767
 11
1.8976709907246
 21
9.954684414413
  0
LINE
  8
FFV-a
  6
CONTINUOUS
 62
8
 10
2.2460008611525
 20
9.5793366459547
 11
1.7467752231998
 21
9.867564702413
  0
LINE
  8
FFV-a
  6
CONTINUOUS
 62
8
 10
1.5283163090164
 20
10.146359444828
 11
1.5567593122853
 21
10.162781020421
  0
LINE
  8
FFV-a
  6
CONTINUOUS
 62
8
 10
1.5976164356054
 20
10.099250179569
 11
1.6699318861748
 21
10.141001524421
  0
LINE
  8
FFV-a
  6
CONTINUOUS
 62
8
 10
2.2975143150558
 20
9.5793366459547
 11
0.72271116544946
 21
9.5793366459547
  0
LINE
  8
FFV-a
  6
CONTINUOUS
 62
8
 10
2.2975143150558
 20
11.154139795561
 11
2.2975143150558
 21
9.5793366459547
  0
LINE
  8
FFV-a
  6
CONTINUOUS
 62
8
 10
0.72271116544946
 20
11.154139795561
 11
2.2975143150558
 21
11.154139795561
  0
LINE
  8
FFV-a
  6
CONTINUOUS
 62
8
 10
0.72271116544946
 20
9.5793366459547
 11
0.72271116544946
 21
11.154139795561
  0
LINE
  8
FFV-a
  6
CONTINUOUS
 62
8
 10
1.5661203726133
 20
10.099615462289
 11
1.5283162109914
 21
10.121441705178
  0
LINE
  8
FFV-a
  6
CONTINUOUS
 62
8
 10
1.9308613533474
 20
9.5870431016183
 11
1.9308613533474
 21
9.5793366459547
  0
LINE
  8
FFV-a
  6
CONTINUOUS
 62
8
 10
1.8798377313001
 20
9.6165016035423
 11
1.8798377313001
 21
9.5793366459547
  0
LINE
  8
FFV-a
  6
CONTINUOUS
 62
8
 10
1.8288141092529
 20
9.6459601054663
 11
1.8288141092529
 21
9.5793366459547
  0
LINE
  8
FFV-a
  6
CONTINUOUS
 62
8
 10
1.7777904872056
 20
9.6754186073903
 11
1.7777904872056
 21
9.5793366459547
  0
LINE
  8
FFV-a
  6
CONTINUOUS
 62
8
 10
1.7267668651584
 20
9.7048771093143
 11
1.7267668651584
 21
9.5793366459547
  0
LINE
  8
FFV-a
  6
CONTINUOUS
 62
8
 10
1.6757432431112
 20
9.7343356112383
 11
1.6757432431112
 21
9.5793366459547
  0
LINE
  8
FFV-a
  6
CONTINUOUS
 62
8
 10
1.6247196210639
 20
9.7637941131623
 11
1.6247196210639
 21
9.5793366459547
  0
LINE
  8
FFV-a
  6
CONTINUOUS
 62
8
 10
1.5736959990167
 20
9.7932526150863
 11
1.5736959990167
 21
9.5793366459547
  0
LINE
  8
FFV-a
  6
CONTINUOUS
 62
8
 10
1.379222072419
 20
10.1400405355
 11
0.7610930429436
 21
10.496917497062
  0
LINE
  8
FFV-a
  6
CONTINUOUS
 62
8
 10
1.1692820193216
 20
10.970251056387
 11
1.1692820193216
 21
10.26124948167
  0
LINE
  8
FFV-a
  6
CONTINUOUS
 62
8
 10
1.3223528854633
 20
10.881875550615
 11
1.3223528854633
 21
10.172873975898
  0
LINE
  8
FFV-a
  6
CONTINUOUS
 62
8
 10
1.271329263416
 20
10.911334052539
 11
1.271329263416
 21
10.202332477822
  0
LINE
  8
FFV-a
  6
CONTINUOUS
 62
8
 10
1.2203056413688
 20
10.940792554463
 11
1.2203056413688
 21
10.231790979746
  0
LINE
  8
FFV-a
  6
CONTINUOUS
 62
8
 10
1.1182583972743
 20
10.999709558311
 11
1.1182583972743
 21
10.290707983594
  0
LINE
  8
FFV-a
  6
CONTINUOUS
 62
8
 10
1.0672347752271
 20
11.029168060235
 11
1.0672347752271
 21
10.320166485518
  0
LINE
  8
FFV-a
  6
CONTINUOUS
 62
8
 10
1.0162111531798
 20
11.058626562159
 11
1.0162111531798
 21
10.349624987442
  0
LINE
  8
FFV-a
  6
CONTINUOUS
 62
8
 10
0.96518753113258
 20
11.088085064083
 11
0.96518753113258
 21
10.379083489366
  0
LINE
  8
FFV-a
  6
CONTINUOUS
 62
8
 10
0.91416390908534
 20
11.117543566007
 11
0.91416390908534
 21
10.40854199129
  0
LINE
  8
FFV-a
  6
CONTINUOUS
 62
8
 10
0.86314028703809
 20
11.147002067931
 11
0.86314028703809
 21
10.438000493214
  0
LINE
  8
FFV-a
  6
CONTINUOUS
 62
8
 10
0.81211666499085
 20
11.154139795561
 11
0.81211666499085
 21
10.467458995138
  0
LINE
  8
FFV-a
  6
CONTINUOUS
 62
8
 10
0.7610930429436
 20
11.154139795561
 11
0.7610930429436
 21
10.496917497062
  0
LINE
  8
FFV-a
  6
CONTINUOUS
 62
8
 10
1.5674730191342
 20
11.001715375456
 11
1.3034646827071
 21
11.154139795561
  0
LINE
  8
FFV-a
  6
CONTINUOUS
 62
8
 10
1.4920251353718
 20
10.958155519456
 11
1.1525689151823
 21
11.154139795561
  0
LINE
  8
FFV-a
  6
CONTINUOUS
 62
8
 10
1.3223528854633
 20
9.9383656293553
 11
1.3223528854633
 21
9.5793366459547
  0
LINE
  8
FFV-a
  6
CONTINUOUS
 62
8
 10
1.271329263416
 20
9.9678241312793
 11
1.271329263416
 21
9.5793366459547
  0
LINE
  8
FFV-a
  6
CONTINUOUS
 62
8
 10
1.2203056413688
 20
9.9972826332033
 11
1.2203056413688
 21
9.5793366459547
  0
LINE
  8
FFV-a
  6
CONTINUOUS
 62
8
 10
1.1692820193216
 20
10.026741135127
 11
1.1692820193216
 21
9.5793366459547
  0
LINE
  8
FFV-a
  6
CONTINUOUS
 62
8
 10
1.1182583972743
 20
10.056199637051
 11
1.1182583972743
 21
9.5793366459547
  0
LINE
  8
FFV-a
  6
CONTINUOUS
 62
8
 10
1.0672347752271
 20
10.085658138975
 11
1.0672347752271
 21
9.5793366459547
  0
LINE
  8
FFV-a
  6
CONTINUOUS
 62
8
 10
1.0162111531798
 20
10.115116640899
 11
1.0162111531798
 21
9.5793366459547
  0
LINE
  8
FFV-a
  6
CONTINUOUS
 62
8
 10
0.96518753113258
 20
10.144575142823
 11
0.96518753113258
 21
9.5793366459547
  0
LINE
  8
FFV-a
  6
CONTINUOUS
 62
8
 10
0.91416390908534
 20
10.174033644747
 11
0.91416390908534
 21
9.5793366459547
  0
LINE
  8
FFV-a
  6
CONTINUOUS
 62
8
 10
0.86314028703809
 20
10.203492146671
 11
0.86314028703809
 21
9.5793366459547
  0
LINE
  8
FFV-a
  6
CONTINUOUS
 62
8
 10
0.81211666499085
 20
10.232950648595
 11
0.81211666499085
 21
9.5793366459547
  0
LINE
  8
FFV-a
  6
CONTINUOUS
 62
8
 10
0.7610930429436
 20
10.262409150519
 11
0.7610930429436
 21
9.5793366459547
  0
LINE
  8
FFV-a
  6
CONTINUOUS
 62
8
 10
1.4835542667332
 20
9.8823015965024
 11
1.4835542667332
 21
9.5793366459547
  0
LINE
  8
FFV-a
  6
CONTINUOUS
 62
8
 10
1.4435882348877
 20
10.010321956421
 11
1.5190361186501
 21
10.053881812421
  0
LINE
  8
FFV-a
  6
CONTINUOUS
 62
8
 10
0.74408516892786
 20
11.154139795561
 11
0.74408516892786
 21
10.487097996421
  0
LINE
  8
FFV-a
  6
CONTINUOUS
 62
8
 10
0.72271116544946
 20
10.412318571082
 11
1.5690630603155
 21
9.9236770767524
  0
LINE
  8
FFV-a
  6
CONTINUOUS
 62
8
 10
1.379222072419
 20
10.849042110218
 11
1.379222072419
 21
10.120401534218
  0
LINE
  8
FFV-a
  6
CONTINUOUS
 62
8
 10
1.6429216511425
 20
11.045275663456
 11
1.4543619467237
 21
11.154139795561
  0
LINE
  8
FFV-a
  6
CONTINUOUS
 62
8
 10
1.529749077253
 20
10.979935447456
 11
1.2280167989447
 21
11.154139795561
  0
LINE
  8
FFV-a
  6
CONTINUOUS
 62
8
 10
1.4165765033635
 20
10.914595231456
 11
1.0016731476575
 21
11.154139795561
  0
LINE
  8
FFV-a
  6
CONTINUOUS
 62
8
 10
1.6792127267621
 20
10.163566634138
 11
1.6792134750081
 21
10.97664850906
  0
LINE
  8
FFV-a
  6
CONTINUOUS
 62
8
 10
1.6037640947538
 20
10.120006346138
 11
1.6037648429997
 21
10.93308822106
  0
LINE
  8
FFV-a
  6
CONTINUOUS
 62
8
 10
1.5660401528726
 20
10.185346130138
 11
1.5660409011186
 21
10.91130829306
  0
LINE
  8
FFV-a
  6
CONTINUOUS
 62
8
 10
1.5283162109914
 20
10.076446490138
 11
1.5283169592374
 21
10.88952836506
  0
LINE
  8
FFV-a
  6
CONTINUOUS
 62
8
 10
1.379222072419
 20
10.849042110218
 11
0.85077738013276
 21
11.154139795561
  0
LINE
  8
FFV-a
  6
CONTINUOUS
 62
8
 10
1.379222072419
 20
10.120401534218
 11
0.74408516892786
 21
10.487097996421
  0
LINE
  8
FFV-a
  6
CONTINUOUS
 62
8
 10
1.452868327229
 20
10.84596807706
 11
1.452868327229
 21
10.032886634138
  0
LINE
  8
FFV-a
  6
CONTINUOUS
 62
8
 10
1.5566881250009
 20
9.8030721157276
 11
1.5566881250009
 21
9.5793366459547
  0
LINE
  8
FFV-a
  6
CONTINUOUS
 62
8
 10
2.2975143150558
 20
9.5931551954767
 11
1.9936322696619
 21
9.7686015761868
  0
LINE
  8
FFV-a
  6
CONTINUOUS
 62
8
 10
2.0951050936277
 20
9.5793366459547
 11
1.5198463310122
 21
9.9114624474045
  0
LINE
  8
FFV-a
  6
CONTINUOUS
 62
8
 10
1.944209326103
 20
9.5793366459547
 11
1.5566881250009
 21
9.8030721157276
  0
LINE
  8
FFV-a
  6
CONTINUOUS
 62
8
 10
0.74408516892786
 20
10.272228651161
 11
0.74408516892786
 21
9.5793366459547
  0
LINE
  8
FFV-a
  6
CONTINUOUS
 62
8
 10
1.379222072419
 20
9.9055321889578
 11
1.379222072419
 21
9.5793366459547
  0
LINE
  8
FFV-a
  6
CONTINUOUS
 62
8
 10
1.4165772516094
 20
9.9710857421966
 11
0.72271116544946
 21
10.371688649823
  0
LINE
  8
FFV-a
  6
CONTINUOUS
 62
8
 10
1.379222072419
 20
9.9055321889578
 11
0.74408516892786
 21
10.272228651161
  0
LINE
  8
FFV-a
  6
CONTINUOUS
 62
8
 10
1.452869075475
 20
9.9024585878006
 11
1.452868327229
 21
9.5793366459547
  0
LINE
  8
FFV-a
  6
CONTINUOUS
 62
8
 10
1.6713273394374
 20
9.8421245702952
 11
1.6713273394374
 21
9.824004846413
  0
LINE
  8
FFV-a
  6
CONTINUOUS
 62
8
 10
1.6576318837415
 20
10.133900114706
 11
1.8722091435367
 21
10.010013876001
  0
LINE
  8
FFV-a
  6
CONTINUOUS
 62
8
 10
1.8222231069622
 20
9.911124558413
 11
1.8222231069622
 21
9.8981894757418
  0
LINE
  8
FFV-a
  6
CONTINUOUS
 62
8
 10
1.784499165081
 20
9.845784774413
 11
1.8172488756579
 21
9.8646928286305
  0
LINE
  8
FFV-a
  6
CONTINUOUS
 62
8
 10
1.8222231069622
 20
9.911124558413
 11
1.8976709907246
 21
9.954684414413
  0
LINE
  8
FFV-a
  6
CONTINUOUS
 62
8
 10
1.5981742750621
 20
10.101385878883
 11
1.6010007242296
 21
10.106565953959
  0
LINE
  8
FFV-a
  6
CONTINUOUS
 62
8
 10
1.6010007242296
 20
10.106565953959
 11
1.6028820381186
 21
10.112832872321
  0
LINE
  8
FFV-a
  6
CONTINUOUS
 62
8
 10
1.6028820381186
 20
10.112832872321
 11
1.6037640947538
 21
10.120006346138
  0
LINE
  8
FFV-a
  6
CONTINUOUS
 62
8
 10
1.5976164356054
 20
10.100789652959
 11
1.5981742750621
 21
10.101385878883
  0
POLYLINE
  8
FFV-a
  6
CONTINUOUS
 62
8
 70
0
 66
1
  0
VERTEX
  8
FFV-a
  6
CONTINUOUS
 62
8
 10
1.5690630603155
 20
9.9236770767524
  0
VERTEX
  8
FFV-a
  6
CONTINUOUS
 62
8
 10
1.6529744952
 20
9.9317625480076
  0
VERTEX
  8
FFV-a
  6
CONTINUOUS
 62
8
 10
1.7396090266533
 20
9.9644074439175
  0
VERTEX
  8
FFV-a
  6
CONTINUOUS
 62
8
 10
1.8011320997143
 20
9.9681741626763
  0
VERTEX
  8
FFV-a
  6
CONTINUOUS
 62
8
 10
1.8400548602223
 20
9.9970523398274
  0
VERTEX
  8
FFV-a
  6
CONTINUOUS
 62
8
 10
1.8722091435367
 20
10.010013876001
  0
SEQEND
  0
POLYLINE
  8
FFV-a
  6
CONTINUOUS
 62
8
 70
0
 66
1
  0
VERTEX
  8
FFV-a
  6
CONTINUOUS
 62
8
 10
1.8722091435367
 20
10.010013876001
  0
VERTEX
  8
FFV-a
  6
CONTINUOUS
 62
8
 10
1.8805269191104
 20
9.9810567131596
  0
VERTEX
  8
FFV-a
  6
CONTINUOUS
 62
8
 10
1.8976709907246
 20
9.9654023872031
  0
VERTEX
  8
FFV-a
  6
CONTINUOUS
 62
8
 10
1.8976709907246
 20
9.954684414413
  0
SEQEND
  0
LINE
  8
FFV-a
  6
CONTINUOUS
 62
8
 10
1.5907439988466
 20
9.8969147111432
 11
1.6773644014671
 21
9.9123223321305
  0
LINE
  8
FFV-a
  6
CONTINUOUS
 62
8
 10
1.6430436787469
 20
9.8613366976055
 11
1.7278078526052
 21
9.8956989220963
  0
LINE
  8
FFV-a
  6
CONTINUOUS
 62
8
 10
1.6713273394374
 20
9.8421245702952
 11
1.7440589261442
 21
9.878281403758
  0
LINE
  8
FFV-a
  6
CONTINUOUS
 62
8
 10
1.8805269191104
 20
9.9810567131596
 11
1.8401591755948
 21
9.9610461201616
  0
LINE
  8
FFV-a
  6
CONTINUOUS
 62
8
 10
1.8976709907246
 20
9.9654023872031
 11
1.8327073021312
 21
9.9398369418422
  0
LINE
  8
FFV-a
  6
CONTINUOUS
 62
8
 10
1.7192095370703
 20
9.9289457421646
 11
1.7983140399915
 21
9.9352511735569
  0
LINE
  8
FFV-a
  6
CONTINUOUS
 62
8
 10
1.7983140399915
 20
9.9352511735569
 11
1.8401591755948
 21
9.9610461201616
  0
LINE
  8
FFV-a
  6
CONTINUOUS
 62
8
 10
1.5818684041098
 20
10.828745718029
 11
1.5818684041093
 21
10.037543242118
  0
LINE
  8
FFV-a
  6
DIMSTYLE
 62
8
 10
1.5739943883617
 20
10.830967201685
 11
1.5739943883613
 21
10.039197624222
  0
LINE
  8
FFV-a
  6
DIMSTYLE
 62
8
 10
1.5897424198577
 20
10.830967201685
 11
1.5897424198573
 21
10.039197624222
  0
POLYLINE
  8
FFV-a
  6
CONTINUOUS
 62
8
 70
0
 66
1
  0
VERTEX
  8
FFV-a
  6
CONTINUOUS
 62
8
 10
1.5674730191342
 20
11.001715375456
  0
VERTEX
  8
FFV-a
  6
CONTINUOUS
 62
8
 10
1.5788493954486
 20
10.993300762586
  0
VERTEX
  8
FFV-a
  6
CONTINUOUS
 62
8
 10
1.5842867393779
 20
10.987392673776
  0
VERTEX
  8
FFV-a
  6
CONTINUOUS
 62
8
 10
1.5937495142576
 20
10.973103229108
  0
VERTEX
  8
FFV-a
  6
CONTINUOUS
 62
8
 10
1.5975027184037
 20
10.965132954556
  0
VERTEX
  8
FFV-a
  6
CONTINUOUS
 62
8
 10
1.6004531740775
 20
10.95691344346
  0
VERTEX
  8
FFV-a
  6
CONTINUOUS
 62
8
 10
1.6036318584901
 20
10.940672920661
  0
VERTEX
  8
FFV-a
  6
CONTINUOUS
 62
8
 10
1.6037648429997
 20
10.93308822106
  0
SEQEND
  0
ENDSEC
  0
EOF
