  0
SECTION
  2
HEADER
  9
$EXTMIN
 10
0.68897637795276
 20
7.755905511811
  9
$EXTMAX
 10
2.2637795275591
 20
9.3307086614173
  9
$LIMMIN
 10
0
 20
0
  9
$LIMMAX
 10
8.2677165354331
 20
11.692913385827
  0
ENDSEC
  0
SECTION
  2
TABLES
  0
TABLE
  2
LTYPE
 70
9
  0
LTYPE
  2
CONTINUOUS
  3
___________________________
 70
64
 72
65
 73
0
 40
0
  0
LTYPE
  2
HIDDEN
  3
_ _ _ _ _ _ _ _ _ _ _ _ _ _ 
 70
64
 72
65
 73
2
 49
0.25
 49
-0.125
 40
0.375
  0
LTYPE
  2
DASHED
  3
__ __ __ __ __ __ __ __ __ 
 70
64
 72
65
 73
2
 49
0.5
 49
-0.25
 40
0.75
  0
LTYPE
  2
CENTER
  3
____ _ ____ _ ____ _ ____ _ 
 70
64
 72
65
 73
4
 49
1.25
 49
-0.25
 49
0.25
 49
-0.25
 40
2
  0
LTYPE
  2
PHANTOM
  3
_____ _ _ _____ _ _ _____ _ _ 
 70
64
 72
65
 73
6
 49
1.25
 49
-0.25
 49
0.25
 49
-0.25
 49
0.25
 49
-0.25
 40
2.5
  0
LTYPE
  2
DOT
  3
...........................
 70
64
 72
65
 73
2
 49
0
 49
-0.25
 40
0.25
  0
LTYPE
  2
DASHDOT
  3
__ . __ . __ . __ . __ . __ . 
 70
64
 72
65
 73
4
 49
0.5
 49
-0.25
 49
0
 49
-0.25
 40
1
  0
LTYPE
  2
DIVIDE
  3
__ . . __ . . __ . . __ . . 
 70
64
 72
65
 73
6
 49
0.5
 49
-0.25
 49
0
 49
-0.25
 49
0
 49
-0.25
 40
1.25
  0
LTYPE
  2
BORDER
  3
__ __ . __ __ . __ __ . __ __ . 
 70
64
 72
65
 73
6
 49
0.5
 49
-0.25
 49
0.5
 49
-0.25
 49
0
 49
-0.25
 40
1.75
  0
ENDTAB
  0
TABLE
  2
LAYER
 70
1
  0
LAYER
  2
F-LM-CV
 62
7
  6
CONTINUOUS
 70
0
  0
ENDTAB
  0
TABLE
  2
STYLE
 70
5
  0
STYLE
  2
ptmarker
 70
1
 40
0
 50
0
 71
0
 41
0
 42
0
  3
ptmarks
  0
STYLE
  2
TXT
 70
0
 40
0
 50
0
 71
0
 41
0
 42
0
  3
TXT
  0
STYLE
  2
ITALIC
 70
0
 40
0
 50
0
 71
0
 41
0
 42
0
  3
ITALIC
  0
STYLE
  2
SIMPLEX
 70
0
 40
0
 50
0
 71
0
 41
0
 42
0
  3
SIMPLEX
  0
STYLE
  2
COMPLEX
 70
0
 40
0
 50
0
 71
0
 41
0
 42
0
  3
COMPLEX
  0
ENDTAB
  0
ENDSEC
  0
SECTION
  2
BLOCKS
  0
ENDSEC
  0
SECTION
  2
ENTITIES
  0
LINE
  8
F-LM-CV
  6
CONTINUOUS
 62
8
 10
2.2637795275591
 20
7.755905511811
 11
0.68897637795276
 21
7.755905511811
  0
LINE
  8
F-LM-CV
  6
CONTINUOUS
 62
8
 10
2.2637795275591
 20
9.3307086614173
 11
2.2637795275591
 21
7.755905511811
  0
LINE
  8
F-LM-CV
  6
CONTINUOUS
 62
8
 10
0.68897637795276
 20
9.3307086614173
 11
2.2637795275591
 21
9.3307086614173
  0
LINE
  8
F-LM-CV
  6
CONTINUOUS
 62
8
 10
0.68897637795276
 20
7.755905511811
 11
0.68897637795276
 21
9.3307086614173
  0
LINE
  8
F-LM-CV
  6
CONTINUOUS
 62
8
 10
1.4332555962643
 20
8.1050987837674
 11
1.4332555962643
 21
8.0657288493648
  0
LINE
  8
F-LM-CV
  6
CONTINUOUS
 62
8
 10
1.4332555962643
 20
7.8457287050272
 11
1.4332555962643
 21
7.8063587706247
  0
LINE
  8
F-LM-CV
  6
CONTINUOUS
 62
8
 10
1.4332555962643
 20
7.8063587706247
 11
1.4332555962643
 21
7.755905511811
  0
LINE
  8
F-LM-CV
  6
CONTINUOUS
 62
8
 10
1.3458679834695
 20
7.755905511811
 11
1.4332555962643
 21
7.8063587706247
  0
LINE
  8
F-LM-CV
  6
CONTINUOUS
 62
8
 10
2.0040613493133
 20
7.755905511811
 11
2.0040613493133
 21
7.9016719170868
  0
LINE
  8
F-LM-CV
  6
CONTINUOUS
 62
8
 10
1.9765603493133
 20
7.755905511811
 11
1.9765603493133
 21
7.8540398036553
  0
LINE
  8
F-LM-CV
  6
CONTINUOUS
 62
8
 10
1.8544563493133
 20
7.7835428036553
 11
1.9765603493133
 21
7.8540398036553
  0
LINE
  8
F-LM-CV
  6
CONTINUOUS
 62
8
 10
1.8754837360342
 20
7.755905511811
 11
1.8544563493133
 21
7.7680458036553
  0
LINE
  8
F-LM-CV
  6
CONTINUOUS
 62
8
 10
1.8544563493133
 20
7.755905511811
 11
1.8544563493133
 21
7.7835428036553
  0
LINE
  8
F-LM-CV
  6
CONTINUOUS
 62
8
 10
0.95694159626431
 20
7.755905511811
 11
0.95694159626431
 21
7.7907288493648
  0
LINE
  8
F-LM-CV
  6
CONTINUOUS
 62
8
 10
1.4332555962643
 20
7.8457287050272
 11
1.2776772527968
 21
7.755905511811
  0
LINE
  8
F-LM-CV
  6
CONTINUOUS
 62
8
 10
1.4332555962643
 20
8.0657288493648
 11
1.4332555962643
 21
7.8457287050272
  0
LINE
  8
F-LM-CV
  6
CONTINUOUS
 62
8
 10
0.95694159626431
 20
7.7907288493648
 11
1.4332555962643
 21
8.0657288493648
  0
LINE
  8
F-LM-CV
  6
CONTINUOUS
 62
8
 10
0.68897637795276
 20
7.9454386312223
 11
0.95694159626431
 21
7.7907288493648
  0
LINE
  8
F-LM-CV
  6
CONTINUOUS
 62
8
 10
0.68897637795276
 20
7.9908992816735
 11
0.95694159626431
 21
7.836189499816
  0
LINE
  8
F-LM-CV
  6
CONTINUOUS
 62
8
 10
1.9765613493133
 20
7.9630096044092
 11
1.9765613493133
 21
8.1195011044092
  0
LINE
  8
F-LM-CV
  6
CONTINUOUS
 62
8
 10
1.8544563493133
 20
7.8925121044092
 11
1.8544563493133
 21
8.0490036044092
  0
LINE
  8
F-LM-CV
  6
CONTINUOUS
 62
8
 10
1.9765613493133
 20
7.9630096044092
 11
1.8544563493133
 21
8.0335071044092
  0
LINE
  8
F-LM-CV
  6
CONTINUOUS
 62
8
 10
1.8544563493133
 20
7.8925121044092
 11
1.9765613493133
 21
7.9630096044092
  0
LINE
  8
F-LM-CV
  6
CONTINUOUS
 62
8
 10
2.0040613493133
 20
7.9471327178407
 11
2.0040613493133
 21
8.5436234909777
  0
LINE
  8
F-LM-CV
  6
CONTINUOUS
 62
8
 10
1.8269563493133
 20
7.7994203036553
 11
2.0040613493133
 21
7.9016719170868
  0
LINE
  8
F-LM-CV
  6
CONTINUOUS
 62
8
 10
1.8269563493133
 20
7.8448811044092
 11
2.0040613493133
 21
7.9471327178407
  0
LINE
  8
F-LM-CV
  6
CONTINUOUS
 62
8
 10
2.0040613493133
 20
7.9471327178407
 11
2.0040613493133
 21
7.9016719170868
  0
LINE
  8
F-LM-CV
  6
CONTINUOUS
 62
8
 10
1.7526825714714
 20
9.3307086614173
 11
2.0040613493133
 21
9.1855750648686
  0
LINE
  8
F-LM-CV
  6
CONTINUOUS
 62
8
 10
1.8269563493133
 20
8.4413718775462
 11
2.0040613493133
 21
8.5436234909777
  0
LINE
  8
F-LM-CV
  6
CONTINUOUS
 62
8
 10
1.8544563493133
 20
8.4254943775462
 11
1.9765603493133
 21
8.4959913775462
  0
LINE
  8
F-LM-CV
  6
CONTINUOUS
 62
8
 10
1.8544563493133
 20
8.2690028775462
 11
1.8544563493133
 21
8.4254943775462
  0
LINE
  8
F-LM-CV
  6
CONTINUOUS
 62
8
 10
1.9765603493133
 20
8.3394998775462
 11
1.9765603493133
 21
8.4959913775462
  0
LINE
  8
F-LM-CV
  6
CONTINUOUS
 62
8
 10
1.9765603493133
 20
8.3394998775462
 11
1.8544563493133
 21
8.4099973775462
  0
LINE
  8
F-LM-CV
  6
CONTINUOUS
 62
8
 10
1.8544563493133
 20
8.2690028775462
 11
1.9765603493133
 21
8.3394998775462
  0
LINE
  8
F-LM-CV
  6
CONTINUOUS
 62
8
 10
1.9765603493133
 20
8.1512544909777
 11
1.9765603493133
 21
8.3077459909777
  0
LINE
  8
F-LM-CV
  6
CONTINUOUS
 62
8
 10
1.8544563493133
 20
8.2372489909777
 11
1.9765603493133
 21
8.3077459909777
  0
LINE
  8
F-LM-CV
  6
CONTINUOUS
 62
8
 10
1.9765603493133
 20
8.1512544909777
 11
1.8544563493133
 21
8.2217519909777
  0
LINE
  8
F-LM-CV
  6
CONTINUOUS
 62
8
 10
1.8544563493133
 20
8.0807574909777
 11
1.8544563493133
 21
8.2372489909777
  0
LINE
  8
F-LM-CV
  6
CONTINUOUS
 62
8
 10
1.8544563493133
 20
8.0807574909777
 11
1.9765603493133
 21
8.1512544909777
  0
LINE
  8
F-LM-CV
  6
CONTINUOUS
 62
8
 10
1.8544563493133
 20
8.0490036044092
 11
1.9765613493133
 21
8.1195011044092
  0
LINE
  8
F-LM-CV
  6
CONTINUOUS
 62
8
 10
2.0040613493133
 20
8.5890842917316
 11
2.0040613493133
 21
9.1855750648686
  0
LINE
  8
F-LM-CV
  6
CONTINUOUS
 62
8
 10
1.9765613493133
 20
8.6049611783001
 11
1.9765613493133
 21
8.7614526783001
  0
LINE
  8
F-LM-CV
  6
CONTINUOUS
 62
8
 10
1.8269563493133
 20
9.0833234514371
 11
2.0040613493133
 21
9.1855750648686
  0
LINE
  8
F-LM-CV
  6
CONTINUOUS
 62
8
 10
1.8544563493133
 20
9.0674459514371
 11
1.9765603493133
 21
9.1379429514371
  0
LINE
  8
F-LM-CV
  6
CONTINUOUS
 62
8
 10
1.8544563493133
 20
8.9109544514371
 11
1.8544563493133
 21
9.0674459514371
  0
LINE
  8
F-LM-CV
  6
CONTINUOUS
 62
8
 10
1.9765603493133
 20
8.9814514514371
 11
1.9765603493133
 21
9.1379429514371
  0
LINE
  8
F-LM-CV
  6
CONTINUOUS
 62
8
 10
1.9765603493133
 20
8.9814514514371
 11
1.8544563493133
 21
9.0519489514371
  0
LINE
  8
F-LM-CV
  6
CONTINUOUS
 62
8
 10
1.8544563493133
 20
8.9109544514371
 11
1.9765603493133
 21
8.9814514514371
  0
LINE
  8
F-LM-CV
  6
CONTINUOUS
 62
8
 10
1.9765603493133
 20
8.7932060648686
 11
1.9765603493133
 21
8.9496975648686
  0
LINE
  8
F-LM-CV
  6
CONTINUOUS
 62
8
 10
1.8544563493133
 20
8.8792005648686
 11
1.9765603493133
 21
8.9496975648686
  0
LINE
  8
F-LM-CV
  6
CONTINUOUS
 62
8
 10
1.9765603493133
 20
8.7932060648686
 11
1.8544563493133
 21
8.8637035648686
  0
LINE
  8
F-LM-CV
  6
CONTINUOUS
 62
8
 10
1.8544563493133
 20
8.7227090648686
 11
1.8544563493133
 21
8.8792005648686
  0
LINE
  8
F-LM-CV
  6
CONTINUOUS
 62
8
 10
1.8544563493133
 20
8.7227090648686
 11
1.9765603493133
 21
8.7932060648686
  0
LINE
  8
F-LM-CV
  6
CONTINUOUS
 62
8
 10
1.8269563493133
 20
8.4868326783001
 11
2.0040613493133
 21
8.5890842917316
  0
LINE
  8
F-LM-CV
  6
CONTINUOUS
 62
8
 10
1.8544563493133
 20
8.5344636783001
 11
1.9765613493133
 21
8.6049611783001
  0
LINE
  8
F-LM-CV
  6
CONTINUOUS
 62
8
 10
1.9765613493133
 20
8.6049611783001
 11
1.8544563493133
 21
8.6754586783001
  0
LINE
  8
F-LM-CV
  6
CONTINUOUS
 62
8
 10
1.8544563493133
 20
8.6909551783001
 11
1.9765613493133
 21
8.7614526783001
  0
LINE
  8
F-LM-CV
  6
CONTINUOUS
 62
8
 10
1.8544563493133
 20
8.5344636783001
 11
1.8544563493133
 21
8.6909551783001
  0
LINE
  8
F-LM-CV
  6
CONTINUOUS
 62
8
 10
2.0040613493133
 20
8.5890842917316
 11
2.0040613493133
 21
8.5436234909777
  0
LINE
  8
F-LM-CV
  6
CONTINUOUS
 62
8
 10
0.68897637795276
 20
8.5157300108648
 11
0.95694159626431
 21
8.3610202290073
  0
LINE
  8
F-LM-CV
  6
CONTINUOUS
 62
8
 10
0.95694159626431
 20
8.3610202290073
 11
1.4332555962643
 21
8.6360202290073
  0
LINE
  8
F-LM-CV
  6
CONTINUOUS
 62
8
 10
0.95694159626431
 20
8.5810202290073
 11
1.4726256750045
 21
8.8787505532336
  0
LINE
  8
F-LM-CV
  6
CONTINUOUS
 62
8
 10
1.4332555962643
 20
8.8560202290073
 11
1.4332555962643
 21
8.6360202290073
  0
LINE
  8
F-LM-CV
  6
CONTINUOUS
 62
8
 10
0.95694159626431
 20
8.3610202290073
 11
0.95694159626431
 21
8.5810202290073
  0
LINE
  8
F-LM-CV
  6
CONTINUOUS
 62
8
 10
0.68897637795276
 20
9.285730236404
 11
1.4332555962643
 21
8.8560202290073
  0
LINE
  8
F-LM-CV
  6
CONTINUOUS
 62
8
 10
0.68897637795276
 20
8.7357300108648
 11
0.95694159626431
 21
8.5810202290073
  0
LINE
  8
F-LM-CV
  6
CONTINUOUS
 62
8
 10
0.68897637795276
 20
8.2502693604136
 11
0.95694159626431
 21
8.0955595785561
  0
LINE
  8
F-LM-CV
  6
CONTINUOUS
 62
8
 10
0.68897637795276
 20
8.4702693604136
 11
0.95694159626431
 21
8.3155595785561
  0
LINE
  8
F-LM-CV
  6
CONTINUOUS
 62
8
 10
0.95694159626431
 20
8.0955594342185
 11
0.95694159626431
 21
8.056189499816
  0
LINE
  8
F-LM-CV
  6
CONTINUOUS
 62
8
 10
0.95694159626431
 20
8.056189499816
 11
1.4332555962643
 21
8.331189499816
  0
LINE
  8
F-LM-CV
  6
CONTINUOUS
 62
8
 10
1.4332555962643
 20
8.3705594342185
 11
1.4332555962643
 21
8.331189499816
  0
LINE
  8
F-LM-CV
  6
CONTINUOUS
 62
8
 10
0.95694159626431
 20
8.3610202290073
 11
0.95694159626431
 21
8.3155595785561
  0
LINE
  8
F-LM-CV
  6
CONTINUOUS
 62
8
 10
1.4332555962643
 20
8.6360202290073
 11
1.4332555962643
 21
8.5905595785561
  0
LINE
  8
F-LM-CV
  6
CONTINUOUS
 62
8
 10
0.68897637795276
 20
8.2108992816735
 11
0.95694159626431
 21
8.056189499816
  0
LINE
  8
F-LM-CV
  6
CONTINUOUS
 62
8
 10
1.3984727963671
 20
9.3307086614173
 11
1.8269563493133
 21
9.0833234514371
  0
LINE
  8
F-LM-CV
  6
CONTINUOUS
 62
8
 10
0.95694159626431
 20
7.836189499816
 11
0.95694159626431
 21
8.056189499816
  0
LINE
  8
F-LM-CV
  6
CONTINUOUS
 62
8
 10
0.95694159626431
 20
7.836189499816
 11
1.4332555962643
 21
8.111189499816
  0
LINE
  8
F-LM-CV
  6
CONTINUOUS
 62
8
 10
1.4332555962643
 20
8.331189499816
 11
1.4332555962643
 21
8.111189499816
  0
LINE
  8
F-LM-CV
  6
CONTINUOUS
 62
8
 10
1.8269563493133
 20
9.0833234514371
 11
1.8269563493133
 21
7.755905511811
  0
LINE
  8
F-LM-CV
  6
CONTINUOUS
 62
8
 10
1.0835122765836
 20
9.3307086614173
 11
1.6694760480937
 21
8.9924021624652
  0
LINE
  8
F-LM-CV
  6
CONTINUOUS
 62
8
 10
1.6694760480937
 20
8.9924021624652
 11
1.6694760480937
 21
7.755905511811
  0
LINE
  8
F-LM-CV
  6
CONTINUOUS
 62
8
 10
1.6694760480937
 20
8.9924021624652
 11
1.8269563493133
 21
9.0833234514371
  0
POLYLINE
  8
F-LM-CV
  6
CONTINUOUS
 62
8
 70
0
 66
1
  0
VERTEX
  8
F-LM-CV
  6
CONTINUOUS
 62
8
 10
0.91557123038383
 20
8.6540748949048
  0
VERTEX
  8
F-LM-CV
  6
CONTINUOUS
 62
8
 10
0.93193638595098
 20
8.6475541571091
  0
VERTEX
  8
F-LM-CV
  6
CONTINUOUS
 62
8
 10
0.95344079312784
 20
8.6450187290095
  0
VERTEX
  8
F-LM-CV
  6
CONTINUOUS
 62
8
 10
0.97494446723781
 20
8.6475547224553
  0
VERTEX
  8
F-LM-CV
  6
CONTINUOUS
 62
8
 10
0.99131020030103
 20
8.6540753276552
  0
VERTEX
  8
F-LM-CV
  6
CONTINUOUS
 62
8
 10
1.0035226423945
 20
8.6651370740545
  0
VERTEX
  8
F-LM-CV
  6
CONTINUOUS
 62
8
 10
0.99131041025592
 20
8.6978035631117
  0
VERTEX
  8
F-LM-CV
  6
CONTINUOUS
 62
8
 10
0.97494441585443
 20
8.7043244242346
  0
VERTEX
  8
F-LM-CV
  6
CONTINUOUS
 62
8
 10
0.95344062345635
 20
8.706859729008
  0
VERTEX
  8
F-LM-CV
  6
CONTINUOUS
 62
8
 10
0.93193636030806
 20
8.7043242311799
  0
VERTEX
  8
F-LM-CV
  6
CONTINUOUS
 62
8
 10
0.91557107796428
 20
8.6978034777697
  0
VERTEX
  8
F-LM-CV
  6
CONTINUOUS
 62
8
 10
0.90335899824526
 20
8.686741383962
  0
SEQEND
  0
POLYLINE
  8
F-LM-CV
  6
CONTINUOUS
 62
8
 70
0
 66
1
  0
VERTEX
  8
F-LM-CV
  6
CONTINUOUS
 62
8
 10
1.2250416729383
 20
8.8327483948863
  0
VERTEX
  8
F-LM-CV
  6
CONTINUOUS
 62
8
 10
1.2414068285054
 20
8.8262276570906
  0
VERTEX
  8
F-LM-CV
  6
CONTINUOUS
 62
8
 10
1.2629112356823
 20
8.823692228991
  0
VERTEX
  8
F-LM-CV
  6
CONTINUOUS
 62
8
 10
1.2844149097923
 20
8.8262282224367
  0
VERTEX
  8
F-LM-CV
  6
CONTINUOUS
 62
8
 10
1.3007806428555
 20
8.8327488276367
  0
VERTEX
  8
F-LM-CV
  6
CONTINUOUS
 62
8
 10
1.3129930849489
 20
8.843810574036
  0
VERTEX
  8
F-LM-CV
  6
CONTINUOUS
 62
8
 10
1.3007808528104
 20
8.8764770630932
  0
VERTEX
  8
F-LM-CV
  6
CONTINUOUS
 62
8
 10
1.2844148584089
 20
8.8829979242161
  0
VERTEX
  8
F-LM-CV
  6
CONTINUOUS
 62
8
 10
1.2629110660108
 20
8.8855332289895
  0
VERTEX
  8
F-LM-CV
  6
CONTINUOUS
 62
8
 10
1.2414068028625
 20
8.8829977311614
  0
VERTEX
  8
F-LM-CV
  6
CONTINUOUS
 62
8
 10
1.2250415205187
 20
8.8764769777511
  0
VERTEX
  8
F-LM-CV
  6
CONTINUOUS
 62
8
 10
1.2128294407997
 20
8.8654148839435
  0
SEQEND
  0
POLYLINE
  8
F-LM-CV
  6
CONTINUOUS
 62
8
 70
0
 66
1
  0
VERTEX
  8
F-LM-CV
  6
CONTINUOUS
 62
8
 10
1.1238780063283
 20
8.7743408949038
  0
VERTEX
  8
F-LM-CV
  6
CONTINUOUS
 62
8
 10
1.1402431618954
 20
8.7678201571081
  0
VERTEX
  8
F-LM-CV
  6
CONTINUOUS
 62
8
 10
1.1617475690723
 20
8.7652847290085
  0
VERTEX
  8
F-LM-CV
  6
CONTINUOUS
 62
8
 10
1.1832512431823
 20
8.7678207224543
  0
VERTEX
  8
F-LM-CV
  6
CONTINUOUS
 62
8
 10
1.1996169762455
 20
8.7743413276542
  0
VERTEX
  8
F-LM-CV
  6
CONTINUOUS
 62
8
 10
1.2118294183389
 20
8.7854030740535
  0
VERTEX
  8
F-LM-CV
  6
CONTINUOUS
 62
8
 10
1.1996171862004
 20
8.8180695631107
  0
VERTEX
  8
F-LM-CV
  6
CONTINUOUS
 62
8
 10
1.1832511917989
 20
8.8245904242336
  0
VERTEX
  8
F-LM-CV
  6
CONTINUOUS
 62
8
 10
1.1617473994008
 20
8.827125729007
  0
VERTEX
  8
F-LM-CV
  6
CONTINUOUS
 62
8
 10
1.1402431362525
 20
8.8245902311789
  0
VERTEX
  8
F-LM-CV
  6
CONTINUOUS
 62
8
 10
1.1238778539087
 20
8.8180694777687
  0
VERTEX
  8
F-LM-CV
  6
CONTINUOUS
 62
8
 10
1.1116657741897
 20
8.807007383961
  0
SEQEND
  0
POLYLINE
  8
F-LM-CV
  6
CONTINUOUS
 62
8
 70
0
 66
1
  0
VERTEX
  8
F-LM-CV
  6
CONTINUOUS
 62
8
 10
1.0225250063283
 20
8.7158248949038
  0
VERTEX
  8
F-LM-CV
  6
CONTINUOUS
 62
8
 10
1.0388901618954
 20
8.7093041571081
  0
VERTEX
  8
F-LM-CV
  6
CONTINUOUS
 62
8
 10
1.0603945690723
 20
8.7067687290085
  0
VERTEX
  8
F-LM-CV
  6
CONTINUOUS
 62
8
 10
1.0818982431823
 20
8.7093047224543
  0
VERTEX
  8
F-LM-CV
  6
CONTINUOUS
 62
8
 10
1.0982639762455
 20
8.7158253276542
  0
VERTEX
  8
F-LM-CV
  6
CONTINUOUS
 62
8
 10
1.1104764183389
 20
8.7268870740535
  0
VERTEX
  8
F-LM-CV
  6
CONTINUOUS
 62
8
 10
1.0982641862004
 20
8.7595535631107
  0
VERTEX
  8
F-LM-CV
  6
CONTINUOUS
 62
8
 10
1.0818981917989
 20
8.7660744242336
  0
VERTEX
  8
F-LM-CV
  6
CONTINUOUS
 62
8
 10
1.0603943994008
 20
8.768609729007
  0
VERTEX
  8
F-LM-CV
  6
CONTINUOUS
 62
8
 10
1.0388901362525
 20
8.7660742311789
  0
VERTEX
  8
F-LM-CV
  6
CONTINUOUS
 62
8
 10
1.0225248539087
 20
8.7595534777687
  0
VERTEX
  8
F-LM-CV
  6
CONTINUOUS
 62
8
 10
1.0103127741897
 20
8.748491383961
  0
SEQEND
  0
POLYLINE
  8
F-LM-CV
  6
CONTINUOUS
 62
8
 70
0
 66
1
  0
VERTEX
  8
F-LM-CV
  6
CONTINUOUS
 62
8
 10
0.86725350632827
 20
8.7501248949038
  0
VERTEX
  8
F-LM-CV
  6
CONTINUOUS
 62
8
 10
0.88361866189542
 20
8.7436041571081
  0
VERTEX
  8
F-LM-CV
  6
CONTINUOUS
 62
8
 10
0.90512306907228
 20
8.7410687290085
  0
VERTEX
  8
F-LM-CV
  6
CONTINUOUS
 62
8
 10
0.92662674318226
 20
8.7436047224543
  0
VERTEX
  8
F-LM-CV
  6
CONTINUOUS
 62
8
 10
0.94299247624547
 20
8.7501253276542
  0
VERTEX
  8
F-LM-CV
  6
CONTINUOUS
 62
8
 10
0.95520491833892
 20
8.7611870740535
  0
VERTEX
  8
F-LM-CV
  6
CONTINUOUS
 62
8
 10
0.94299268620036
 20
8.7938535631107
  0
VERTEX
  8
F-LM-CV
  6
CONTINUOUS
 62
8
 10
0.92662669179887
 20
8.8003744242336
  0
VERTEX
  8
F-LM-CV
  6
CONTINUOUS
 62
8
 10
0.90512289940079
 20
8.802909729007
  0
VERTEX
  8
F-LM-CV
  6
CONTINUOUS
 62
8
 10
0.8836186362525
 20
8.8003742311789
  0
VERTEX
  8
F-LM-CV
  6
CONTINUOUS
 62
8
 10
0.86725335390872
 20
8.7938534777687
  0
VERTEX
  8
F-LM-CV
  6
CONTINUOUS
 62
8
 10
0.85504127418971
 20
8.782791383961
  0
SEQEND
  0
POLYLINE
  8
F-LM-CV
  6
CONTINUOUS
 62
8
 70
0
 66
1
  0
VERTEX
  8
F-LM-CV
  6
CONTINUOUS
 62
8
 10
0.97529023038382
 20
8.8124998949048
  0
VERTEX
  8
F-LM-CV
  6
CONTINUOUS
 62
8
 10
0.99165538595097
 20
8.8059791571091
  0
VERTEX
  8
F-LM-CV
  6
CONTINUOUS
 62
8
 10
1.0131597931278
 20
8.8034437290095
  0
VERTEX
  8
F-LM-CV
  6
CONTINUOUS
 62
8
 10
1.0346634672378
 20
8.8059797224553
  0
VERTEX
  8
F-LM-CV
  6
CONTINUOUS
 62
8
 10
1.051029200301
 20
8.8125003276552
  0
VERTEX
  8
F-LM-CV
  6
CONTINUOUS
 62
8
 10
1.0632416423945
 20
8.8235620740545
  0
VERTEX
  8
F-LM-CV
  6
CONTINUOUS
 62
8
 10
1.0510294102559
 20
8.8562285631117
  0
VERTEX
  8
F-LM-CV
  6
CONTINUOUS
 62
8
 10
1.0346634158544
 20
8.8627494242346
  0
VERTEX
  8
F-LM-CV
  6
CONTINUOUS
 62
8
 10
1.0131596234563
 20
8.865284729008
  0
VERTEX
  8
F-LM-CV
  6
CONTINUOUS
 62
8
 10
0.99165536030806
 20
8.8627492311799
  0
VERTEX
  8
F-LM-CV
  6
CONTINUOUS
 62
8
 10
0.97529007796428
 20
8.8562284777697
  0
VERTEX
  8
F-LM-CV
  6
CONTINUOUS
 62
8
 10
0.96307799824526
 20
8.845166383962
  0
SEQEND
  0
POLYLINE
  8
F-LM-CV
  6
CONTINUOUS
 62
8
 70
0
 66
1
  0
VERTEX
  8
F-LM-CV
  6
CONTINUOUS
 62
8
 10
1.0858178986691
 20
8.8763138948804
  0
VERTEX
  8
F-LM-CV
  6
CONTINUOUS
 62
8
 10
1.1021830542362
 20
8.8697931570847
  0
VERTEX
  8
F-LM-CV
  6
CONTINUOUS
 62
8
 10
1.1236874614131
 20
8.867257728985
  0
VERTEX
  8
F-LM-CV
  6
CONTINUOUS
 62
8
 10
1.1451911355231
 20
8.8697937224308
  0
VERTEX
  8
F-LM-CV
  6
CONTINUOUS
 62
8
 10
1.1615568685863
 20
8.8763143276308
  0
VERTEX
  8
F-LM-CV
  6
CONTINUOUS
 62
8
 10
1.1737693106797
 20
8.88737607403
  0
VERTEX
  8
F-LM-CV
  6
CONTINUOUS
 62
8
 10
1.1615570785412
 20
8.9200425630873
  0
VERTEX
  8
F-LM-CV
  6
CONTINUOUS
 62
8
 10
1.1451910841397
 20
8.9265634242102
  0
VERTEX
  8
F-LM-CV
  6
CONTINUOUS
 62
8
 10
1.1236872917416
 20
8.9290987289836
  0
VERTEX
  8
F-LM-CV
  6
CONTINUOUS
 62
8
 10
1.1021830285933
 20
8.9265632311555
  0
VERTEX
  8
F-LM-CV
  6
CONTINUOUS
 62
8
 10
1.0858177462495
 20
8.9200424777452
  0
VERTEX
  8
F-LM-CV
  6
CONTINUOUS
 62
8
 10
1.0736056665305
 20
8.9089803839376
  0
SEQEND
  0
POLYLINE
  8
F-LM-CV
  6
CONTINUOUS
 62
8
 70
0
 66
1
  0
VERTEX
  8
F-LM-CV
  6
CONTINUOUS
 62
8
 10
1.0103610063283
 20
8.9566938949038
  0
VERTEX
  8
F-LM-CV
  6
CONTINUOUS
 62
8
 10
1.0267261618954
 20
8.9501731571081
  0
VERTEX
  8
F-LM-CV
  6
CONTINUOUS
 62
8
 10
1.0482305690723
 20
8.9476377290085
  0
VERTEX
  8
F-LM-CV
  6
CONTINUOUS
 62
8
 10
1.0697342431823
 20
8.9501737224543
  0
VERTEX
  8
F-LM-CV
  6
CONTINUOUS
 62
8
 10
1.0860999762455
 20
8.9566943276542
  0
VERTEX
  8
F-LM-CV
  6
CONTINUOUS
 62
8
 10
1.0983124183389
 20
8.9677560740535
  0
VERTEX
  8
F-LM-CV
  6
CONTINUOUS
 62
8
 10
1.0861001862004
 20
9.0004225631107
  0
VERTEX
  8
F-LM-CV
  6
CONTINUOUS
 62
8
 10
1.0697341917989
 20
9.0069434242336
  0
VERTEX
  8
F-LM-CV
  6
CONTINUOUS
 62
8
 10
1.0482303994008
 20
9.009478729007
  0
VERTEX
  8
F-LM-CV
  6
CONTINUOUS
 62
8
 10
1.0267261362525
 20
9.0069432311789
  0
VERTEX
  8
F-LM-CV
  6
CONTINUOUS
 62
8
 10
1.0103608539087
 20
9.0004224777687
  0
VERTEX
  8
F-LM-CV
  6
CONTINUOUS
 62
8
 10
0.9981487741897
 20
8.989360383961
  0
SEQEND
  0
POLYLINE
  8
F-LM-CV
  6
CONTINUOUS
 62
8
 70
0
 66
1
  0
VERTEX
  8
F-LM-CV
  6
CONTINUOUS
 62
8
 10
0.90919673038383
 20
8.8982868949048
  0
VERTEX
  8
F-LM-CV
  6
CONTINUOUS
 62
8
 10
0.92556188595098
 20
8.8917661571091
  0
VERTEX
  8
F-LM-CV
  6
CONTINUOUS
 62
8
 10
0.94706629312784
 20
8.8892307290095
  0
VERTEX
  8
F-LM-CV
  6
CONTINUOUS
 62
8
 10
0.96856996723782
 20
8.8917667224553
  0
VERTEX
  8
F-LM-CV
  6
CONTINUOUS
 62
8
 10
0.98493570030103
 20
8.8982873276552
  0
VERTEX
  8
F-LM-CV
  6
CONTINUOUS
 62
8
 10
0.99714814239448
 20
8.9093490740545
  0
VERTEX
  8
F-LM-CV
  6
CONTINUOUS
 62
8
 10
0.98493591025592
 20
8.9420155631117
  0
VERTEX
  8
F-LM-CV
  6
CONTINUOUS
 62
8
 10
0.96856991585443
 20
8.9485364242346
  0
VERTEX
  8
F-LM-CV
  6
CONTINUOUS
 62
8
 10
0.94706612345635
 20
8.951071729008
  0
VERTEX
  8
F-LM-CV
  6
CONTINUOUS
 62
8
 10
0.92556186030806
 20
8.9485362311799
  0
VERTEX
  8
F-LM-CV
  6
CONTINUOUS
 62
8
 10
0.90919657796428
 20
8.9420154777697
  0
VERTEX
  8
F-LM-CV
  6
CONTINUOUS
 62
8
 10
0.89698449824526
 20
8.930953383962
  0
SEQEND
  0
POLYLINE
  8
F-LM-CV
  6
CONTINUOUS
 62
8
 70
0
 66
1
  0
VERTEX
  8
F-LM-CV
  6
CONTINUOUS
 62
8
 10
0.70491855057951
 20
8.7780208949038
  0
VERTEX
  8
F-LM-CV
  6
CONTINUOUS
 62
8
 10
0.72128370614666
 20
8.7715001571081
  0
VERTEX
  8
F-LM-CV
  6
CONTINUOUS
 62
8
 10
0.74278811332352
 20
8.7689647290085
  0
VERTEX
  8
F-LM-CV
  6
CONTINUOUS
 62
8
 10
0.7642917874335
 20
8.7715007224543
  0
VERTEX
  8
F-LM-CV
  6
CONTINUOUS
 62
8
 10
0.78065752049671
 20
8.7780213276542
  0
VERTEX
  8
F-LM-CV
  6
CONTINUOUS
 62
8
 10
0.79286996259016
 20
8.7890830740535
  0
VERTEX
  8
F-LM-CV
  6
CONTINUOUS
 62
8
 10
0.7806577304516
 20
8.8217495631107
  0
VERTEX
  8
F-LM-CV
  6
CONTINUOUS
 62
8
 10
0.76429173605011
 20
8.8282704242336
  0
VERTEX
  8
F-LM-CV
  6
CONTINUOUS
 62
8
 10
0.74278794365203
 20
8.830805729007
  0
VERTEX
  8
F-LM-CV
  6
CONTINUOUS
 62
8
 10
0.72128368050375
 20
8.8282702311789
  0
VERTEX
  8
F-LM-CV
  6
CONTINUOUS
 62
8
 10
0.70491839815997
 20
8.8217494777687
  0
VERTEX
  8
F-LM-CV
  6
CONTINUOUS
 62
8
 10
0.69270631844095
 20
8.810687383961
  0
SEQEND
  0
POLYLINE
  8
F-LM-CV
  6
CONTINUOUS
 62
8
 70
0
 66
1
  0
VERTEX
  8
F-LM-CV
  6
CONTINUOUS
 62
8
 10
0.80784450632827
 20
8.8397708949038
  0
VERTEX
  8
F-LM-CV
  6
CONTINUOUS
 62
8
 10
0.82420966189542
 20
8.8332501571081
  0
VERTEX
  8
F-LM-CV
  6
CONTINUOUS
 62
8
 10
0.84571406907228
 20
8.8307147290085
  0
VERTEX
  8
F-LM-CV
  6
CONTINUOUS
 62
8
 10
0.86721774318226
 20
8.8332507224543
  0
VERTEX
  8
F-LM-CV
  6
CONTINUOUS
 62
8
 10
0.88358347624547
 20
8.8397713276542
  0
VERTEX
  8
F-LM-CV
  6
CONTINUOUS
 62
8
 10
0.89579591833892
 20
8.8508330740535
  0
VERTEX
  8
F-LM-CV
  6
CONTINUOUS
 62
8
 10
0.88358368620036
 20
8.8834995631107
  0
VERTEX
  8
F-LM-CV
  6
CONTINUOUS
 62
8
 10
0.86721769179887
 20
8.8900204242336
  0
VERTEX
  8
F-LM-CV
  6
CONTINUOUS
 62
8
 10
0.84571389940079
 20
8.892555729007
  0
VERTEX
  8
F-LM-CV
  6
CONTINUOUS
 62
8
 10
0.82420963625251
 20
8.8900202311789
  0
VERTEX
  8
F-LM-CV
  6
CONTINUOUS
 62
8
 10
0.80784435390872
 20
8.8834994777687
  0
VERTEX
  8
F-LM-CV
  6
CONTINUOUS
 62
8
 10
0.79563227418971
 20
8.872437383961
  0
SEQEND
  0
POLYLINE
  8
F-LM-CV
  6
CONTINUOUS
 62
8
 70
0
 66
1
  0
VERTEX
  8
F-LM-CV
  6
CONTINUOUS
 62
8
 10
0.78329600632827
 20
9.0862978949038
  0
VERTEX
  8
F-LM-CV
  6
CONTINUOUS
 62
8
 10
0.79966116189542
 20
9.0797771571081
  0
VERTEX
  8
F-LM-CV
  6
CONTINUOUS
 62
8
 10
0.82116556907228
 20
9.0772417290085
  0
VERTEX
  8
F-LM-CV
  6
CONTINUOUS
 62
8
 10
0.84266924318226
 20
9.0797777224543
  0
VERTEX
  8
F-LM-CV
  6
CONTINUOUS
 62
8
 10
0.85903497624547
 20
9.0862983276542
  0
VERTEX
  8
F-LM-CV
  6
CONTINUOUS
 62
8
 10
0.87124741833892
 20
9.0973600740535
  0
VERTEX
  8
F-LM-CV
  6
CONTINUOUS
 62
8
 10
0.85903518620036
 20
9.1300265631107
  0
VERTEX
  8
F-LM-CV
  6
CONTINUOUS
 62
8
 10
0.84266919179887
 20
9.1365474242336
  0
VERTEX
  8
F-LM-CV
  6
CONTINUOUS
 62
8
 10
0.82116539940079
 20
9.139082729007
  0
VERTEX
  8
F-LM-CV
  6
CONTINUOUS
 62
8
 10
0.79966113625251
 20
9.1365472311789
  0
VERTEX
  8
F-LM-CV
  6
CONTINUOUS
 62
8
 10
0.78329585390872
 20
9.1300264777687
  0
VERTEX
  8
F-LM-CV
  6
CONTINUOUS
 62
8
 10
0.77108377418971
 20
9.118964383961
  0
SEQEND
  0
POLYLINE
  8
F-LM-CV
  6
CONTINUOUS
 62
8
 70
0
 66
1
  0
VERTEX
  8
F-LM-CV
  6
CONTINUOUS
 62
8
 10
0.87113723038383
 20
9.0002593949048
  0
VERTEX
  8
F-LM-CV
  6
CONTINUOUS
 62
8
 10
0.88750238595098
 20
8.9937386571091
  0
VERTEX
  8
F-LM-CV
  6
CONTINUOUS
 62
8
 10
0.90900679312784
 20
8.9912032290095
  0
VERTEX
  8
F-LM-CV
  6
CONTINUOUS
 62
8
 10
0.93051046723781
 20
8.9937392224553
  0
VERTEX
  8
F-LM-CV
  6
CONTINUOUS
 62
8
 10
0.94687620030103
 20
9.0002598276552
  0
VERTEX
  8
F-LM-CV
  6
CONTINUOUS
 62
8
 10
0.95908864239448
 20
9.0113215740545
  0
VERTEX
  8
F-LM-CV
  6
CONTINUOUS
 62
8
 10
0.94687641025591
 20
9.0439880631117
  0
VERTEX
  8
F-LM-CV
  6
CONTINUOUS
 62
8
 10
0.93051041585442
 20
9.0505089242346
  0
VERTEX
  8
F-LM-CV
  6
CONTINUOUS
 62
8
 10
0.90900662345635
 20
9.053044229008
  0
VERTEX
  8
F-LM-CV
  6
CONTINUOUS
 62
8
 10
0.88750236030806
 20
9.0505087311799
  0
VERTEX
  8
F-LM-CV
  6
CONTINUOUS
 62
8
 10
0.87113707796428
 20
9.0439879777697
  0
VERTEX
  8
F-LM-CV
  6
CONTINUOUS
 62
8
 10
0.85892499824526
 20
9.032925883962
  0
SEQEND
  0
POLYLINE
  8
F-LM-CV
  6
CONTINUOUS
 62
8
 70
0
 66
1
  0
VERTEX
  8
F-LM-CV
  6
CONTINUOUS
 62
8
 10
0.76060900632827
 20
8.9364463949038
  0
VERTEX
  8
F-LM-CV
  6
CONTINUOUS
 62
8
 10
0.77697416189542
 20
8.9299256571081
  0
VERTEX
  8
F-LM-CV
  6
CONTINUOUS
 62
8
 10
0.79847856907228
 20
8.9273902290085
  0
VERTEX
  8
F-LM-CV
  6
CONTINUOUS
 62
8
 10
0.81998224318226
 20
8.9299262224543
  0
VERTEX
  8
F-LM-CV
  6
CONTINUOUS
 62
8
 10
0.83634797624547
 20
8.9364468276542
  0
VERTEX
  8
F-LM-CV
  6
CONTINUOUS
 62
8
 10
0.84856041833892
 20
8.9475085740535
  0
VERTEX
  8
F-LM-CV
  6
CONTINUOUS
 62
8
 10
0.83634818620036
 20
8.9801750631107
  0
VERTEX
  8
F-LM-CV
  6
CONTINUOUS
 62
8
 10
0.81998219179887
 20
8.9866959242336
  0
VERTEX
  8
F-LM-CV
  6
CONTINUOUS
 62
8
 10
0.79847839940079
 20
8.989231229007
  0
VERTEX
  8
F-LM-CV
  6
CONTINUOUS
 62
8
 10
0.7769741362525
 20
8.9866957311789
  0
VERTEX
  8
F-LM-CV
  6
CONTINUOUS
 62
8
 10
0.76060885390872
 20
8.9801749777687
  0
VERTEX
  8
F-LM-CV
  6
CONTINUOUS
 62
8
 10
0.7483967741897
 20
8.969112883961
  0
SEQEND
  0
LINE
  8
F-LM-CV
  6
DIMSTYLE
 62
8
 10
1.752153213448
 20
9.0401358433405
 11
1.752153213448
 21
7.755905511811
  0
LINE
  8
F-LM-CV
  6
DIMSTYLE
 62
8
 10
1.7245941583299
 20
9.0242246163821
 11
1.7245941583299
 21
7.755905511811
  0
LINE
  8
F-LM-CV
  6
DIMSTYLE
 62
8
 10
1.6970351032118
 20
9.0083133894236
 11
1.6970351032118
 21
7.755905511811
  0
LINE
  8
F-LM-CV
  6
CONTINUOUS
 62
8
 10
1.8071030434999
 20
7.8317326467521
 11
1.6757665931896
 21
7.755905511811
  0
LINE
  8
F-LM-CV
  6
CONTINUOUS
 62
8
 10
1.8071030434999
 20
7.9271271466412
 11
1.6694760480937
 21
7.8476681637957
  0
LINE
  8
F-LM-CV
  6
CONTINUOUS
 62
8
 10
1.8071030434999
 20
8.0225216465304
 11
1.6694760480937
 21
7.9430626636848
  0
LINE
  8
F-LM-CV
  6
CONTINUOUS
 62
8
 10
1.8071030434999
 20
8.1179161464195
 11
1.6694760480937
 21
8.0384571635739
  0
LINE
  8
F-LM-CV
  6
CONTINUOUS
 62
8
 10
1.8071030434999
 20
8.2133106463087
 11
1.6694760480937
 21
8.1338516634631
  0
LINE
  8
F-LM-CV
  6
CONTINUOUS
 62
8
 10
1.8071030434999
 20
8.3087051461978
 11
1.6694760480937
 21
8.2292461633522
  0
LINE
  8
F-LM-CV
  6
CONTINUOUS
 62
8
 10
1.8071030434999
 20
8.4040996460869
 11
1.6694760480937
 21
8.3246406632414
  0
LINE
  8
F-LM-CV
  6
CONTINUOUS
 62
8
 10
1.8071030434999
 20
8.499494145976
 11
1.6694760480937
 21
8.4200351631305
  0
LINE
  8
F-LM-CV
  6
CONTINUOUS
 62
8
 10
1.8071030434999
 20
8.5948886458652
 11
1.6694760480937
 21
8.5154296630196
  0
LINE
  8
F-LM-CV
  6
CONTINUOUS
 62
8
 10
1.8071030434999
 20
8.6902831457543
 11
1.6694760480937
 21
8.6108241629087
  0
LINE
  8
F-LM-CV
  6
CONTINUOUS
 62
8
 10
1.8071030434999
 20
8.7856776456434
 11
1.6694760480936
 21
8.7062186627978
  0
LINE
  8
F-LM-CV
  6
CONTINUOUS
 62
8
 10
1.8071030434999
 20
8.8810721455325
 11
1.6694760480936
 21
8.801613162687
  0
LINE
  8
F-LM-CV
  6
CONTINUOUS
 62
8
 10
1.8071030434999
 20
8.9764666454217
 11
1.6694760480936
 21
8.8970076625761
  0
LINE
  8
F-LM-CV
  6
CONTINUOUS
 62
8
 10
1.8071030434999
 20
9.0241638953662
 11
1.6694760480936
 21
8.9447049125206
  0
LINE
  8
F-LM-CV
  6
CONTINUOUS
 62
8
 10
1.8071030434999
 20
8.9287693954771
 11
1.6694760480936
 21
8.8493104126315
  0
LINE
  8
F-LM-CV
  6
CONTINUOUS
 62
8
 10
1.8071030434999
 20
7.7840353968076
 11
1.7583806534749
 21
7.755905511811
  0
LINE
  8
F-LM-CV
  6
CONTINUOUS
 62
8
 10
1.8071030434999
 20
7.8794298966967
 11
1.6694760480937
 21
7.7999709138511
  0
LINE
  8
F-LM-CV
  6
CONTINUOUS
 62
8
 10
1.8071030434999
 20
7.9748243965858
 11
1.6694760480937
 21
7.8953654137402
  0
LINE
  8
F-LM-CV
  6
CONTINUOUS
 62
8
 10
1.8071030434999
 20
8.0702188964749
 11
1.6694760480937
 21
7.9907599136294
  0
LINE
  8
F-LM-CV
  6
CONTINUOUS
 62
8
 10
1.8071030434999
 20
8.1656133963641
 11
1.6694760480937
 21
8.0861544135186
  0
LINE
  8
F-LM-CV
  6
CONTINUOUS
 62
8
 10
1.8071030434999
 20
8.2610078962532
 11
1.6694760480937
 21
8.1815489134077
  0
LINE
  8
F-LM-CV
  6
CONTINUOUS
 62
8
 10
1.8071030434999
 20
8.3564023961424
 11
1.6694760480937
 21
8.2769434132968
  0
LINE
  8
F-LM-CV
  6
CONTINUOUS
 62
8
 10
1.8071030434999
 20
8.4517968960315
 11
1.6694760480937
 21
8.3723379131859
  0
LINE
  8
F-LM-CV
  6
CONTINUOUS
 62
8
 10
1.8071030434999
 20
8.5471913959206
 11
1.6694760480937
 21
8.467732413075
  0
LINE
  8
F-LM-CV
  6
CONTINUOUS
 62
8
 10
1.8071030434999
 20
8.6425858958097
 11
1.6694760480937
 21
8.5631269129642
  0
LINE
  8
F-LM-CV
  6
CONTINUOUS
 62
8
 10
1.8071030434999
 20
8.7379803956988
 11
1.6694760480937
 21
8.6585214128533
  0
LINE
  8
F-LM-CV
  6
CONTINUOUS
 62
8
 10
1.8071030434999
 20
8.833374895588
 11
1.6694760480936
 21
8.7539159127424
  0
LINE
  8
F-LM-CV
  6
DIMSTYLE
 62
8
 10
1.7796281284739
 20
9.0559984919969
 11
1.7796281284742
 21
7.755905511811
  0
LINE
  8
F-LM-CV
  6
DIMSTYLE
 62
8
 10
1.8071030434999
 20
9.0718611406534
 11
1.8071030434999
 21
7.755905511811
  0
POLYLINE
  8
F-LM-CV
  6
CONTINUOUS
 62
8
 70
0
 66
1
  0
VERTEX
  8
F-LM-CV
  6
CONTINUOUS
 62
8
 10
0.71102398416567
 20
9.176555771162
  0
VERTEX
  8
F-LM-CV
  6
CONTINUOUS
 62
8
 10
0.73072328202168
 20
9.1622290090849
  0
SEQEND
  0
POLYLINE
  8
F-LM-CV
  6
CONTINUOUS
 62
8
 70
0
 66
1
  0
VERTEX
  8
F-LM-CV
  6
CONTINUOUS
 62
8
 10
0.71102398416567
 20
8.9240465895532
  0
VERTEX
  8
F-LM-CV
  6
CONTINUOUS
 62
8
 10
0.7271415915024
 20
8.9168832085146
  0
VERTEX
  8
F-LM-CV
  6
CONTINUOUS
 62
8
 10
0.73967750831987
 20
8.9061381369568
  0
VERTEX
  8
F-LM-CV
  6
CONTINUOUS
 62
8
 10
0.71997821046386
 20
8.870321231764
  0
SEQEND
  0
POLYLINE
  8
F-LM-CV
  6
CONTINUOUS
 62
8
 70
0
 66
1
  0
VERTEX
  8
F-LM-CV
  6
CONTINUOUS
 62
8
 10
0.71997821046386
 20
9.0798501271416
  0
VERTEX
  8
F-LM-CV
  6
CONTINUOUS
 62
8
 10
0.7414683535795
 20
9.078059281882
  0
VERTEX
  8
F-LM-CV
  6
CONTINUOUS
 62
8
 10
0.75758596091624
 20
9.0708959008434
  0
VERTEX
  8
F-LM-CV
  6
CONTINUOUS
 62
8
 10
0.76833103247406
 20
9.0601508292856
  0
VERTEX
  8
F-LM-CV
  6
CONTINUOUS
 62
8
 10
0.76295849669515
 20
9.0314973051314
  0
VERTEX
  8
F-LM-CV
  6
CONTINUOUS
 62
8
 10
0.7414683535795
 20
9.0207522335736
  0
VERTEX
  8
F-LM-CV
  6
CONTINUOUS
 62
8
 10
0.71997821046386
 20
9.0171705430543
  0
VERTEX
  8
F-LM-CV
  6
CONTINUOUS
 62
8
 10
0.69848806734821
 20
9.0207522335736
  0
SEQEND
  0
LINE
  8
F-LM-CV
  6
CONTINUOUS
 62
8
 10
1.3838710885829
 20
8.342047277086
 11
1.3752009285456
 21
8.3463823571047
  0
LINE
  8
F-LM-CV
  6
CONTINUOUS
 62
8
 10
0.95694159626431
 20
8.3155595785561
 11
1.4332555962643
 21
8.5905595785561
  0
LINE
  8
F-LM-CV
  6
CONTINUOUS
 62
8
 10
1.4332555962643
 20
8.5905595785561
 11
1.4332555962643
 21
8.3705594342185
  0
LINE
  8
F-LM-CV
  6
CONTINUOUS
 62
8
 10
1.4332555962643
 20
8.3705594342185
 11
0.95694159626431
 21
8.0955594342185
  0
LINE
  8
F-LM-CV
  6
CONTINUOUS
 62
8
 10
0.95694159626431
 20
8.0955594342185
 11
0.95694159626431
 21
8.3155595785561
  0
LINE
  8
F-LM-CV
  6
CONTINUOUS
 62
8
 10
1.2066108768222
 20
8.239706052108
 11
1.2066108768222
 21
8.4597061964456
  0
LINE
  8
F-LM-CV
  6
CONTINUOUS
 62
8
 10
1.2820167997879
 20
8.2832416794789
 11
1.2820167997879
 21
8.5032418238166
  0
POLYLINE
  8
F-LM-CV
  6
CONTINUOUS
 62
8
 70
0
 66
1
  0
VERTEX
  8
F-LM-CV
  6
CONTINUOUS
 62
8
 10
1.2443395219314
 20
8.2932199106676
  0
VERTEX
  8
F-LM-CV
  6
CONTINUOUS
 62
8
 10
1.2647866167149
 20
8.2904936313632
  0
VERTEX
  8
F-LM-CV
  6
CONTINUOUS
 62
8
 10
1.2820167997879
 20
8.2832416794789
  0
SEQEND
  0
LINE
  8
F-LM-CV
  6
CONTINUOUS
 62
8
 10
1.3084651656172
 20
8.2985116497151
 11
1.3084651656172
 21
8.5185117940527
  0
POLYLINE
  8
F-LM-CV
  6
CONTINUOUS
 62
8
 70
0
 66
1
  0
VERTEX
  8
F-LM-CV
  6
CONTINUOUS
 62
8
 10
1.3461938107265
 20
8.3520255082748
  0
VERTEX
  8
F-LM-CV
  6
CONTINUOUS
 62
8
 10
1.3666409055099
 20
8.3492992289703
  0
VERTEX
  8
F-LM-CV
  6
CONTINUOUS
 62
8
 10
1.3838710885829
 20
8.342047277086
  0
SEQEND
  0
LINE
  8
F-LM-CV
  6
CONTINUOUS
 62
8
 10
1.3838710885829
 20
8.342047277086
 11
1.3838710885829
 21
8.5620474214237
  0
LINE
  8
F-LM-CV
  6
CONTINUOUS
 62
8
 10
1.1047565880271
 20
8.1809004545009
 11
1.1047565880271
 21
8.4009005988385
  0
POLYLINE
  8
F-LM-CV
  6
CONTINUOUS
 62
8
 70
0
 66
1
  0
VERTEX
  8
F-LM-CV
  6
CONTINUOUS
 62
8
 10
1.1424852331364
 20
8.2344143130605
  0
VERTEX
  8
F-LM-CV
  6
CONTINUOUS
 62
8
 10
1.1629323279198
 20
8.2316880337561
  0
VERTEX
  8
F-LM-CV
  6
CONTINUOUS
 62
8
 10
1.1801625109928
 20
8.2244360818718
  0
SEQEND
  0
LINE
  8
F-LM-CV
  6
CONTINUOUS
 62
8
 10
1.1801625109928
 20
8.2244360818718
 11
1.1801625109928
 21
8.4444362262094
  0
LINE
  8
F-LM-CV
  6
CONTINUOUS
 62
8
 10
1.0029022992321
 20
8.1220948568937
 11
1.0029022992321
 21
8.3420950012314
  0
POLYLINE
  8
F-LM-CV
  6
CONTINUOUS
 62
8
 70
0
 66
1
  0
VERTEX
  8
F-LM-CV
  6
CONTINUOUS
 62
8
 10
1.0406309443413
 20
8.1756087154534
  0
VERTEX
  8
F-LM-CV
  6
CONTINUOUS
 62
8
 10
1.0610780391248
 20
8.1728824361489
  0
VERTEX
  8
F-LM-CV
  6
CONTINUOUS
 62
8
 10
1.0783082221978
 20
8.1656304842647
  0
SEQEND
  0
LINE
  8
F-LM-CV
  6
CONTINUOUS
 62
8
 10
1.0783082221978
 20
8.1656304842647
 11
1.0783082221978
 21
8.3856306286023
  0
LINE
  8
F-LM-CV
  6
CONTINUOUS
 62
8
 10
1.0029022992321
 20
7.755905511811
 11
1.0029022992321
 21
7.8172642720401
  0
LINE
  8
F-LM-CV
  6
CONTINUOUS
 62
8
 10
1.0783082221978
 20
7.755905511811
 11
1.0783082221978
 21
7.860799899411
  0
LINE
  8
F-LM-CV
  6
CONTINUOUS
 62
8
 10
1.1047565880271
 20
7.755905511811
 11
1.1047565880271
 21
7.8760698696472
  0
LINE
  8
F-LM-CV
  6
CONTINUOUS
 62
8
 10
1.1801625109928
 20
7.755905511811
 11
1.1801625109928
 21
7.9196054970181
  0
LINE
  8
F-LM-CV
  6
CONTINUOUS
 62
8
 10
1.2066108768222
 20
7.755905511811
 11
1.2066108768222
 21
7.9348754672543
  0
POLYLINE
  8
F-LM-CV
  6
CONTINUOUS
 62
8
 70
0
 66
1
  0
VERTEX
  8
F-LM-CV
  6
CONTINUOUS
 62
8
 10
1.2443395219314
 20
7.7683891814764
  0
VERTEX
  8
F-LM-CV
  6
CONTINUOUS
 62
8
 10
1.2647866167149
 20
7.7656629021719
  0
VERTEX
  8
F-LM-CV
  6
CONTINUOUS
 62
8
 10
1.2820167997879
 20
7.7584109502876
  0
SEQEND
  0
LINE
  8
F-LM-CV
  6
CONTINUOUS
 62
8
 10
1.2820167997879
 20
7.7584109502876
 11
1.2820167997879
 21
7.9784110946253
  0
LINE
  8
F-LM-CV
  6
CONTINUOUS
 62
8
 10
1.3084651656172
 20
7.7736809205238
 11
1.3084651656172
 21
7.9936810648615
  0
POLYLINE
  8
F-LM-CV
  6
CONTINUOUS
 62
8
 70
0
 66
1
  0
VERTEX
  8
F-LM-CV
  6
CONTINUOUS
 62
8
 10
1.3461938107265
 20
7.8271947790835
  0
VERTEX
  8
F-LM-CV
  6
CONTINUOUS
 62
8
 10
1.3666409055099
 20
7.824468499779
  0
VERTEX
  8
F-LM-CV
  6
CONTINUOUS
 62
8
 10
1.3838710885829
 20
7.8172165478948
  0
SEQEND
  0
LINE
  8
F-LM-CV
  6
CONTINUOUS
 62
8
 10
1.3838710885829
 20
7.8172165478948
 11
1.3838710885829
 21
8.0372166922324
  0
LINE
  8
F-LM-CV
  6
CONTINUOUS
 62
8
 10
1.3587661951608
 20
9.3307086614173
 11
1.8071030434999
 21
9.0718611406534
  0
LINE
  8
F-LM-CV
  6
CONTINUOUS
 62
8
 10
0.70866142420645
 20
9.3198257207677
 11
1.4726256715692
 21
8.8787505512502
  0
LINE
  8
F-LM-CV
  6
CONTINUOUS
 62
8
 10
1.4726256750045
 20
8.8787505532336
 11
1.4726256750045
 21
7.755905511811
  0
LINE
  8
F-LM-CV
  6
CONTINUOUS
 62
8
 10
1.4332555962643
 20
8.8560202290073
 11
1.4332555962643
 21
8.6360202290073
  0
LINE
  8
F-LM-CV
  6
CONTINUOUS
 62
8
 10
1.4647516592564
 20
8.8742044883883
 11
1.4647516592564
 21
7.755905511811
  0
LINE
  8
F-LM-CV
  6
CONTINUOUS
 62
8
 10
1.4568776435084
 20
8.8696584235431
 11
1.4568776435084
 21
7.755905511811
  0
LINE
  8
F-LM-CV
  6
CONTINUOUS
 62
8
 10
1.4490036277604
 20
8.8651123586978
 11
1.4490036277604
 21
7.755905511811
  0
LINE
  8
F-LM-CV
  6
CONTINUOUS
 62
8
 10
1.4411296120123
 20
8.8605662938525
 11
1.4411296120123
 21
7.755905511811
  0
ENDSEC
  0
EOF
