  0
SECTION
  2
HEADER
  9
$EXTMIN
 10
3.2366005424607
 20
8.1561340478832
  9
$EXTMAX
 10
4.811403692067
 20
9.7309371974895
  9
$LIMMIN
 10
0
 20
0
  9
$LIMMAX
 10
8.27
 20
11.69
  0
ENDSEC
  0
SECTION
  2
TABLES
  0
TABLE
  2
LTYPE
 70
9
  0
LTYPE
  2
CONTINUOUS
  3
___________________________
 70
64
 72
65
 73
0
 40
0
  0
LTYPE
  2
HIDDEN
  3
_ _ _ _ _ _ _ _ _ _ _ _ _ _ 
 70
64
 72
65
 73
2
 49
0.25
 49
-0.125
 40
0.375
  0
LTYPE
  2
DASHED
  3
__ __ __ __ __ __ __ __ __ 
 70
64
 72
65
 73
2
 49
0.5
 49
-0.25
 40
0.75
  0
LTYPE
  2
CENTER
  3
____ _ ____ _ ____ _ ____ _ 
 70
64
 72
65
 73
4
 49
1.25
 49
-0.25
 49
0.25
 49
-0.25
 40
2
  0
LTYPE
  2
PHANTOM
  3
_____ _ _ _____ _ _ _____ _ _ 
 70
64
 72
65
 73
6
 49
1.25
 49
-0.25
 49
0.25
 49
-0.25
 49
0.25
 49
-0.25
 40
2.5
  0
LTYPE
  2
DOT
  3
...........................
 70
64
 72
65
 73
2
 49
0
 49
-0.25
 40
0.25
  0
LTYPE
  2
DASHDOT
  3
__ . __ . __ . __ . __ . __ . 
 70
64
 72
65
 73
4
 49
0.5
 49
-0.25
 49
0
 49
-0.25
 40
1
  0
LTYPE
  2
DIVIDE
  3
__ . . __ . . __ . . __ . . 
 70
64
 72
65
 73
6
 49
0.5
 49
-0.25
 49
0
 49
-0.25
 49
0
 49
-0.25
 40
1.25
  0
LTYPE
  2
BORDER
  3
__ __ . __ __ . __ __ . __ __ . 
 70
64
 72
65
 73
6
 49
0.5
 49
-0.25
 49
0.5
 49
-0.25
 49
0
 49
-0.25
 40
1.75
  0
ENDTAB
  0
TABLE
  2
LAYER
 70
1
  0
LAYER
  2
ECSC.3
 62
7
  6
CONTINUOUS
 70
0
  0
ENDTAB
  0
TABLE
  2
STYLE
 70
5
  0
STYLE
  2
ptmarker
 70
1
 40
0
 50
0
 71
0
 41
0
 42
0
  3
ptmarks
  0
STYLE
  2
TXT
 70
0
 40
0
 50
0
 71
0
 41
0
 42
0
  3
TXT
  0
STYLE
  2
ITALIC
 70
0
 40
0
 50
0
 71
0
 41
0
 42
0
  3
ITALIC
  0
STYLE
  2
SIMPLEX
 70
0
 40
0
 50
0
 71
0
 41
0
 42
0
  3
SIMPLEX
  0
STYLE
  2
COMPLEX
 70
0
 40
0
 50
0
 71
0
 41
0
 42
0
  3
COMPLEX
  0
ENDTAB
  0
ENDSEC
  0
SECTION
  2
BLOCKS
  0
ENDSEC
  0
SECTION
  2
ENTITIES
  0
LINE
  8
ECSC.3
  6
CONTINUOUS
 62
8
 10
3.2366005424607
 20
9.5361196967446
 11
3.305347183815
 21
9.4964288048528
  0
LINE
  8
ECSC.3
  6
CONTINUOUS
 62
8
 10
3.2366005424607
 20
9.4224680689513
 11
3.305347183815
 21
9.3827771770595
  0
LINE
  8
ECSC.3
  6
CONTINUOUS
 62
8
 10
3.2366005424607
 20
9.3088164411581
 11
3.305347183815
 21
9.2691255492663
  0
LINE
  8
ECSC.3
  6
CONTINUOUS
 62
8
 10
3.2366005424607
 20
9.1951648133649
 11
3.305347183815
 21
9.1554739214731
  0
LINE
  8
ECSC.3
  6
CONTINUOUS
 62
8
 10
3.2366005424607
 20
9.0744465743783
 11
3.305347183815
 21
9.0347556824865
  0
LINE
  8
ECSC.3
  6
CONTINUOUS
 62
8
 10
3.2366005424607
 20
8.9607949465851
 11
3.305347183815
 21
8.9211040546932
  0
LINE
  8
ECSC.3
  6
CONTINUOUS
 62
8
 10
4.2662918699707
 20
8.3663023814649
 11
4.6303141018762
 21
8.1561340478832
  0
LINE
  8
ECSC.3
  6
CONTINUOUS
 62
8
 10
4.2662918699707
 20
8.4870206204515
 11
4.811403692067
 21
8.1723001632258
  0
LINE
  8
ECSC.3
  6
CONTINUOUS
 62
8
 10
4.2662918699707
 20
8.6006722482447
 11
4.811403692067
 21
8.285951791019
  0
LINE
  8
ECSC.3
  6
CONTINUOUS
 62
8
 10
4.2662918699707
 20
8.7143238760379
 11
4.811403692067
 21
8.3996034188122
  0
LINE
  8
ECSC.3
  6
CONTINUOUS
 62
8
 10
4.2662918699707
 20
8.8279755038312
 11
4.811403692067
 21
8.5132550466055
  0
LINE
  8
ECSC.3
  6
CONTINUOUS
 62
8
 10
4.2662918699707
 20
8.9416271316244
 11
4.811403692067
 21
8.6269066743987
  0
LINE
  8
ECSC.3
  6
CONTINUOUS
 62
8
 10
3.2366005424607
 20
9.2519906272615
 11
3.305347183815
 21
9.2122997353697
  0
LINE
  8
ECSC.3
  6
CONTINUOUS
 62
8
 10
3.2366005424607
 20
9.3656422550547
 11
3.305347183815
 21
9.3259513631629
  0
LINE
  8
ECSC.3
  6
CONTINUOUS
 62
8
 10
3.2366005424607
 20
9.479293882848
 11
3.305347183815
 21
9.4396029909561
  0
LINE
  8
ECSC.3
  6
CONTINUOUS
 62
8
 10
3.2366005424607
 20
9.1312723882749
 11
3.305347183815
 21
9.0915814963831
  0
LINE
  8
ECSC.3
  6
CONTINUOUS
 62
8
 10
3.2366005424607
 20
9.0176207604817
 11
3.305347183815
 21
8.9779298685899
  0
LINE
  8
ECSC.3
  6
CONTINUOUS
 62
8
 10
4.2662918699707
 20
8.4231281953615
 11
4.7287392987266
 21
8.1561340478832
  0
LINE
  8
ECSC.3
  6
CONTINUOUS
 62
8
 10
4.2662918699707
 20
8.5438464343481
 11
4.811403692067
 21
8.2291259771224
  0
LINE
  8
ECSC.3
  6
CONTINUOUS
 62
8
 10
4.2662918699707
 20
8.6574980621413
 11
4.811403692067
 21
8.3427776049156
  0
LINE
  8
ECSC.3
  6
CONTINUOUS
 62
8
 10
4.2662918699707
 20
8.7711496899346
 11
4.811403692067
 21
8.4564292327088
  0
LINE
  8
ECSC.3
  6
CONTINUOUS
 62
8
 10
4.2662918699707
 20
8.8848013177278
 11
4.811403692067
 21
8.5700808605021
  0
LINE
  8
ECSC.3
  6
CONTINUOUS
 62
8
 10
4.4177029046654
 20
8.1561340478832
 11
4.4747959048456
 21
8.1890967069061
  0
LINE
  8
ECSC.3
  6
CONTINUOUS
 62
8
 10
3.2366005424607
 20
8.8380438146426
 11
3.2936935426409
 21
8.8710064736655
  0
LINE
  8
ECSC.3
  6
CONTINUOUS
 62
8
 10
3.2366005424607
 20
8.7243921868494
 11
3.3921187394913
 21
8.8141806597689
  0
LINE
  8
ECSC.3
  6
CONTINUOUS
 62
8
 10
3.2366005424607
 20
8.6107405590562
 11
3.4905439363417
 21
8.7573548458723
  0
LINE
  8
ECSC.3
  6
CONTINUOUS
 62
8
 10
3.2366005424607
 20
8.4970889312629
 11
3.5889691331921
 21
8.7005290319757
  0
LINE
  8
ECSC.3
  6
CONTINUOUS
 62
8
 10
3.2366005424607
 20
8.3834373034697
 11
3.6873943300425
 21
8.6437032180791
  0
LINE
  8
ECSC.3
  6
CONTINUOUS
 62
8
 10
4.2208525109646
 20
8.1561340478832
 11
4.3763707079952
 21
8.2459225208027
  0
LINE
  8
ECSC.3
  6
CONTINUOUS
 62
8
 10
4.0240021172638
 20
8.1561340478832
 11
4.2779455111449
 21
8.3027483346994
  0
LINE
  8
ECSC.3
  6
CONTINUOUS
 62
8
 10
3.8271517235631
 20
8.1561340478832
 11
4.1795203142945
 21
8.359574148596
  0
LINE
  8
ECSC.3
  6
CONTINUOUS
 62
8
 10
3.6303013298623
 20
8.1561340478832
 11
4.0810951174441
 21
8.4163999624926
  0
LINE
  8
ECSC.3
  6
CONTINUOUS
 62
8
 10
3.4334509361615
 20
8.1561340478832
 11
3.9826699205937
 21
8.4732257763892
  0
LINE
  8
ECSC.3
  6
CONTINUOUS
 62
8
 10
3.2366005424607
 20
8.1561340478832
 11
3.8842447237433
 21
8.5300515902858
  0
CIRCLE
  8
ECSC.3
  6
CONTINUOUS
 62
8
 10
4.1294175542454
 20
8.5645503211203
 40
0.0039370078740157
  0
CIRCLE
  8
ECSC.3
  6
CONTINUOUS
 62
8
 10
4.160233770035
 20
8.5432160178813
 40
0.0039370078740157
  0
CIRCLE
  8
ECSC.3
  6
CONTINUOUS
 62
8
 10
4.1079932269799
 20
8.9469228547589
 40
0.0039370078740157
  0
CIRCLE
  8
ECSC.3
  6
CONTINUOUS
 62
8
 10
4.0937703581539
 20
9.0014438519252
 40
0.0039370078740157
  0
CIRCLE
  8
ECSC.3
  6
CONTINUOUS
 62
8
 10
3.4182741129455
 20
9.0173116454145
 40
0.0039370078740157
  0
CIRCLE
  8
ECSC.3
  6
CONTINUOUS
 62
8
 10
3.6720368861536
 20
9.222620532846
 40
0.0039370078740157
  0
CIRCLE
  8
ECSC.3
  6
CONTINUOUS
 62
8
 10
3.7871712821131
 20
9.1307834572684
 40
0.0039370078740157
  0
CIRCLE
  8
ECSC.3
  6
CONTINUOUS
 62
8
 10
3.6292466671978
 20
9.0694621644432
 40
0.0039370078740157
  0
CIRCLE
  8
ECSC.3
  6
CONTINUOUS
 62
8
 10
3.9113335655801
 20
8.7992276567492
 40
0.0039370078740157
  0
CIRCLE
  8
ECSC.3
  6
CONTINUOUS
 62
8
 10
4.1791075711099
 20
8.9042542482809
 40
0.0039370078740157
  0
CIRCLE
  8
ECSC.3
  6
CONTINUOUS
 62
8
 10
3.8270814087387
 20
9.1243206227367
 40
0.0039370078740157
  0
CIRCLE
  8
ECSC.3
  6
CONTINUOUS
 62
8
 10
3.7122134020161
 20
9.0173116454145
 40
0.0039370078740157
  0
CIRCLE
  8
ECSC.3
  6
CONTINUOUS
 62
8
 10
3.4016807659819
 20
8.9793839952119
 40
0.0039370078740157
  0
CIRCLE
  8
ECSC.3
  6
CONTINUOUS
 62
8
 10
3.3508959050833
 20
9.4079493325991
 40
0.0039370078740157
  0
CIRCLE
  8
ECSC.3
  6
CONTINUOUS
 62
8
 10
3.4243807273509
 20
9.2396453848248
 40
0.0039370078740157
  0
CIRCLE
  8
ECSC.3
  6
CONTINUOUS
 62
8
 10
3.4941294133509
 20
9.0433869049288
 40
0.0039370078740157
  0
CIRCLE
  8
ECSC.3
  6
CONTINUOUS
 62
8
 10
3.5818371044445
 20
8.8869353478429
 40
0.0039370078740157
  0
CIRCLE
  8
ECSC.3
  6
CONTINUOUS
 62
8
 10
3.7169543582915
 20
8.8774534352922
 40
0.0039370078740157
  0
CIRCLE
  8
ECSC.3
  6
CONTINUOUS
 62
8
 10
3.9492612157827
 20
8.6427760996633
 40
0.0039370078740157
  0
CIRCLE
  8
ECSC.3
  6
CONTINUOUS
 62
8
 10
4.0843784696297
 20
8.7304837907569
 40
0.0039370078740157
  0
CIRCLE
  8
ECSC.3
  6
CONTINUOUS
 62
8
 10
4.0961408362916
 20
8.9208475952446
 40
0.0039370078740157
  0
CIRCLE
  8
ECSC.3
  6
CONTINUOUS
 62
8
 10
3.403046424112
 20
9.3866150293601
 40
0.0039370078740157
  0
CIRCLE
  8
ECSC.3
  6
CONTINUOUS
 62
8
 10
3.6008009295458
 20
9.2022089401525
 40
0.0039370078740157
  0
LINE
  8
ECSC.3
  6
CONTINUOUS
 62
8
 10
3.7679237538702
 20
8.784694889245
 11
3.77608507567
 21
8.8090174555202
  0
LINE
  8
ECSC.3
  6
CONTINUOUS
 62
8
 10
3.7479018101443
 20
8.7982012992483
 11
3.7679225463954
 21
8.7846973041945
  0
LINE
  8
ECSC.3
  6
CONTINUOUS
 62
8
 10
3.7479018101443
 20
8.7982012992483
 11
3.7760834657037
 21
8.8090194679781
  0
POLYLINE
  8
ECSC.3
  6
CONTINUOUS
 62
8
 70
1
 66
1
  0
VERTEX
  8
ECSC.3
  6
CONTINUOUS
 62
8
 10
3.9844505749095
 20
8.9114750825371
  0
VERTEX
  8
ECSC.3
  6
CONTINUOUS
 62
8
 10
3.9226254007952
 20
8.9332590631267
  0
VERTEX
  8
ECSC.3
  6
CONTINUOUS
 62
8
 10
3.9413145013798
 20
8.8969039554934
  0
VERTEX
  8
ECSC.3
  6
CONTINUOUS
 62
8
 10
3.939757076331
 20
8.8383318376398
  0
VERTEX
  8
ECSC.3
  6
CONTINUOUS
 62
8
 10
3.9715471949129
 20
8.8525500863981
  0
VERTEX
  8
ECSC.3
  6
CONTINUOUS
 62
8
 10
3.9844505749095
 20
8.9114750825371
  0
SEQEND
  0
POLYLINE
  8
ECSC.3
  6
CONTINUOUS
 62
8
 70
1
 66
1
  0
VERTEX
  8
ECSC.3
  6
CONTINUOUS
 62
8
 10
3.4630805334269
 20
9.2623242903649
  0
VERTEX
  8
ECSC.3
  6
CONTINUOUS
 62
8
 10
3.4897899821951
 20
9.2042128499973
  0
VERTEX
  8
ECSC.3
  6
CONTINUOUS
 62
8
 10
3.5101310235024
 20
9.2464869624586
  0
VERTEX
  8
ECSC.3
  6
CONTINUOUS
 62
8
 10
3.4959081546764
 20
9.272917749903
  0
VERTEX
  8
ECSC.3
  6
CONTINUOUS
 62
8
 10
3.4970933937453
 20
9.3155006852301
  0
VERTEX
  8
ECSC.3
  6
CONTINUOUS
 62
8
 10
3.4729003254642
 20
9.3051637742641
  0
VERTEX
  8
ECSC.3
  6
CONTINUOUS
 62
8
 10
3.4630805334269
 20
9.2623242903649
  0
SEQEND
  0
POLYLINE
  8
ECSC.3
  6
CONTINUOUS
 62
8
 70
1
 66
1
  0
VERTEX
  8
ECSC.3
  6
CONTINUOUS
 62
8
 10
3.4971541302514
 20
8.9269323662139
  0
VERTEX
  8
ECSC.3
  6
CONTINUOUS
 62
8
 10
3.5276558584029
 20
8.9316659532177
  0
VERTEX
  8
ECSC.3
  6
CONTINUOUS
 62
8
 10
3.5316385301625
 20
8.9438788136512
  0
VERTEX
  8
ECSC.3
  6
CONTINUOUS
 62
8
 10
3.5515518889608
 20
8.9552774833891
  0
VERTEX
  8
ECSC.3
  6
CONTINUOUS
 62
8
 10
3.5333300654015
 20
8.9607212800799
  0
VERTEX
  8
ECSC.3
  6
CONTINUOUS
 62
8
 10
3.4971541302514
 20
8.9269323662139
  0
SEQEND
  0
POLYLINE
  8
ECSC.3
  6
CONTINUOUS
 62
8
 70
1
 66
1
  0
VERTEX
  8
ECSC.3
  6
CONTINUOUS
 62
8
 10
3.6168973737107
 20
9.1055260063991
  0
VERTEX
  8
ECSC.3
  6
CONTINUOUS
 62
8
 10
3.6594702634531
 20
9.0938355911229
  0
VERTEX
  8
ECSC.3
  6
CONTINUOUS
 62
8
 10
3.6515001715704
 20
9.1253606671055
  0
VERTEX
  8
ECSC.3
  6
CONTINUOUS
 62
8
 10
3.6309369877256
 20
9.1294769594419
  0
VERTEX
  8
ECSC.3
  6
CONTINUOUS
 62
8
 10
3.6117446828038
 20
9.1500584211238
  0
VERTEX
  8
ECSC.3
  6
CONTINUOUS
 62
8
 10
3.6025787881491
 20
9.1312252465118
  0
VERTEX
  8
ECSC.3
  6
CONTINUOUS
 62
8
 10
3.6168973737107
 20
9.1055260063991
  0
SEQEND
  0
ARC
  8
ECSC.3
  6
CONTINUOUS
 62
8
 10
4.2095846956157
 20
8.4495792900274
 40
0.0064811580957102
 50
300
 51
120.00000000001
  0
LINE
  8
ECSC.3
  6
CONTINUOUS
 62
8
 10
4.0972923642465
 20
8.3922310790259
 11
4.2063441165679
 21
8.4551921375842
  0
LINE
  8
ECSC.3
  6
CONTINUOUS
 62
8
 10
4.1037735223422
 20
8.3810053839123
 11
4.2128252746636
 21
8.4439664424706
  0
LINE
  8
ECSC.3
  6
CONTINUOUS
 62
8
 10
4.1061457908512
 20
8.389858810517
 11
4.2151975431725
 21
8.4528198690753
  0
ARC
  8
ECSC.3
  6
CONTINUOUS
 62
8
 10
4.0118193438432
 20
8.5638881896725
 40
0.0063993623364741
 50
300
 51
120.00000000001
  0
LINE
  8
ECSC.3
  6
CONTINUOUS
 62
8
 10
3.9009442031004
 20
8.5072637444534
 11
4.008619662675
 21
8.5694302000239
  0
LINE
  8
ECSC.3
  6
CONTINUOUS
 62
8
 10
3.9073435654368
 20
8.4961797237506
 11
4.0150190250115
 21
8.5583461793211
  0
LINE
  8
ECSC.3
  6
CONTINUOUS
 62
8
 10
3.90968589462
 20
8.5049214152702
 11
4.0173613541946
 21
8.5670878708407
  0
ARC
  8
ECSC.3
  6
CONTINUOUS
 62
8
 10
3.7834762015003
 20
8.6957273922626
 40
0.0063960479864803
 50
300
 51
120.00000000001
  0
LINE
  8
ECSC.3
  6
CONTINUOUS
 62
8
 10
3.6726584850761
 20
8.6391322739076
 11
3.7802781775071
 21
8.7012665323028
  0
LINE
  8
ECSC.3
  6
CONTINUOUS
 62
8
 10
3.6790545330626
 20
8.6280539938274
 11
3.7866742254936
 21
8.6901882522225
  0
LINE
  8
ECSC.3
  6
CONTINUOUS
 62
8
 10
3.6813956491094
 20
8.6367911578607
 11
3.7890153415404
 21
8.6989254162559
  0
ARC
  8
ECSC.3
  6
CONTINUOUS
 62
8
 10
3.5550727556989
 20
8.8275062913943
 40
0.0064530370949671
 50
300
 51
120.00000000001
  0
LINE
  8
ECSC.3
  6
CONTINUOUS
 62
8
 10
3.443267647861
 20
8.770406907695
 11
3.5518462371514
 21
8.8330947854501
  0
LINE
  8
ECSC.3
  6
CONTINUOUS
 62
8
 10
3.4497206849559
 20
8.7592299195834
 11
3.5582992742464
 21
8.8219177973385
  0
LINE
  8
ECSC.3
  6
CONTINUOUS
 62
8
 10
3.4520826604643
 20
8.7680449321867
 11
3.5606612497547
 21
8.8307328099418
  0
ARC
  8
ECSC.3
  6
CONTINUOUS
 62
8
 10
3.3608392990984
 20
8.9414100783374
 40
0.0067763540377376
 50
300
 51
120.00000000001
  0
LINE
  8
ECSC.3
  6
CONTINUOUS
 62
8
 10
3.2434324125755
 20
8.8814498404542
 11
3.3574511220796
 21
8.9472785730791
  0
LINE
  8
ECSC.3
  6
CONTINUOUS
 62
8
 10
3.2502087666132
 20
8.8697128509708
 11
3.3642274761173
 21
8.9355415835956
  0
LINE
  8
ECSC.3
  6
CONTINUOUS
 62
8
 10
3.2526890843361
 20
8.8789695227314
 11
3.3667077938402
 21
8.9447982553562
  0
ARC
  8
ECSC.3
  6
CONTINUOUS
 62
8
 10
4.2140204268852
 20
8.446778189054
 40
0.015748031496063
 50
240
 51
0
  0
LINE
  8
ECSC.3
  6
CONTINUOUS
 62
8
 10
4.2297684583813
 20
8.5255183465343
 11
4.2297684583813
 21
8.446778189054
  0
ARC
  8
ECSC.3
  6
CONTINUOUS
 62
8
 10
3.361581495995
 20
8.9389340352712
 40
0.015748031496063
 50
180
 51
240
  0
LINE
  8
ECSC.3
  6
CONTINUOUS
 62
8
 10
3.345833464499
 20
9.0176741927515
 11
3.345833464499
 21
8.9389340352712
  0
LINE
  8
ECSC.3
  6
CONTINUOUS
 62
8
 10
4.2061464111372
 20
8.4331399937188
 11
3.3537592026879
 21
8.9252659779708
  0
LINE
  8
ECSC.3
  6
CONTINUOUS
 62
8
 10
3.3891456027265
 20
9.098995441838
 11
3.4010881464475
 21
9.1345863070801
  0
LINE
  8
ECSC.3
  6
CONTINUOUS
 62
8
 10
3.7969272278249
 20
8.9473386267253
 11
3.8046620493851
 21
8.9703908822029
  0
LINE
  8
ECSC.3
  6
CONTINUOUS
 62
8
 10
4.0572533227286
 20
8.6431394686063
 11
4.0654146445284
 21
8.6674620348814
  0
LINE
  8
ECSC.3
  6
CONTINUOUS
 62
8
 10
3.6387545365954
 20
8.924490045767
 11
3.6476178727647
 21
8.9509056376676
  0
LINE
  8
ECSC.3
  6
CONTINUOUS
 62
8
 10
3.6170088510027
 20
8.9391585261624
 11
3.638752788058
 21
8.9244922314388
  0
LINE
  8
ECSC.3
  6
CONTINUOUS
 62
8
 10
4.0372313790027
 20
8.6566458786095
 11
4.0572521152538
 21
8.6431418835557
  0
LINE
  8
ECSC.3
  6
CONTINUOUS
 62
8
 10
3.7779502879287
 20
8.9601394588557
 11
3.7969260833948
 21
8.9473401526321
  0
LINE
  8
ECSC.3
  6
CONTINUOUS
 62
8
 10
3.3598467034838
 20
9.1187583285844
 11
3.3891432468467
 21
9.0989972087478
  0
LINE
  8
ECSC.3
  6
CONTINUOUS
 62
8
 10
3.3598467034838
 20
9.1187583285844
 11
3.4010857905676
 21
9.13458807399
  0
LINE
  8
ECSC.3
  6
CONTINUOUS
 62
8
 10
3.6170088510027
 20
8.9391585261624
 11
3.6476161242273
 21
8.9509078233393
  0
LINE
  8
ECSC.3
  6
CONTINUOUS
 62
8
 10
3.7779502879287
 20
8.9601394588557
 11
3.804660904955
 21
8.9703927895864
  0
LINE
  8
ECSC.3
  6
CONTINUOUS
 62
8
 10
4.0372313790027
 20
8.6566458786095
 11
4.065413034562
 21
8.6674640473393
  0
LINE
  8
ECSC.3
  6
CONTINUOUS
 62
8
 10
4.1050188350027
 20
8.7978450279437
 11
4.1246759349018
 21
8.7947964612178
  0
LINE
  8
ECSC.3
  6
CONTINUOUS
 62
8
 10
3.3419447252328
 20
9.3122828430674
 11
3.3670429727047
 21
9.30839037964
  0
LINE
  8
ECSC.3
  6
CONTINUOUS
 62
8
 10
3.3670441015276
 20
9.3083892508171
 11
3.3639262927879
 21
9.3351903275735
  0
LINE
  8
ECSC.3
  6
CONTINUOUS
 62
8
 10
4.12467659797
 20
8.794795356104
 11
4.1222347386799
 21
8.8157856652028
  0
LINE
  8
ECSC.3
  6
CONTINUOUS
 62
8
 10
3.3419447252328
 20
9.3122828430674
 11
3.3639251639651
 21
9.3351914563964
  0
LINE
  8
ECSC.3
  6
CONTINUOUS
 62
8
 10
4.1050188350027
 20
8.7978450279437
 11
4.1222338545889
 21
8.8157869913393
  0
LINE
  8
ECSC.3
  6
CONTINUOUS
 62
8
 10
3.547517181434
 20
9.0624074636207
 11
3.557114522241
 21
9.0641777398469
  0
LINE
  8
ECSC.3
  6
CONTINUOUS
 62
8
 10
3.937677340287
 20
9.0418499932221
 11
3.9327969308044
 21
9.0683066833197
  0
LINE
  8
ECSC.3
  6
CONTINUOUS
 62
8
 10
4.2076433327883
 20
8.6574762234444
 11
4.2028820358846
 21
8.6832867927191
  0
LINE
  8
ECSC.3
  6
CONTINUOUS
 62
8
 10
3.8547554480919
 20
8.7844581087667
 11
3.8466150960919
 21
8.8285869407667
  0
LINE
  8
ECSC.3
  6
CONTINUOUS
 62
8
 10
4.1830297790027
 20
8.6596314278027
 11
4.2076416857082
 21
8.6574782822946
  0
LINE
  8
ECSC.3
  6
CONTINUOUS
 62
8
 10
3.8126731440919
 20
8.7881435487667
 11
3.8547526320919
 21
8.7844616287667
  0
LINE
  8
ECSC.3
  6
CONTINUOUS
 62
8
 10
3.9124476112173
 20
9.0440591139721
 11
3.9376756520021
 21
9.0418516815069
  0
LINE
  8
ECSC.3
  6
CONTINUOUS
 62
8
 10
3.5483184143947
 20
9.0715597090299
 11
3.5475177938803
 21
9.0624079229554
  0
LINE
  8
ECSC.3
  6
CONTINUOUS
 62
8
 10
3.5483184143947
 20
9.0715597090299
 11
3.5571151346874
 21
9.0641783522932
  0
LINE
  8
ECSC.3
  6
CONTINUOUS
 62
8
 10
3.9124476112173
 20
9.0440591139721
 11
3.9327952425195
 21
9.0683083716046
  0
LINE
  8
ECSC.3
  6
CONTINUOUS
 62
8
 10
4.1830297790027
 20
8.6596314278027
 11
4.2028808005745
 21
8.6832892633393
  0
LINE
  8
ECSC.3
  6
CONTINUOUS
 62
8
 10
3.8126731440919
 20
8.7881435487667
 11
3.8466129840919
 21
8.8285904607667
  0
CIRCLE
  8
ECSC.3
  6
CONTINUOUS
 62
8
 10
4.1005329432944
 20
8.3866182314691
 40
0.0064811580957103
  0
CIRCLE
  8
ECSC.3
  6
CONTINUOUS
 62
8
 10
3.9041438842686
 20
8.501721734102
 40
0.0063993623364742
  0
CIRCLE
  8
ECSC.3
  6
CONTINUOUS
 62
8
 10
3.6758565090693
 20
8.6335931338675
 40
0.0063960479864804
  0
CIRCLE
  8
ECSC.3
  6
CONTINUOUS
 62
8
 10
3.4464941664085
 20
8.7648184136392
 40
0.0064530370949673
  0
CIRCLE
  8
ECSC.3
  6
CONTINUOUS
 62
8
 10
3.2468205895944
 20
8.8755813457125
 40
0.0067763540377377
  0
ARC
  8
ECSC.3
  6
CONTINUOUS
 62
8
 10
3.3616073572155
 20
8.9389489662538
 40
0.0039628690944882
 50
180
 51
240
  0
ARC
  8
ECSC.3
  6
CONTINUOUS
 62
8
 10
4.2139945656648
 20
8.4468229820018
 40
0.0039628690944882
 50
240
 51
0
  0
LINE
  8
ECSC.3
  6
CONTINUOUS
 62
8
 10
3.357644488121
 20
9.0176741927515
 11
3.345833464499
 21
9.0176741927515
  0
LINE
  8
ECSC.3
  6
CONTINUOUS
 62
8
 10
3.357644488121
 20
9.0176741927515
 11
3.357644488121
 21
8.9389489662538
  0
LINE
  8
ECSC.3
  6
CONTINUOUS
 62
8
 10
4.2120131311175
 20
8.4433910366941
 11
3.3596259226683
 21
8.9355170209461
  0
LINE
  8
ECSC.3
  6
CONTINUOUS
 62
8
 10
4.2179574347592
 20
8.5255183465343
 11
4.2179574347592
 21
8.4468229820018
  0
LINE
  8
ECSC.3
  6
CONTINUOUS
 62
8
 10
4.2179574347592
 20
8.5255183465343
 11
4.2297684583813
 21
8.5255183465343
  0
LINE
  8
ECSC.3
  6
HIDDEN
 62
8
 10
3.9230973392008
 20
9.7309371974895
 11
3.9230973392008
 21
9.1965964002454
  0
LINE
  8
ECSC.3
  6
HIDDEN
 62
8
 10
3.6485417145849
 20
9.7309371974895
 11
3.6485417145849
 21
9.355111164025
  0
LINE
  8
ECSC.3
  6
CONTINUOUS
 62
8
 10
3.2366005424607
 20
8.2697856756765
 11
3.7858195268929
 21
8.5868774041825
  0
LINE
  8
ECSC.3
  6
CONTINUOUS
 62
8
 10
3.305347183815
 20
9.5532546187494
 11
4.2662918699707
 21
8.998452945521
  0
LINE
  8
ECSC.3
  6
CONTINUOUS
 62
8
 10
4.2662918699707
 20
8.998452945521
 11
4.2662918699707
 21
8.3094765675683
  0
LINE
  8
ECSC.3
  6
CONTINUOUS
 62
8
 10
3.305347183815
 20
8.8642782407966
 11
4.2662918699707
 21
8.3094765675683
  0
LINE
  8
ECSC.3
  6
CONTINUOUS
 62
8
 10
3.305347183815
 20
9.5532546187494
 11
3.305347183815
 21
8.8642782407966
  0
LINE
  8
ECSC.3
  6
CONTINUOUS
 62
8
 10
3.305347183815
 20
9.5532546187494
 11
3.6131024378128
 21
9.7309371974895
  0
LINE
  8
ECSC.3
  6
CONTINUOUS
 62
8
 10
4.2662918699707
 20
8.998452945521
 11
4.811403692067
 21
8.6837324882953
  0
LINE
  8
ECSC.3
  6
HIDDEN
 62
8
 10
3.9230973392008
 20
9.1965964002454
 11
4.811403692067
 21
9.7094603121956
  0
LINE
  8
ECSC.3
  6
CONTINUOUS
 62
8
 10
4.811403692067
 20
9.7309371974895
 11
3.2366005424607
 21
9.7309371974895
  0
LINE
  8
ECSC.3
  6
CONTINUOUS
 62
8
 10
4.811403692067
 20
8.1561340478832
 11
4.811403692067
 21
9.7309371974895
  0
LINE
  8
ECSC.3
  6
CONTINUOUS
 62
8
 10
3.2366005424607
 20
8.1561340478832
 11
4.811403692067
 21
8.1561340478832
  0
LINE
  8
ECSC.3
  6
CONTINUOUS
 62
8
 10
3.2366005424607
 20
9.7309371974895
 11
3.2366005424607
 21
8.1561340478832
  0
LINE
  8
ECSC.3
  6
HIDDEN
 62
8
 10
3.6485417145849
 20
9.355111164025
 11
4.2994914993526
 21
9.7309371974895
  0
LINE
  8
ECSC.3
  6
CONTINUOUS
 62
8
 10
3.2366005424607
 20
9.5929455106412
 11
3.305347183815
 21
9.5532546187494
  0
LINE
  8
ECSC.3
  6
CONTINUOUS
 62
8
 10
4.2662918699707
 20
8.3094765675683
 11
4.5318889050259
 21
8.1561340478832
  0
LINE
  8
ECSC.3
  6
CONTINUOUS
 62
8
 10
3.2366005424607
 20
8.9039691326884
 11
3.305347183815
 21
8.8642782407966
  0
LINE
  8
ECSC.3
  6
CONTINUOUS
 62
8
 10
4.2662918699707
 20
8.998452945521
 11
4.811403692067
 21
9.3131734027467
  0
LINE
  8
ECSC.3
  6
CONTINUOUS
 62
8
 10
3.309284191689
 20
9.5464355210818
 11
4.2623548620967
 21
8.9961799129652
  0
LINE
  8
ECSC.3
  6
CONTINUOUS
 62
8
 10
3.309284191689
 20
9.5464355210818
 11
3.309284191689
 21
8.8665512733525
  0
LINE
  8
ECSC.3
  6
CONTINUOUS
 62
8
 10
4.2623548620967
 20
8.9961799129652
 11
4.2623548620967
 21
8.3162956652359
  0
LINE
  8
ECSC.3
  6
CONTINUOUS
 62
8
 10
3.309284191689
 20
8.8665512733525
 11
4.2623548620967
 21
8.3162956652359
  0
LINE
  8
ECSC.3
  6
CONTINUOUS
 62
8
 10
4.2623548620967
 20
9.0007259780769
 11
4.811403692067
 21
9.3177194678585
  0
LINE
  8
ECSC.3
  6
CONTINUOUS
 62
8
 10
3.309284191689
 20
9.5509815861935
 11
3.6209764535609
 21
9.7309371974895
  0
ENDSEC
  0
EOF
