  0
SECTION
  2
HEADER
  9
$EXTMIN
 10
3.2164191092359
 20
8.2059020082587
  9
$EXTMAX
 10
4.7912222588422
 20
9.780705157865
  9
$LIMMIN
 10
0
 20
0
  9
$LIMMAX
 10
8.27
 20
11.69
  0
ENDSEC
  0
SECTION
  2
TABLES
  0
TABLE
  2
LTYPE
 70
9
  0
LTYPE
  2
CONTINUOUS
  3
___________________________
 70
64
 72
65
 73
0
 40
0
  0
LTYPE
  2
HIDDEN
  3
_ _ _ _ _ _ _ _ _ _ _ _ _ _ 
 70
64
 72
65
 73
2
 49
0.25
 49
-0.125
 40
0.375
  0
LTYPE
  2
DASHED
  3
__ __ __ __ __ __ __ __ __ 
 70
64
 72
65
 73
2
 49
0.5
 49
-0.25
 40
0.75
  0
LTYPE
  2
CENTER
  3
____ _ ____ _ ____ _ ____ _ 
 70
64
 72
65
 73
4
 49
1.25
 49
-0.25
 49
0.25
 49
-0.25
 40
2
  0
LTYPE
  2
PHANTOM
  3
_____ _ _ _____ _ _ _____ _ _ 
 70
64
 72
65
 73
6
 49
1.25
 49
-0.25
 49
0.25
 49
-0.25
 49
0.25
 49
-0.25
 40
2.5
  0
LTYPE
  2
DOT
  3
...........................
 70
64
 72
65
 73
2
 49
0
 49
-0.25
 40
0.25
  0
LTYPE
  2
DASHDOT
  3
__ . __ . __ . __ . __ . __ . 
 70
64
 72
65
 73
4
 49
0.5
 49
-0.25
 49
0
 49
-0.25
 40
1
  0
LTYPE
  2
DIVIDE
  3
__ . . __ . . __ . . __ . . 
 70
64
 72
65
 73
6
 49
0.5
 49
-0.25
 49
0
 49
-0.25
 49
0
 49
-0.25
 40
1.25
  0
LTYPE
  2
BORDER
  3
__ __ . __ __ . __ __ . __ __ . 
 70
64
 72
65
 73
6
 49
0.5
 49
-0.25
 49
0.5
 49
-0.25
 49
0
 49
-0.25
 40
1.75
  0
ENDTAB
  0
TABLE
  2
LAYER
 70
1
  0
LAYER
  2
ECSC.1a
 62
7
  6
CONTINUOUS
 70
0
  0
ENDTAB
  0
TABLE
  2
STYLE
 70
5
  0
STYLE
  2
ptmarker
 70
1
 40
0
 50
0
 71
0
 41
0
 42
0
  3
ptmarks
  0
STYLE
  2
TXT
 70
0
 40
0
 50
0
 71
0
 41
0
 42
0
  3
TXT
  0
STYLE
  2
ITALIC
 70
0
 40
0
 50
0
 71
0
 41
0
 42
0
  3
ITALIC
  0
STYLE
  2
SIMPLEX
 70
0
 40
0
 50
0
 71
0
 41
0
 42
0
  3
SIMPLEX
  0
STYLE
  2
COMPLEX
 70
0
 40
0
 50
0
 71
0
 41
0
 42
0
  3
COMPLEX
  0
ENDTAB
  0
ENDSEC
  0
SECTION
  2
BLOCKS
  0
ENDSEC
  0
SECTION
  2
ENTITIES
  0
LINE
  8
ECSC.1a
  6
CONTINUOUS
 62
8
 10
3.2164191092359
 20
9.4392733703039
 11
3.5233483409612
 21
9.2620676957452
  0
LINE
  8
ECSC.1a
  6
CONTINUOUS
 62
8
 10
3.2164191092359
 20
9.5529249980972
 11
3.5233483409612
 21
9.3757193235384
  0
LINE
  8
ECSC.1a
  6
CONTINUOUS
 62
8
 10
3.2164191092359
 20
9.6665766258904
 11
3.5233483409612
 21
9.4893709513316
  0
LINE
  8
ECSC.1a
  6
CONTINUOUS
 62
8
 10
3.2164191092359
 20
9.3185551313174
 11
3.5233483409612
 21
9.1413494567586
  0
LINE
  8
ECSC.1a
  6
CONTINUOUS
 62
8
 10
3.2164191092359
 20
9.2049035035241
 11
3.5233483409612
 21
9.0276978289654
  0
LINE
  8
ECSC.1a
  6
CONTINUOUS
 62
8
 10
4.484293027117
 20
8.472896155737
 11
4.7912222588422
 21
8.2956904811782
  0
LINE
  8
ECSC.1a
  6
CONTINUOUS
 62
8
 10
4.484293027117
 20
8.5936143947236
 11
4.7912222588422
 21
8.4164087201648
  0
LINE
  8
ECSC.1a
  6
CONTINUOUS
 62
8
 10
4.484293027117
 20
8.7072660225168
 11
4.7912222588422
 21
8.5300603479581
  0
LINE
  8
ECSC.1a
  6
CONTINUOUS
 62
8
 10
4.484293027117
 20
8.8209176503101
 11
4.7912222588422
 21
8.6437119757513
  0
LINE
  8
ECSC.1a
  6
CONTINUOUS
 62
8
 10
4.484293027117
 20
8.9345692781033
 11
4.7912222588422
 21
8.7573636035445
  0
CIRCLE
  8
ECSC.1a
  6
CONTINUOUS
 62
8
 10
4.3734975861549
 20
8.5510720228204
 40
0.0039370078740157
  0
CIRCLE
  8
ECSC.1a
  6
CONTINUOUS
 62
8
 10
4.4043138019446
 20
8.5297377195814
 40
0.0039370078740157
  0
CIRCLE
  8
ECSC.1a
  6
CONTINUOUS
 62
8
 10
3.5886445682064
 20
8.4740397438632
 40
0.0057566340801392
  0
CIRCLE
  8
ECSC.1a
  6
CONTINUOUS
 62
8
 10
4.3117715153001
 20
9.0512118123007
 40
0.0039370078740157
  0
CIRCLE
  8
ECSC.1a
  6
CONTINUOUS
 62
8
 10
3.6257799514139
 20
9.0151073246207
 40
0.0039370078740157
  0
CIRCLE
  8
ECSC.1a
  6
CONTINUOUS
 62
8
 10
3.9406277282471
 20
8.4154344154623
 40
0.0039370078740157
  0
CIRCLE
  8
ECSC.1a
  6
CONTINUOUS
 62
8
 10
3.9209176879295
 20
8.2671605286895
 40
0.0039370078740157
  0
CIRCLE
  8
ECSC.1a
  6
CONTINUOUS
 62
8
 10
3.8020711533619
 20
8.3373923485612
 40
0.0039370078740157
  0
CIRCLE
  8
ECSC.1a
  6
CONTINUOUS
 62
8
 10
4.0886000765416
 20
8.7614843332685
 40
0.0039370078740157
  0
CIRCLE
  8
ECSC.1a
  6
CONTINUOUS
 62
8
 10
3.6926268994858
 20
8.4116503450956
 40
0.0057566340801392
  0
CIRCLE
  8
ECSC.1a
  6
CONTINUOUS
 62
8
 10
3.9807522285245
 20
8.2362928491281
 40
0.0039370078740157
  0
CIRCLE
  8
ECSC.1a
  6
CONTINUOUS
 62
8
 10
3.9302145591623
 20
9.06707960579
 40
0.0039370078740157
  0
CIRCLE
  8
ECSC.1a
  6
CONTINUOUS
 62
8
 10
3.6091866044503
 20
8.977179674418
 40
0.0039370078740157
  0
CIRCLE
  8
ECSC.1a
  6
CONTINUOUS
 62
8
 10
3.5688970622295
 20
9.4577172929746
 40
0.0039370078740157
  0
CIRCLE
  8
ECSC.1a
  6
CONTINUOUS
 62
8
 10
3.6423818844971
 20
9.2894133452003
 40
0.0039370078740157
  0
CIRCLE
  8
ECSC.1a
  6
CONTINUOUS
 62
8
 10
3.7121305704971
 20
9.0931548653043
 40
0.0039370078740157
  0
CIRCLE
  8
ECSC.1a
  6
CONTINUOUS
 62
8
 10
3.8210836646518
 20
8.9320745089664
 40
0.0039370078740157
  0
CIRCLE
  8
ECSC.1a
  6
CONTINUOUS
 62
8
 10
3.8844903040611
 20
8.5932958553844
 40
0.0039370078740157
  0
CIRCLE
  8
ECSC.1a
  6
CONTINUOUS
 62
8
 10
4.1933412476923
 20
8.6292978013634
 40
0.0039370078740157
  0
CIRCLE
  8
ECSC.1a
  6
CONTINUOUS
 62
8
 10
4.3284585015392
 20
8.7170054924571
 40
0.0039370078740157
  0
CIRCLE
  8
ECSC.1a
  6
CONTINUOUS
 62
8
 10
3.5713141796598
 20
8.4359128890608
 40
0.0057566340801392
  0
CIRCLE
  8
ECSC.1a
  6
CONTINUOUS
 62
8
 10
3.576829549448
 20
9.4981237283274
 40
0.0039370078740157
  0
CIRCLE
  8
ECSC.1a
  6
CONTINUOUS
 62
8
 10
3.9606574447682
 20
9.2461155142283
 40
0.0039370078740157
  0
LINE
  8
ECSC.1a
  6
CONTINUOUS
 62
8
 10
3.8842004549681
 20
8.6543343324339
 11
3.8923617767679
 21
8.678656898709
  0
LINE
  8
ECSC.1a
  6
CONTINUOUS
 62
8
 10
3.8641785112422
 20
8.6678407424371
 11
3.8841992474934
 21
8.6543367473834
  0
LINE
  8
ECSC.1a
  6
CONTINUOUS
 62
8
 10
3.8641785112422
 20
8.6678407424371
 11
3.8923601668016
 21
8.6786589111669
  0
POLYLINE
  8
ECSC.1a
  6
CONTINUOUS
 62
8
 70
1
 66
1
  0
VERTEX
  8
ECSC.1a
  6
CONTINUOUS
 62
8
 10
4.2228743592021
 20
8.2059020082587
  0
VERTEX
  8
ECSC.1a
  6
CONTINUOUS
 62
8
 10
4.4190073058453
 20
8.2059020082587
  0
VERTEX
  8
ECSC.1a
  6
CONTINUOUS
 62
8
 10
4.3916599243587
 20
8.3185789777232
  0
VERTEX
  8
ECSC.1a
  6
CONTINUOUS
 62
8
 10
4.3310667968765
 20
8.366362049296
  0
VERTEX
  8
ECSC.1a
  6
CONTINUOUS
 62
8
 10
4.3071316543091
 20
8.3732737406964
  0
VERTEX
  8
ECSC.1a
  6
CONTINUOUS
 62
8
 10
4.3170761566679
 20
8.4329407548491
  0
VERTEX
  8
ECSC.1a
  6
CONTINUOUS
 62
8
 10
4.2574091425152
 20
8.4403991316182
  0
VERTEX
  8
ECSC.1a
  6
CONTINUOUS
 62
8
 10
4.2002282539522
 20
8.42548237808
  0
VERTEX
  8
ECSC.1a
  6
CONTINUOUS
 62
8
 10
4.1679086212862
 20
8.3658153639274
  0
VERTEX
  8
ECSC.1a
  6
CONTINUOUS
 62
8
 10
4.1529918677481
 20
8.328523480082
  0
VERTEX
  8
ECSC.1a
  6
CONTINUOUS
 62
8
 10
4.1554779933378
 20
8.2688564659293
  0
VERTEX
  8
ECSC.1a
  6
CONTINUOUS
 62
8
 10
4.2002282539522
 20
8.239022958853
  0
VERTEX
  8
ECSC.1a
  6
CONTINUOUS
 62
8
 10
4.2228743592021
 20
8.2059020082587
  0
SEQEND
  0
POLYLINE
  8
ECSC.1a
  6
CONTINUOUS
 62
8
 70
1
 66
1
  0
VERTEX
  8
ECSC.1a
  6
CONTINUOUS
 62
8
 10
3.6029139341352
 20
9.4258663462629
  0
VERTEX
  8
ECSC.1a
  6
CONTINUOUS
 62
8
 10
3.627106463309
 20
9.3183439943795
  0
VERTEX
  8
ECSC.1a
  6
CONTINUOUS
 62
8
 10
3.721188521207
 20
9.2618947596407
  0
VERTEX
  8
ECSC.1a
  6
CONTINUOUS
 62
8
 10
3.8280388583911
 20
9.2296380540757
  0
VERTEX
  8
ECSC.1a
  6
CONTINUOUS
 62
8
 10
3.84752728467
 20
9.2645828184378
  0
VERTEX
  8
ECSC.1a
  6
CONTINUOUS
 62
8
 10
3.887176151927
 20
9.2565186420466
  0
VERTEX
  8
ECSC.1a
  6
CONTINUOUS
 62
8
 10
3.9207768868905
 20
9.2981835534014
  0
VERTEX
  8
ECSC.1a
  6
CONTINUOUS
 62
8
 10
3.886655514008
 20
9.3908236425835
  0
VERTEX
  8
ECSC.1a
  6
CONTINUOUS
 62
8
 10
3.6249872235041
 20
9.5418979005444
  0
VERTEX
  8
ECSC.1a
  6
CONTINUOUS
 62
8
 10
3.6029139341352
 20
9.4258663462629
  0
SEQEND
  0
POLYLINE
  8
ECSC.1a
  6
CONTINUOUS
 62
8
 70
1
 66
1
  0
VERTEX
  8
ECSC.1a
  6
CONTINUOUS
 62
8
 10
3.8672784215202
 20
9.0108758296207
  0
VERTEX
  8
ECSC.1a
  6
CONTINUOUS
 62
8
 10
3.8977801496717
 20
9.0156094166245
  0
VERTEX
  8
ECSC.1a
  6
CONTINUOUS
 62
8
 10
3.9017628214313
 20
9.027822277058
  0
VERTEX
  8
ECSC.1a
  6
CONTINUOUS
 62
8
 10
3.9216761802295
 20
9.0392209467959
  0
VERTEX
  8
ECSC.1a
  6
CONTINUOUS
 62
8
 10
3.9034543566703
 20
9.0446647434867
  0
VERTEX
  8
ECSC.1a
  6
CONTINUOUS
 62
8
 10
3.8672784215202
 20
9.0108758296207
  0
SEQEND
  0
POLYLINE
  8
ECSC.1a
  6
CONTINUOUS
 62
8
 70
1
 66
1
  0
VERTEX
  8
ECSC.1a
  6
CONTINUOUS
 62
8
 10
3.8188398713969
 20
8.3716256049315
  0
VERTEX
  8
ECSC.1a
  6
CONTINUOUS
 62
8
 10
3.8406770785118
 20
8.3332556539833
  0
VERTEX
  8
ECSC.1a
  6
CONTINUOUS
 62
8
 10
3.8573329674996
 20
8.3611829550049
  0
VERTEX
  8
ECSC.1a
  6
CONTINUOUS
 62
8
 10
3.8457032589846
 20
8.3786339799688
  0
VERTEX
  8
ECSC.1a
  6
CONTINUOUS
 62
8
 10
3.8466855411498
 20
8.4067582800476
  0
VERTEX
  8
ECSC.1a
  6
CONTINUOUS
 62
8
 10
3.8268872094043
 20
8.3999224808341
  0
VERTEX
  8
ECSC.1a
  6
CONTINUOUS
 62
8
 10
3.8188398713969
 20
8.3716256049315
  0
SEQEND
  0
LINE
  8
ECSC.1a
  6
CONTINUOUS
 62
8
 10
3.6071467598727
 20
9.1487634022135
 11
3.6190893035937
 21
9.1843542674556
  0
LINE
  8
ECSC.1a
  6
CONTINUOUS
 62
8
 10
4.0149283849711
 20
8.9971065871008
 11
4.0226632065313
 21
9.0201588425784
  0
LINE
  8
ECSC.1a
  6
CONTINUOUS
 62
8
 10
4.3013333546381
 20
8.6296611703064
 11
4.3094946764379
 21
8.6539837365816
  0
LINE
  8
ECSC.1a
  6
CONTINUOUS
 62
8
 10
3.7765697016469
 20
9.0151589447946
 11
3.7854330378162
 21
9.0415745366952
  0
LINE
  8
ECSC.1a
  6
CONTINUOUS
 62
8
 10
3.7548240160541
 20
9.0298274251901
 11
3.7765679531095
 21
9.0151611304664
  0
LINE
  8
ECSC.1a
  6
CONTINUOUS
 62
8
 10
4.2813114109122
 20
8.6431675803096
 11
4.3013321471634
 21
8.6296635852559
  0
LINE
  8
ECSC.1a
  6
CONTINUOUS
 62
8
 10
3.9959514450749
 20
9.0099074192312
 11
4.014927240541
 21
8.9971081130076
  0
LINE
  8
ECSC.1a
  6
CONTINUOUS
 62
8
 10
3.57784786063
 20
9.1685262889599
 11
3.6071444039929
 21
9.1487651691233
  0
LINE
  8
ECSC.1a
  6
CONTINUOUS
 62
8
 10
3.57784786063
 20
9.1685262889599
 11
3.6190869477139
 21
9.1843560343655
  0
LINE
  8
ECSC.1a
  6
CONTINUOUS
 62
8
 10
3.7548240160541
 20
9.0298274251901
 11
3.7854312892788
 21
9.041576722367
  0
LINE
  8
ECSC.1a
  6
CONTINUOUS
 62
8
 10
3.9959514450749
 20
9.0099074192312
 11
4.0226620621012
 21
9.0201607499619
  0
LINE
  8
ECSC.1a
  6
CONTINUOUS
 62
8
 10
4.2813114109122
 20
8.6431675803096
 11
4.3094930664716
 21
8.6539857490395
  0
LINE
  8
ECSC.1a
  6
CONTINUOUS
 62
8
 10
3.601617096748
 20
8.6458044148376
 11
3.6303594144718
 21
8.6413468461276
  0
LINE
  8
ECSC.1a
  6
CONTINUOUS
 62
8
 10
3.559945882379
 20
9.3620508034429
 11
3.5850441298509
 21
9.3581583400155
  0
LINE
  8
ECSC.1a
  6
CONTINUOUS
 62
8
 10
3.5850452586738
 20
9.3581572111926
 11
3.5819274499341
 21
9.384958287949
  0
LINE
  8
ECSC.1a
  6
CONTINUOUS
 62
8
 10
3.6303603840003
 20
8.6413452302468
 11
3.6267899338365
 21
8.6720369465394
  0
LINE
  8
ECSC.1a
  6
CONTINUOUS
 62
8
 10
3.559945882379
 20
9.3620508034429
 11
3.5819263211113
 21
9.3849594167719
  0
LINE
  8
ECSC.1a
  6
CONTINUOUS
 62
8
 10
3.601617096748
 20
8.6458044148376
 11
3.6267886411319
 21
8.6720388855963
  0
LINE
  8
ECSC.1a
  6
CONTINUOUS
 62
8
 10
3.7655183385802
 20
9.1121754239962
 11
3.7751156793872
 21
9.1139457002224
  0
LINE
  8
ECSC.1a
  6
CONTINUOUS
 62
8
 10
4.1556784974332
 20
9.0916179535976
 11
4.1507980879506
 21
9.1180746436952
  0
LINE
  8
ECSC.1a
  6
CONTINUOUS
 62
8
 10
4.4256444899345
 20
8.7072441838199
 11
4.4208831930308
 21
8.7330547530946
  0
LINE
  8
ECSC.1a
  6
CONTINUOUS
 62
8
 10
4.1358113123134
 20
8.5920902782567
 11
4.1276709603134
 21
8.6362191102567
  0
LINE
  8
ECSC.1a
  6
CONTINUOUS
 62
8
 10
4.4010309361489
 20
8.7093993881782
 11
4.4256428428544
 21
8.7072462426701
  0
LINE
  8
ECSC.1a
  6
CONTINUOUS
 62
8
 10
4.0937290083134
 20
8.5957757182567
 11
4.1358084963134
 21
8.5920937982567
  0
LINE
  8
ECSC.1a
  6
CONTINUOUS
 62
8
 10
4.1304487683635
 20
9.0938270743476
 11
4.1556768091483
 21
9.0916196418824
  0
LINE
  8
ECSC.1a
  6
CONTINUOUS
 62
8
 10
3.7663195715409
 20
9.1213276694054
 11
3.7655189510265
 21
9.1121758833309
  0
LINE
  8
ECSC.1a
  6
CONTINUOUS
 62
8
 10
3.7663195715409
 20
9.1213276694054
 11
3.7751162918336
 21
9.1139463126687
  0
LINE
  8
ECSC.1a
  6
CONTINUOUS
 62
8
 10
4.1304487683635
 20
9.0938270743476
 11
4.1507963996657
 21
9.1180763319801
  0
LINE
  8
ECSC.1a
  6
CONTINUOUS
 62
8
 10
4.4010309361489
 20
8.7093993881782
 11
4.4208819577207
 21
8.7330572237148
  0
LINE
  8
ECSC.1a
  6
CONTINUOUS
 62
8
 10
4.0937290083134
 20
8.5957757182567
 11
4.1276688483134
 21
8.6362226302567
  0
LINE
  8
ECSC.1a
  6
HIDDEN
 62
8
 10
4.141098496347
 20
9.780705157865
 11
4.141098496347
 21
9.2463643606209
  0
LINE
  8
ECSC.1a
  6
HIDDEN
 62
8
 10
3.8665428717311
 20
9.780705157865
 11
3.8665428717311
 21
9.4048791244005
  0
LINE
  8
ECSC.1a
  6
CONTINUOUS
 62
8
 10
3.5233483409612
 20
9.6030225791249
 11
4.484293027117
 21
9.0482209058965
  0
LINE
  8
ECSC.1a
  6
CONTINUOUS
 62
8
 10
4.484293027117
 20
9.0482209058965
 11
4.484293027117
 21
8.2059020082587
  0
LINE
  8
ECSC.1a
  6
CONTINUOUS
 62
8
 10
3.5233483409612
 20
9.6030225791249
 11
3.5233483409612
 21
8.2059020082587
  0
LINE
  8
ECSC.1a
  6
CONTINUOUS
 62
8
 10
3.5233483409612
 20
9.6030225791249
 11
3.831103594959
 21
9.780705157865
  0
LINE
  8
ECSC.1a
  6
CONTINUOUS
 62
8
 10
4.484293027117
 20
9.0482209058965
 11
4.7912222588422
 21
8.8710152313378
  0
LINE
  8
ECSC.1a
  6
HIDDEN
 62
8
 10
4.141098496347
 20
9.2463643606209
 11
4.7912222588422
 21
9.6217134899041
  0
LINE
  8
ECSC.1a
  6
CONTINUOUS
 62
8
 10
4.7912222588422
 20
9.780705157865
 11
3.2164191092359
 21
9.780705157865
  0
LINE
  8
ECSC.1a
  6
CONTINUOUS
 62
8
 10
4.7912222588422
 20
8.2059020082587
 11
4.7912222588422
 21
9.780705157865
  0
LINE
  8
ECSC.1a
  6
CONTINUOUS
 62
8
 10
3.2164191092359
 20
8.2059020082587
 11
4.7912222588422
 21
8.2059020082587
  0
LINE
  8
ECSC.1a
  6
CONTINUOUS
 62
8
 10
3.2164191092359
 20
9.780705157865
 11
3.2164191092359
 21
8.2059020082587
  0
LINE
  8
ECSC.1a
  6
HIDDEN
 62
8
 10
3.8665428717311
 20
9.4048791244005
 11
4.5174926564988
 21
9.780705157865
  0
LINE
  8
ECSC.1a
  6
CONTINUOUS
 62
8
 10
3.2164191092359
 20
9.7802282536836
 11
3.5233483409612
 21
9.6030225791249
  0
LINE
  8
ECSC.1a
  6
CONTINUOUS
 62
8
 10
4.484293027117
 20
8.3592445279438
 11
4.7498900621721
 21
8.2059020082587
  0
LINE
  8
ECSC.1a
  6
CONTINUOUS
 62
8
 10
3.2164191092359
 20
9.0912518757309
 11
3.5233483409612
 21
8.9140462011721
  0
LINE
  8
ECSC.1a
  6
CONTINUOUS
 62
8
 10
4.484293027117
 20
9.0482209058965
 11
4.7912222588422
 21
9.2254265804553
  0
LINE
  8
ECSC.1a
  6
CONTINUOUS
 62
8
 10
3.5272853488352
 20
9.5962034814573
 11
4.4803560192429
 21
9.0459478733407
  0
LINE
  8
ECSC.1a
  6
CONTINUOUS
 62
8
 10
3.5272853488352
 20
9.5962034814573
 11
3.5272853488352
 21
8.2059020082587
  0
LINE
  8
ECSC.1a
  6
CONTINUOUS
 62
8
 10
4.4803560192429
 20
9.0459478733407
 11
4.4803560192429
 21
8.2059020082587
  0
POLYLINE
  8
ECSC.1a
  6
CONTINUOUS
 62
8
 70
1
 66
1
  0
VERTEX
  8
ECSC.1a
  6
CONTINUOUS
 62
8
 10
3.909351559958
 20
8.5000661457708
  0
VERTEX
  8
ECSC.1a
  6
CONTINUOUS
 62
8
 10
3.9227510142006
 20
8.4361024513033
  0
VERTEX
  8
ECSC.1a
  6
CONTINUOUS
 62
8
 10
3.9420468442956
 20
8.4046304643573
  0
VERTEX
  8
ECSC.1a
  6
CONTINUOUS
 62
8
 10
4.0007885672312
 20
8.3842407689018
  0
VERTEX
  8
ECSC.1a
  6
CONTINUOUS
 62
8
 10
4.0705741749579
 20
8.3542345009027
  0
VERTEX
  8
ECSC.1a
  6
CONTINUOUS
 62
8
 10
4.1086809232975
 20
8.3467900536362
  0
VERTEX
  8
ECSC.1a
  6
CONTINUOUS
 62
8
 10
4.1097589064292
 20
8.3664516290871
  0
VERTEX
  8
ECSC.1a
  6
CONTINUOUS
 62
8
 10
4.0776006543822
 20
8.4002231931551
  0
VERTEX
  8
ECSC.1a
  6
CONTINUOUS
 62
8
 10
4.0106739229773
 20
8.4257589394838
  0
VERTEX
  8
ECSC.1a
  6
CONTINUOUS
 62
8
 10
3.966532448521
 20
8.4975800201811
  0
VERTEX
  8
ECSC.1a
  6
CONTINUOUS
 62
8
 10
3.9217821879065
 20
8.5323857784369
  0
VERTEX
  8
ECSC.1a
  6
CONTINUOUS
 62
8
 10
3.909351559958
 20
8.5000661457708
  0
SEQEND
  0
POLYLINE
  8
ECSC.1a
  6
CONTINUOUS
 62
8
 70
1
 66
1
  0
VERTEX
  8
ECSC.1a
  6
CONTINUOUS
 62
8
 10
4.0226902359311
 20
8.7459761354778
  0
VERTEX
  8
ECSC.1a
  6
CONTINUOUS
 62
8
 10
4.0379059473311
 20
8.7968843602652
  0
VERTEX
  8
ECSC.1a
  6
CONTINUOUS
 62
8
 10
4.1111778728956
 20
8.8555892279909
  0
VERTEX
  8
ECSC.1a
  6
CONTINUOUS
 62
8
 10
4.1286551056276
 20
8.9458882637731
  0
VERTEX
  8
ECSC.1a
  6
CONTINUOUS
 62
8
 10
4.0791362795535
 20
8.9575397522611
  0
VERTEX
  8
ECSC.1a
  6
CONTINUOUS
 62
8
 10
4.0092273486254
 20
8.893456565577
  0
VERTEX
  8
ECSC.1a
  6
CONTINUOUS
 62
8
 10
3.9597085225513
 20
8.8585021001129
  0
VERTEX
  8
ECSC.1a
  6
CONTINUOUS
 62
8
 10
3.9014510801112
 20
8.8672407164789
  0
VERTEX
  8
ECSC.1a
  6
CONTINUOUS
 62
8
 10
3.837367893427
 20
8.890543693455
  0
VERTEX
  8
ECSC.1a
  6
CONTINUOUS
 62
8
 10
3.7674589624989
 20
8.8468506116249
  0
VERTEX
  8
ECSC.1a
  6
CONTINUOUS
 62
8
 10
3.8490193819151
 20
8.7652901922087
  0
VERTEX
  8
ECSC.1a
  6
CONTINUOUS
 62
8
 10
3.8986246536053
 20
8.7033285915533
  0
VERTEX
  8
ECSC.1a
  6
CONTINUOUS
 62
8
 10
3.9567803953205
 20
8.683943344315
  0
VERTEX
  8
ECSC.1a
  6
CONTINUOUS
 62
8
 10
3.9955508897973
 20
8.695574492658
  0
VERTEX
  8
ECSC.1a
  6
CONTINUOUS
 62
8
 10
4.0226902359311
 20
8.7459761354778
  0
SEQEND
  0
CIRCLE
  8
ECSC.1a
  6
CONTINUOUS
 62
8
 10
3.8155925701861
 20
8.7487031411792
 40
0.0039370078740157
  0
CIRCLE
  8
ECSC.1a
  6
CONTINUOUS
 62
8
 10
3.6605623020754
 20
8.8170120053143
 40
0.0039370078740157
  0
CIRCLE
  8
ECSC.1a
  6
CONTINUOUS
 62
8
 10
3.8392433772381
 20
8.7159125058812
 40
0.0039370078740157
  0
CIRCLE
  8
ECSC.1a
  6
CONTINUOUS
 62
8
 10
3.6823526572308
 20
8.7214696788638
 40
0.0039370078740157
  0
POLYLINE
  8
ECSC.1a
  6
CONTINUOUS
 62
8
 70
1
 66
1
  0
VERTEX
  8
ECSC.1a
  6
CONTINUOUS
 62
8
 10
3.7483958532941
 20
8.6371786283252
  0
VERTEX
  8
ECSC.1a
  6
CONTINUOUS
 62
8
 10
3.7702330604091
 20
8.598808677377
  0
VERTEX
  8
ECSC.1a
  6
CONTINUOUS
 62
8
 10
3.7868889493968
 20
8.6267359783986
  0
VERTEX
  8
ECSC.1a
  6
CONTINUOUS
 62
8
 10
3.7752592408818
 20
8.6441870033625
  0
VERTEX
  8
ECSC.1a
  6
CONTINUOUS
 62
8
 10
3.776241523047
 20
8.6723113034413
  0
VERTEX
  8
ECSC.1a
  6
CONTINUOUS
 62
8
 10
3.7564431913016
 20
8.6654755042279
  0
VERTEX
  8
ECSC.1a
  6
CONTINUOUS
 62
8
 10
3.7483958532941
 20
8.6371786283252
  0
SEQEND
  0
LINE
  8
ECSC.1a
  6
CONTINUOUS
 62
8
 10
3.6927759819052
 20
8.612089562159
 11
3.7145457328515
 21
8.6229206235523
  0
LINE
  8
ECSC.1a
  6
CONTINUOUS
 62
8
 10
3.5647746128022
 20
8.7077781581897
 11
3.5897205820734
 21
8.7201894772424
  0
LINE
  8
ECSC.1a
  6
CONTINUOUS
 62
8
 10
3.5597702730153
 20
8.7335268618912
 11
3.5647749219029
 21
8.7077809400957
  0
LINE
  8
ECSC.1a
  6
CONTINUOUS
 62
8
 10
3.6884088142227
 20
8.6345598402499
 11
3.69277625165
 21
8.6120914503723
  0
LINE
  8
ECSC.1a
  6
CONTINUOUS
 62
8
 10
3.5597702730153
 20
8.7335268618912
 11
3.5897208911741
 21
8.7201922591484
  0
LINE
  8
ECSC.1a
  6
CONTINUOUS
 62
8
 10
3.6884088142227
 20
8.6345598402499
 11
3.7145462723411
 21
8.6229227815104
  0
CIRCLE
  8
ECSC.1a
  6
CONTINUOUS
 62
8
 10
4.1419095064472
 20
8.3834720121199
 40
0.0039370078740157
  0
CIRCLE
  8
ECSC.1a
  6
CONTINUOUS
 62
8
 10
4.3303502349858
 20
8.3778294409791
 40
0.0039370078740157
  0
LINE
  8
ECSC.1a
  6
CONTINUOUS
 62
8
 10
4.1995341071388
 20
8.5016072834825
 11
4.223856673414
 21
8.4934459616827
  0
LINE
  8
ECSC.1a
  6
CONTINUOUS
 62
8
 10
4.2130405171421
 20
8.5216292272084
 11
4.1995365220883
 21
8.5016084909573
  0
LINE
  8
ECSC.1a
  6
CONTINUOUS
 62
8
 10
4.2130405171421
 20
8.5216292272084
 11
4.2238586858719
 21
8.4934475716491
  0
CIRCLE
  8
ECSC.1a
  6
CONTINUOUS
 62
8
 10
4.2592413672298
 20
8.9494959801042
 40
0.0039370078740157
  0
CIRCLE
  8
ECSC.1a
  6
CONTINUOUS
 62
8
 10
4.1665952926602
 20
8.9380292467096
 40
0.0039370078740157
  0
LINE
  8
ECSC.1a
  6
CONTINUOUS
 62
8
 10
4.1733758050457
 20
9.0260890361021
 11
4.1829731458527
 21
9.0278593123283
  0
LINE
  8
ECSC.1a
  6
CONTINUOUS
 62
8
 10
4.1741770380064
 20
9.0352412815114
 11
4.1733764174921
 21
9.0260894954369
  0
LINE
  8
ECSC.1a
  6
CONTINUOUS
 62
8
 10
4.1741770380064
 20
9.0352412815114
 11
4.1829737582991
 21
9.0278599247747
  0
CIRCLE
  8
ECSC.1a
  6
CONTINUOUS
 62
8
 10
4.0851888732187
 20
9.2019213280936
 40
0.0039370078740157
  0
CIRCLE
  8
ECSC.1a
  6
CONTINUOUS
 62
8
 10
3.8671048845534
 20
9.1500948253737
 40
0.0039370078740157
  0
LINE
  8
ECSC.1a
  6
CONTINUOUS
 62
8
 10
3.9204926526366
 20
9.1122900611974
 11
3.9300899934436
 21
9.1087715065459
  0
LINE
  8
ECSC.1a
  6
CONTINUOUS
 62
8
 10
3.9212938855973
 20
9.0940992979824
 11
3.9204932650829
 21
9.1122891482356
  0
LINE
  8
ECSC.1a
  6
CONTINUOUS
 62
8
 10
3.9212938855973
 20
9.0940992979824
 11
3.93009060589
 21
9.1087702892636
  0
LINE
  8
ECSC.1a
  6
CONTINUOUS
 62
8
 10
4.3050011676985
 20
8.9996284615472
 11
4.3280534231761
 21
8.991893639987
  0
LINE
  8
ECSC.1a
  6
CONTINUOUS
 62
8
 10
4.3178019998288
 20
9.0186054014434
 11
4.3050026936053
 21
8.9996296059773
  0
LINE
  8
ECSC.1a
  6
CONTINUOUS
 62
8
 10
4.3178019998288
 20
9.0186054014434
 11
4.3280553305595
 21
8.9918947844171
  0
LINE
  8
ECSC.1a
  6
CONTINUOUS
 62
8
 10
4.3995125341952
 20
8.8588783490851
 11
4.4259692242929
 21
8.8637587585677
  0
LINE
  8
ECSC.1a
  6
CONTINUOUS
 62
8
 10
4.4017216549452
 20
8.8841080781548
 11
4.3995142224801
 21
8.8588800373699
  0
LINE
  8
ECSC.1a
  6
CONTINUOUS
 62
8
 10
4.4017216549452
 20
8.8841080781548
 11
4.4259709125777
 21
8.8637604468525
  0
CIRCLE
  8
ECSC.1a
  6
CONTINUOUS
 62
8
 10
4.2834658202162
 20
8.9733994679537
 40
0.0039370078740157
  0
LINE
  8
ECSC.1a
  6
CONTINUOUS
 62
8
 10
4.302486378908
 20
8.9200116998706
 11
4.3042566551342
 21
8.9104143590636
  0
LINE
  8
ECSC.1a
  6
CONTINUOUS
 62
8
 10
4.3116386243172
 20
8.9192104669099
 11
4.3024868382428
 21
8.9200110874243
  0
LINE
  8
ECSC.1a
  6
CONTINUOUS
 62
8
 10
4.3116386243172
 20
8.9192104669099
 11
4.3042572675806
 21
8.9104137466172
  0
LINE
  8
ECSC.1a
  6
CONTINUOUS
 62
8
 10
3.2164191092359
 20
8.9776002479377
 11
3.5233483409612
 21
8.8003945733789
  0
LINE
  8
ECSC.1a
  6
CONTINUOUS
 62
8
 10
3.2164191092359
 20
8.8568820089511
 11
3.5233483409612
 21
8.6796763343923
  0
LINE
  8
ECSC.1a
  6
CONTINUOUS
 62
8
 10
3.2164191092359
 20
8.7432303811578
 11
3.5233483409612
 21
8.5660247065991
  0
LINE
  8
ECSC.1a
  6
CONTINUOUS
 62
8
 10
3.2164191092359
 20
8.6295787533646
 11
3.5233483409612
 21
8.4523730788058
  0
LINE
  8
ECSC.1a
  6
CONTINUOUS
 62
8
 10
3.2164191092359
 20
8.508860514378
 11
3.5233483409612
 21
8.3316548398192
  0
LINE
  8
ECSC.1a
  6
CONTINUOUS
 62
8
 10
3.2164191092359
 20
8.3952088865848
 11
3.5233483409612
 21
8.218003212026
  0
LINE
  8
ECSC.1a
  6
CONTINUOUS
 62
8
 10
3.2164191092359
 20
8.2815572587915
 11
3.3474578470181
 21
8.2059020082587
  0
LINE
  8
ECSC.1a
  6
CONTINUOUS
 62
8
 10
4.484293027117
 20
8.2385262889572
 11
4.5407999388471
 21
8.2059020082587
  0
POLYLINE
  8
ECSC.1a
  6
CONTINUOUS
 62
8
 70
1
 66
1
  0
VERTEX
  8
ECSC.1a
  6
CONTINUOUS
 62
8
 10
4.1516759171015
 20
8.8506030331195
  0
VERTEX
  8
ECSC.1a
  6
CONTINUOUS
 62
8
 10
4.1495743362798
 20
8.8223087913341
  0
VERTEX
  8
ECSC.1a
  6
CONTINUOUS
 62
8
 10
4.164755329527
 20
8.790836804388
  0
VERTEX
  8
ECSC.1a
  6
CONTINUOUS
 62
8
 10
4.1994940209876
 20
8.7471095449374
  0
VERTEX
  8
ECSC.1a
  6
CONTINUOUS
 62
8
 10
4.265874199732
 20
8.7404408409335
  0
VERTEX
  8
ECSC.1a
  6
CONTINUOUS
 62
8
 10
4.2958546818553
 20
8.732996393667
  0
VERTEX
  8
ECSC.1a
  6
CONTINUOUS
 62
8
 10
4.2967027850238
 20
8.7526579691179
  0
VERTEX
  8
ECSC.1a
  6
CONTINUOUS
 62
8
 10
4.2714022820258
 20
8.7864295331859
  0
VERTEX
  8
ECSC.1a
  6
CONTINUOUS
 62
8
 10
4.2400222325302
 20
8.8194813512633
  0
VERTEX
  8
ECSC.1a
  6
CONTINUOUS
 62
8
 10
4.1888760877825
 20
8.8413147280872
  0
VERTEX
  8
ECSC.1a
  6
CONTINUOUS
 62
8
 10
4.1846318933432
 20
8.8396231442626
  0
VERTEX
  8
ECSC.1a
  6
CONTINUOUS
 62
8
 10
4.1516759171015
 20
8.8506030331195
  0
SEQEND
  0
POLYLINE
  8
ECSC.1a
  6
CONTINUOUS
 62
8
 70
1
 66
1
  0
VERTEX
  8
ECSC.1a
  6
CONTINUOUS
 62
8
 10
4.4205020989245
 20
8.4623045756115
  0
VERTEX
  8
ECSC.1a
  6
CONTINUOUS
 62
8
 10
4.4224956410365
 20
8.483420694511
  0
VERTEX
  8
ECSC.1a
  6
CONTINUOUS
 62
8
 10
4.4080950769344
 20
8.5069083788038
  0
VERTEX
  8
ECSC.1a
  6
CONTINUOUS
 62
8
 10
4.3642558669891
 20
8.5221252995055
  0
VERTEX
  8
ECSC.1a
  6
CONTINUOUS
 62
8
 10
4.3121745565439
 20
8.5445191112078
  0
VERTEX
  8
ECSC.1a
  6
CONTINUOUS
 62
8
 10
4.2837353202174
 20
8.5500749354215
  0
VERTEX
  8
ECSC.1a
  6
CONTINUOUS
 62
8
 10
4.282930816596
 20
8.5354014139283
  0
VERTEX
  8
ECSC.1a
  6
CONTINUOUS
 62
8
 10
4.3069306635959
 20
8.5101975449682
  0
VERTEX
  8
ECSC.1a
  6
CONTINUOUS
 62
8
 10
4.3568783818851
 20
8.491140103537
  0
VERTEX
  8
ECSC.1a
  6
CONTINUOUS
 62
8
 10
4.3852143259985
 20
8.4692364791036
  0
VERTEX
  8
ECSC.1a
  6
CONTINUOUS
 62
8
 10
4.3892403335916
 20
8.4704989156601
  0
VERTEX
  8
ECSC.1a
  6
CONTINUOUS
 62
8
 10
4.4205020989245
 20
8.4623045756115
  0
SEQEND
  0
POLYLINE
  8
ECSC.1a
  6
CONTINUOUS
 62
8
 70
1
 66
1
  0
VERTEX
  8
ECSC.1a
  6
CONTINUOUS
 62
8
 10
4.0640905833209
 20
9.0952322701197
  0
VERTEX
  8
ECSC.1a
  6
CONTINUOUS
 62
8
 10
4.0667618015875
 20
9.1166082418344
  0
VERTEX
  8
ECSC.1a
  6
CONTINUOUS
 62
8
 10
4.0474659714925
 20
9.1403849631851
  0
VERTEX
  8
ECSC.1a
  6
CONTINUOUS
 62
8
 10
3.9887242485569
 20
9.1557891417679
  0
VERTEX
  8
ECSC.1a
  6
CONTINUOUS
 62
8
 10
3.9189386408301
 20
9.1784585294431
  0
VERTEX
  8
ECSC.1a
  6
CONTINUOUS
 62
8
 10
3.8808318924906
 20
9.1840827230655
  0
VERTEX
  8
ECSC.1a
  6
CONTINUOUS
 62
8
 10
3.8797539093588
 20
9.1692286307067
  0
VERTEX
  8
ECSC.1a
  6
CONTINUOUS
 62
8
 10
3.9119121614058
 20
9.1437146054944
  0
VERTEX
  8
ECSC.1a
  6
CONTINUOUS
 62
8
 10
3.9788388928107
 20
9.124422645124
  0
VERTEX
  8
ECSC.1a
  6
CONTINUOUS
 62
8
 10
4.0168072362253
 20
9.1022494769123
  0
VERTEX
  8
ECSC.1a
  6
CONTINUOUS
 62
8
 10
4.022201827571
 20
9.1035274488849
  0
VERTEX
  8
ECSC.1a
  6
CONTINUOUS
 62
8
 10
4.0640905833209
 20
9.0952322701197
  0
SEQEND
  0
POLYLINE
  8
ECSC.1a
  6
CONTINUOUS
 62
8
 70
1
 66
1
  0
VERTEX
  8
ECSC.1a
  6
CONTINUOUS
 62
8
 10
3.8037803662199
 20
8.459627129617
  0
VERTEX
  8
ECSC.1a
  6
CONTINUOUS
 62
8
 10
3.8064515844865
 20
8.4879213714024
  0
VERTEX
  8
ECSC.1a
  6
CONTINUOUS
 62
8
 10
3.7871557543916
 20
8.5193933583485
  0
VERTEX
  8
ECSC.1a
  6
CONTINUOUS
 62
8
 10
3.7172991892368
 20
8.5326180927923
  0
VERTEX
  8
ECSC.1a
  6
CONTINUOUS
 62
8
 10
3.6539960313856
 20
8.5753109201804
  0
VERTEX
  8
ECSC.1a
  6
CONTINUOUS
 62
8
 10
3.6194436922579
 20
8.5575721936186
  0
VERTEX
  8
ECSC.1a
  6
CONTINUOUS
 62
8
 10
3.6516019443049
 20
8.5238006295506
  0
VERTEX
  8
ECSC.1a
  6
CONTINUOUS
 62
8
 10
3.7185286757098
 20
8.498264883222
  0
VERTEX
  8
ECSC.1a
  6
CONTINUOUS
 62
8
 10
3.7564970191244
 20
8.4689154346493
  0
VERTEX
  8
ECSC.1a
  6
CONTINUOUS
 62
8
 10
3.7618916104701
 20
8.4706070184739
  0
VERTEX
  8
ECSC.1a
  6
CONTINUOUS
 62
8
 10
3.8037803662199
 20
8.459627129617
  0
SEQEND
  0
POLYLINE
  8
ECSC.1a
  6
CONTINUOUS
 62
8
 70
1
 66
1
  0
VERTEX
  8
ECSC.1a
  6
CONTINUOUS
 62
8
 10
3.9267544390859
 20
8.2059020082587
  0
VERTEX
  8
ECSC.1a
  6
CONTINUOUS
 62
8
 10
3.7987189712167
 20
8.3189796366873
  0
VERTEX
  8
ECSC.1a
  6
CONTINUOUS
 62
8
 10
3.7104615127825
 20
8.3384679824407
  0
VERTEX
  8
ECSC.1a
  6
CONTINUOUS
 62
8
 10
3.6880863824753
 20
8.4055933733625
  0
VERTEX
  8
ECSC.1a
  6
CONTINUOUS
 62
8
 10
3.6085303636051
 20
8.4354268804388
  0
VERTEX
  8
ECSC.1a
  6
CONTINUOUS
 62
8
 10
3.5749676681442
 20
8.3662160228915
  0
VERTEX
  8
ECSC.1a
  6
CONTINUOUS
 62
8
 10
3.560050914606
 20
8.3289241390461
  0
VERTEX
  8
ECSC.1a
  6
CONTINUOUS
 62
8
 10
3.5625370401957
 20
8.2692571248934
  0
VERTEX
  8
ECSC.1a
  6
CONTINUOUS
 62
8
 10
3.56875235417
 20
8.2059020082587
  0
VERTEX
  8
ECSC.1a
  6
CONTINUOUS
 62
8
 10
3.9267544390859
 20
8.2059020082587
  0
SEQEND
  0
POLYLINE
  8
ECSC.1a
  6
CONTINUOUS
 62
8
 70
1
 66
1
  0
VERTEX
  8
ECSC.1a
  6
CONTINUOUS
 62
8
 10
3.9312115085667
 20
8.3165119011436
  0
VERTEX
  8
ECSC.1a
  6
CONTINUOUS
 62
8
 10
3.9292405646756
 20
8.2956351485035
  0
VERTEX
  8
ECSC.1a
  6
CONTINUOUS
 62
8
 10
3.9434778881188
 20
8.2724137138543
  0
VERTEX
  8
ECSC.1a
  6
CONTINUOUS
 62
8
 10
3.9950211753391
 20
8.2626559153662
  0
VERTEX
  8
ECSC.1a
  6
CONTINUOUS
 62
8
 10
4.0417290665709
 20
8.2311552445354
  0
VERTEX
  8
ECSC.1a
  6
CONTINUOUS
 62
8
 10
4.0672233223484
 20
8.244243667593
  0
VERTEX
  8
ECSC.1a
  6
CONTINUOUS
 62
8
 10
4.0434955307215
 20
8.2691618327329
  0
VERTEX
  8
ECSC.1a
  6
CONTINUOUS
 62
8
 10
3.9941140054221
 20
8.2880032444813
  0
VERTEX
  8
ECSC.1a
  6
CONTINUOUS
 62
8
 10
3.9660992694333
 20
8.3096585757187
  0
VERTEX
  8
ECSC.1a
  6
CONTINUOUS
 62
8
 10
3.962118899506
 20
8.3084104497804
  0
VERTEX
  8
ECSC.1a
  6
CONTINUOUS
 62
8
 10
3.9312115085667
 20
8.3165119011436
  0
SEQEND
  0
POLYLINE
  8
ECSC.1a
  6
CONTINUOUS
 62
8
 70
1
 66
1
  0
VERTEX
  8
ECSC.1a
  6
CONTINUOUS
 62
8
 10
4.1445280026395
 20
8.4971027895826
  0
VERTEX
  8
ECSC.1a
  6
CONTINUOUS
 62
8
 10
4.1471992209061
 20
8.525397031368
  0
VERTEX
  8
ECSC.1a
  6
CONTINUOUS
 62
8
 10
4.1279033908112
 20
8.556869018314
  0
VERTEX
  8
ECSC.1a
  6
CONTINUOUS
 62
8
 10
4.0691616678756
 20
8.5772587137695
  0
VERTEX
  8
ECSC.1a
  6
CONTINUOUS
 62
8
 10
3.9993760601488
 20
8.6072649817686
  0
VERTEX
  8
ECSC.1a
  6
CONTINUOUS
 62
8
 10
3.9612693118092
 20
8.6147094290351
  0
VERTEX
  8
ECSC.1a
  6
CONTINUOUS
 62
8
 10
3.9601913286775
 20
8.5950478535842
  0
VERTEX
  8
ECSC.1a
  6
CONTINUOUS
 62
8
 10
3.9923495807245
 20
8.5612762895162
  0
VERTEX
  8
ECSC.1a
  6
CONTINUOUS
 62
8
 10
4.0592763121294
 20
8.5357405431875
  0
VERTEX
  8
ECSC.1a
  6
CONTINUOUS
 62
8
 10
4.097244655544
 20
8.5063910946149
  0
VERTEX
  8
ECSC.1a
  6
CONTINUOUS
 62
8
 10
4.1026392468897
 20
8.5080826784395
  0
VERTEX
  8
ECSC.1a
  6
CONTINUOUS
 62
8
 10
4.1445280026395
 20
8.4971027895826
  0
SEQEND
  0
POLYLINE
  8
ECSC.1a
  6
CONTINUOUS
 62
8
 70
1
 66
1
  0
VERTEX
  8
ECSC.1a
  6
CONTINUOUS
 62
8
 10
3.7297102313996
 20
8.9004105353739
  0
VERTEX
  8
ECSC.1a
  6
CONTINUOUS
 62
8
 10
3.7318118122213
 20
8.9287047771593
  0
VERTEX
  8
ECSC.1a
  6
CONTINUOUS
 62
8
 10
3.7166308189741
 20
8.9601767641053
  0
VERTEX
  8
ECSC.1a
  6
CONTINUOUS
 62
8
 10
3.6818921275135
 20
9.0039040235559
  0
VERTEX
  8
ECSC.1a
  6
CONTINUOUS
 62
8
 10
3.6155119487691
 20
9.0105727275599
  0
VERTEX
  8
ECSC.1a
  6
CONTINUOUS
 62
8
 10
3.5855314666458
 20
9.0180171748264
  0
VERTEX
  8
ECSC.1a
  6
CONTINUOUS
 62
8
 10
3.5846833634773
 20
8.9983555993755
  0
VERTEX
  8
ECSC.1a
  6
CONTINUOUS
 62
8
 10
3.6099838664753
 20
8.9645840353075
  0
VERTEX
  8
ECSC.1a
  6
CONTINUOUS
 62
8
 10
3.6413639159709
 20
8.93153221723
  0
VERTEX
  8
ECSC.1a
  6
CONTINUOUS
 62
8
 10
3.6925100607186
 20
8.9096988404062
  0
VERTEX
  8
ECSC.1a
  6
CONTINUOUS
 62
8
 10
3.6967542551579
 20
8.9113904242308
  0
VERTEX
  8
ECSC.1a
  6
CONTINUOUS
 62
8
 10
3.7297102313996
 20
8.9004105353739
  0
SEQEND
  0
POLYLINE
  8
ECSC.1a
  6
CONTINUOUS
 62
8
 70
1
 66
1
  0
VERTEX
  8
ECSC.1a
  6
CONTINUOUS
 62
8
 10
4.3625606766601
 20
8.821953320296
  0
VERTEX
  8
ECSC.1a
  6
CONTINUOUS
 62
8
 10
4.3642372772221
 20
8.836017728008
  0
VERTEX
  8
ECSC.1a
  6
CONTINUOUS
 62
8
 10
4.352126174215
 20
8.851661718728
  0
VERTEX
  8
ECSC.1a
  6
CONTINUOUS
 62
8
 10
4.3244123175681
 20
8.873397519592
  0
VERTEX
  8
ECSC.1a
  6
CONTINUOUS
 62
8
 10
4.2714554939066
 20
8.8767123768246
  0
VERTEX
  8
ECSC.1a
  6
CONTINUOUS
 62
8
 10
4.2475376447063
 20
8.8804128379411
  0
VERTEX
  8
ECSC.1a
  6
CONTINUOUS
 62
8
 10
4.2468610443899
 20
8.8706395273325
  0
VERTEX
  8
ECSC.1a
  6
CONTINUOUS
 62
8
 10
4.2670452966948
 20
8.853852470456
  0
VERTEX
  8
ECSC.1a
  6
CONTINUOUS
 62
8
 10
4.292079693695
 20
8.8374231825255
  0
VERTEX
  8
ECSC.1a
  6
CONTINUOUS
 62
8
 10
4.3328830994647
 20
8.8265703201053
  0
VERTEX
  8
ECSC.1a
  6
CONTINUOUS
 62
8
 10
4.3362690357601
 20
8.8274111669733
  0
VERTEX
  8
ECSC.1a
  6
CONTINUOUS
 62
8
 10
4.3625606766601
 20
8.821953320296
  0
SEQEND
  0
POLYLINE
  8
ECSC.1a
  6
CONTINUOUS
 62
8
 70
1
 66
1
  0
VERTEX
  8
ECSC.1a
  6
CONTINUOUS
 62
8
 10
4.2911759101828
 20
9.0861872245116
  0
VERTEX
  8
ECSC.1a
  6
CONTINUOUS
 62
8
 10
4.3094867845012
 20
9.1087814426677
  0
VERTEX
  8
ECSC.1a
  6
CONTINUOUS
 62
8
 10
4.2655344777949
 20
9.1351528266914
  0
VERTEX
  8
ECSC.1a
  6
CONTINUOUS
 62
8
 10
4.2156172151786
 20
9.1502221889907
  0
VERTEX
  8
ECSC.1a
  6
CONTINUOUS
 62
8
 10
4.2065128087895
 20
9.1338970464998
  0
VERTEX
  8
ECSC.1a
  6
CONTINUOUS
 62
8
 10
4.1879900509633
 20
9.1376643870747
  0
VERTEX
  8
ECSC.1a
  6
CONTINUOUS
 62
8
 10
4.1722927985682
 20
9.1181997941048
  0
VERTEX
  8
ECSC.1a
  6
CONTINUOUS
 62
8
 10
4.2078193470577
 20
9.0900642739593
  0
VERTEX
  8
ECSC.1a
  6
CONTINUOUS
 62
8
 10
4.2465898415345
 20
9.0881257492354
  0
VERTEX
  8
ECSC.1a
  6
CONTINUOUS
 62
8
 10
4.2911759101828
 20
9.0861872245116
  0
SEQEND
  0
LINE
  8
ECSC.1a
  6
CONTINUOUS
 62
8
 10
3.2164191092359
 20
9.7236408918777
 11
3.5233483409612
 21
9.546435217319
  0
LINE
  8
ECSC.1a
  6
CONTINUOUS
 62
8
 10
3.2164191092359
 20
9.6099892640845
 11
3.5233483409612
 21
9.4327835895257
  0
LINE
  8
ECSC.1a
  6
CONTINUOUS
 62
8
 10
3.2164191092359
 20
9.4963376362913
 11
3.5233483409612
 21
9.3191319617325
  0
LINE
  8
ECSC.1a
  6
CONTINUOUS
 62
8
 10
3.2164191092359
 20
9.3756193973047
 11
3.5233483409612
 21
9.1984137227459
  0
LINE
  8
ECSC.1a
  6
CONTINUOUS
 62
8
 10
3.2164191092359
 20
9.2619677695114
 11
3.5233483409612
 21
9.0847620949527
  0
LINE
  8
ECSC.1a
  6
CONTINUOUS
 62
8
 10
3.2164191092359
 20
9.1483161417182
 11
3.5233483409612
 21
8.9711104671594
  0
LINE
  8
ECSC.1a
  6
CONTINUOUS
 62
8
 10
3.2164191092359
 20
9.034664513925
 11
3.5233483409612
 21
8.8574588393662
  0
LINE
  8
ECSC.1a
  6
CONTINUOUS
 62
8
 10
3.2164191092359
 20
8.9139462749384
 11
3.5233483409612
 21
8.7367406003796
  0
LINE
  8
ECSC.1a
  6
CONTINUOUS
 62
8
 10
3.2164191092359
 20
8.8002946471452
 11
3.5233483409612
 21
8.6230889725864
  0
LINE
  8
ECSC.1a
  6
CONTINUOUS
 62
8
 10
3.2164191092359
 20
8.6866430193519
 11
3.5233483409612
 21
8.5094373447932
  0
LINE
  8
ECSC.1a
  6
CONTINUOUS
 62
8
 10
3.2164191092359
 20
8.5659247803653
 11
3.5233483409612
 21
8.3887191058066
  0
LINE
  8
ECSC.1a
  6
CONTINUOUS
 62
8
 10
3.2164191092359
 20
8.4522731525721
 11
3.5233483409612
 21
8.2750674780133
  0
LINE
  8
ECSC.1a
  6
CONTINUOUS
 62
8
 10
4.484293027117
 20
8.4163087939311
 11
4.7912222588422
 21
8.2391031193723
  0
LINE
  8
ECSC.1a
  6
CONTINUOUS
 62
8
 10
4.484293027117
 20
8.5299604217243
 11
4.7912222588422
 21
8.3527547471656
  0
LINE
  8
ECSC.1a
  6
CONTINUOUS
 62
8
 10
4.484293027117
 20
8.6506786607109
 11
4.7912222588422
 21
8.4734729861521
  0
LINE
  8
ECSC.1a
  6
CONTINUOUS
 62
8
 10
4.484293027117
 20
8.7643302885041
 11
4.7912222588422
 21
8.5871246139454
  0
LINE
  8
ECSC.1a
  6
CONTINUOUS
 62
8
 10
4.484293027117
 20
8.8779819162974
 11
4.7912222588422
 21
8.7007762417386
  0
LINE
  8
ECSC.1a
  6
CONTINUOUS
 62
8
 10
4.484293027117
 20
8.9916335440906
 11
4.7912222588422
 21
8.8144278695318
  0
LINE
  8
ECSC.1a
  6
CONTINUOUS
 62
8
 10
3.2164191092359
 20
8.3386215247789
 11
3.4462960550048
 21
8.2059020082587
  0
LINE
  8
ECSC.1a
  6
CONTINUOUS
 62
8
 10
4.4842930271169
 20
8.3026571661379
 11
4.6518778764579
 21
8.2059020082587
  0
ENDSEC
  0
EOF
